  0
SECTION
  2
HEADER
  9
$ACADVER
  1
AC1009
  9
$INSBASE
 10
0
 20
0
  9
$EXTMIN
 10
-43.6746829441588
 20
-256.217940244439
  9
$EXTMAX
 10
207.6253170558412
 20
-177.5
  9
$LIMMIN
 10
-43.6746829441588
 20
-256.217940244439
  9
$LIMMAX
 10
207.6253170558412
 20
-177.5
  9
$VIEWCTR
 10
10
 20
10
  9
$VIEWSIZE
 40
10
  9
$SNAPMODE
 70
0
  9
$SNAPUNIT
 10
1
 20
1
  9
$SNAPBASE
 10
0
 20
0
  9
$SNAPANG
 50
0
  9
$SNAPSTYLE
 70
0
  9
$SNAPISOPAIR
 70
0
  9
$GRIDMODE
 70
0
  9
$GRIDUNIT
 10
0
 20
0
  9
$ORTHOMODE
 70
0
  9
$REGENMODE
 70
1
  9
$FILLMODE
 70
1
  9
$QTEXTMODE
 70
0
  9
$DRAGMODE
 70
2
  9
$LTSCALE
 40
1
  9
$OSMODE
 70
0
  9
$ATTMODE
 70
1
  9
$TEXTSIZE
 40
3.5
  9
$TRACEWID
 40
0.5
  9
$TEXTSTYLE
  7
STANDARD
  9
$CLAYER
  8
0
  9
$CELTYPE
  6
BYLAYER
  9
$CECOLOR
 62
256
  9
$DIMSCALE
 40
1
  9
$DIMASZ
 40
0.18
  9
$DIMEXO
 40
0.0625
  9
$DIMDLI
 40
0.38
  9
$DIMRND
 40
0
  9
$DIMDLE
 40
0
  9
$DIMEXE
 40
0.18
  9
$DIMTP
 40
0
  9
$DIMTM
 40
0
  9
$DIMTXT
 40
0.18
  9
$DIMCEN
 40
0.09
  9
$DIMTSZ
 40
0
  9
$DIMTOL
 70
0
  9
$DIMLIM
 70
0
  9
$DIMTIH
 70
1
  9
$DIMTOH
 70
1
  9
$DIMSE1
 70
0
  9
$DIMSE2
 70
0
  9
$DIMTAD
 70
0
  9
$DIMZIN
 70
0
  9
$DIMBLK
  1

  9
$DIMASO
 70
1
  9
$DIMSHO
 70
1
  9
$DIMPOST
  1

  9
$DIMAPOST
  1

  9
$DIMALT
 70
0
  9
$DIMALTD
 70
2
  9
$DIMALTF
 40
25.4
  9
$DIMLFAC
 40
1
  9
$DIMTOFL
 70
0
  9
$DIMTVP
 40
0
  9
$DIMTIX
 70
0
  9
$DIMSOXD
 70
0
  9
$DIMSAH
 70
0
  9
$DIMBLK1
  1

  9
$DIMBLK2
  1

  9
$DIMSTYLE
  2
*UNNAMED
  9
$DIMCLRD
 70
0
  9
$DIMCLRE
 70
0
  9
$DIMCLRT
 70
0
  9
$DIMTFAC
 40
1
  9
$DIMGAP
 40
0.09
  9
$LUNITS
 70
2
  9
$LUPREC
 70
4
  9
$AXISMODE
 70
0
  9
$AXISUNIT
 10
0
 20
0
  9
$SKETCHINC
 40
0.1
  9
$FILLETRAD
 40
2
  9
$AUNITS
 70
0
  9
$AUPREC
 70
0
  9
$MENU
  1
ACAD
  9
$ELEVATION
 40
0
  9
$THICKNESS
 40
0
  9
$VIEWDIR
 10
0
 20
0
 30
1
  9
$LIMCHECK
 70
0
  9
$BLIPMODE
 70
1
  9
$CHAMFERA
 40
0
  9
$CHAMFERB
 40
0
  9
$FASTZOOM
 70
1
  9
$SKPOLY
 70
0
  9
$ANGBASE
 50
0
  9
$ANGDIR
 70
0
  9
$PDMODE
 70
0
  9
$PDSIZE
 40
0
  9
$PLINEWID
 40
0
  9
$COORDS
 70
2
  0
ENDSEC
  0
SECTION
  2
TABLES
  0
TABLE
  2
DIMSTYLE
 70
0
  0
ENDTAB
  0
TABLE
  2
LTYPE
 70
9
  0
LTYPE
  2
CONTINUOUS
 70
64
  3
Solid line
 72
65
 73
0
 40
0
  0
LTYPE
  2
BORDER
 70
64
  3
__ __ . __ __ .
 72
65
 73
6
 40
11.57302631578947
 49
3.306578947368421
 49
-1.653289473684211
 49
3.306578947368421
 49
-1.653289473684211
 49
0
 49
-1.653289473684211
  0
LTYPE
  2
CENTER
 70
64
  3
____ _ ____ _
 72
65
 73
4
 40
13.22631578947368
 49
8.266447368421053
 49
-1.653289473684211
 49
1.653289473684211
 49
-1.653289473684211
  0
LTYPE
  2
DASHDOT
 70
64
  3
__ . __ . __ .
 72
65
 73
4
 40
6.613157894736842
 49
3.306578947368421
 49
-1.653289473684211
 49
0
 49
-1.653289473684211
  0
LTYPE
  2
DASHED
 70
64
  3
__ __ __ __ __
 72
65
 73
2
 40
4.959868421052631
 49
3.306578947368421
 49
-1.653289473684211
  0
LTYPE
  2
DIVIDE
 70
64
  3
__ . . __ . . 
 72
65
 73
6
 40
8.266447368421053
 49
3.306578947368421
 49
-1.653289473684211
 49
0
 49
-1.653289473684211
 49
0
 49
-1.653289473684211
  0
LTYPE
  2
DOT
 70
64
  3
..............
 72
65
 73
4
 40
3.306578947368421
 49
0
 49
-1.653289473684211
 49
0
 49
-1.653289473684211
  0
LTYPE
  2
HIDDEN
 70
64
  3
_ _ _ _ _ _ _
 72
65
 73
2
 40
2.479934210526316
 49
1.653289473684211
 49
-0.8266447368421053
  0
LTYPE
  2
PHANTOM
 70
64
  3
_____ _ _ _____ _ _ 
 72
65
 73
6
 40
16.53289473684211
 49
8.266447368421053
 49
-1.653289473684211
 49
1.653289473684211
 49
-1.653289473684211
 49
1.653289473684211
 49
-1.653289473684211
  0
ENDTAB
  0
TABLE
  2
LAYER
 70
3
  0
LAYER
  2
1
 70
0
 62
7
  6
CONTINUOUS
  0
LAYER
  2
0
 70
0
 62
7
  6
CONTINUOUS
  0
ENDTAB
  0
TABLE
  2
STYLE
 70
4
  0
STYLE
  2
STANDARD
 70
0
 40
0
 41
1
 50
0
 71
0
 42
3.5
  3
txt
  4

  0
STYLE
  2
SIMPLEX
 70
0
 40
0
 41
1
 50
0
 71
0
 42
3.5
  3
simplex
  4

  0
STYLE
  2
COMPLEX
 70
0
 40
0
 41
1
 50
0
 71
0
 42
3.5
  3
complex
  4

  0
STYLE
  2
ITALIC
 70
0
 40
0
 41
1
 50
0
 71
0
 42
3.5
  3
italic
  4

  0
ENDTAB
  0
TABLE
  2
VIEW
 70
0
  0
ENDTAB
  0
ENDSEC
  0
SECTION
  2
BLOCKS
  0
BLOCK
  8
1
  2
*X0
 70
1
 10
0
 20
0
 30
0
  0
LINE
  8
1
 62
3
 10
85.92531705584116
 20
-234.8920863309353
 30
0
 11
90.92531705584116
 21
-234.8920863309353
 31
0
  0
LINE
  8
1
 62
3
 10
85.92531705584116
 20
-235.8920863309353
 30
0
 11
90.92531705584116
 21
-235.8920863309353
 31
0
  0
LINE
  8
1
 62
3
 10
85.92531705584116
 20
-236.8920863309353
 30
0
 11
90.92531705584116
 21
-236.8920863309353
 31
0
  0
LINE
  8
1
 62
3
 10
85.92531705584116
 20
-237.8920863309353
 30
0
 11
90.92531705584116
 21
-237.8920863309353
 31
0
  0
ENDBLK
  8
0
  0
ENDSEC
  0
SECTION
  2
ENTITIES
  0
INSERT
  8
1
  2
*X0
 10
0
 20
0
 30
0
  0
LINE
  8
1
 62
7
 10
205.6253170558412
 20
-234.217940244439
 30
0
 11
205.6253170558412
 21
-242.217940244439
 31
0
  0
LINE
  8
1
 62
7
 10
205.6253170558412
 20
-234.217940244439
 30
0
 11
25.62531705584116
 21
-234.217940244439
 31
0
  0
LINE
  8
1
 62
7
 10
75.62531705584115
 20
-254.217940244439
 30
0
 11
75.62531705584115
 21
-238.217940244439
 31
0
  0
LINE
  8
1
 62
7
 10
115.6253170558412
 20
-254.217940244439
 30
0
 11
115.6253170558412
 21
-238.217940244439
 31
0
  0
LINE
  8
1
 62
7
 10
205.6253170558412
 20
-242.217940244439
 30
0
 11
115.6253170558412
 21
-242.217940244439
 31
0
  0
LINE
  8
1
 62
7
 10
73.62531705584115
 20
-242.217940244439
 30
0
 11
25.62531705584116
 21
-242.217940244439
 31
0
  0
LINE
  8
1
 62
7
 10
115.6253170558412
 20
-254.217940244439
 30
0
 11
75.62531705584115
 21
-254.217940244439
 31
0
  0
LINE
  8
1
 62
7
 10
75.62531705584115
 20
-245.717940244439
 30
0
 11
73.62531705584115
 21
-245.717940244439
 31
0
  0
LINE
  8
1
 62
7
 10
73.62531705584115
 20
-238.217940244439
 30
0
 11
73.62531705584115
 21
-245.717940244439
 31
0
  0
LINE
  8
1
 62
3
 10
113.5253170558411
 20
-230.6934417826116
 30
0
 11
113.5253170558411
 21
-233.8447470261717
 31
0
  0
LINE
  8
1
 62
3
 10
109.7253170558412
 20
-230.6434210644599
 30
0
 11
109.7253170558412
 21
-233.7447055898682
 31
0
  0
LINE
  8
1
 62
3
 10
81.52531705584113
 20
-233.7447055898682
 30
0
 11
81.52531705584113
 21
-230.6434210644599
 31
0
  0
LINE
  8
1
 62
3
 10
77.72531705584117
 20
-230.6934417826116
 30
0
 11
77.72531705584117
 21
-233.7447055898682
 31
0
  0
LINE
  8
1
 62
7
 10
78.50728306709124
 20
-233.217940244439
 30
0
 11
77.12531705584115
 21
-233.217940244439
 31
0
  0
LINE
  8
1
 62
7
 10
114.1253170558412
 20
-231.217940244439
 30
0
 11
112.7433510445911
 21
-231.217940244439
 31
0
  0
LINE
  8
1
 62
7
 10
112.7433510445911
 20
-233.217940244439
 30
0
 11
114.1253170558412
 21
-233.217940244439
 31
0
  0
LINE
  8
1
 62
7
 10
109.1253170558412
 20
-233.217940244439
 30
0
 11
110.5072830670912
 21
-233.217940244439
 31
0
  0
LINE
  8
1
 62
7
 10
109.1253170558412
 20
-234.217940244439
 30
0
 11
109.1253170558412
 21
-230.217940244439
 31
0
  0
LINE
  8
1
 62
7
 10
109.1253170558412
 20
-231.217940244439
 30
0
 11
110.5072830670912
 21
-231.217940244439
 31
0
  0
LINE
  8
1
 62
7
 10
82.12531705584115
 20
-230.217940244439
 30
0
 11
82.12531705584115
 21
-234.217940244439
 31
0
  0
LINE
  8
1
 62
7
 10
80.74335104459107
 20
-231.217940244439
 30
0
 11
82.12531705584115
 21
-231.217940244439
 31
0
  0
LINE
  8
1
 62
7
 10
80.74335104459107
 20
-233.217940244439
 30
0
 11
82.12531705584115
 21
-233.217940244439
 31
0
  0
LINE
  8
1
 62
7
 10
77.12531705584115
 20
-234.217940244439
 30
0
 11
77.12531705584115
 21
-230.217940244439
 31
0
  0
LINE
  8
1
 62
7
 10
77.12531705584115
 20
-231.217940244439
 30
0
 11
78.50728306709124
 21
-231.217940244439
 31
0
  0
LINE
  8
1
 62
7
 10
83.12531705584092
 20
-232.717940244439
 30
0
 11
82.12531705584092
 21
-232.717940244439
 31
0
  0
LINE
  8
1
 62
7
 10
83.12531705584092
 20
-227.717940244439
 30
0
 11
83.12531705584092
 21
-232.717940244439
 31
0
  0
LINE
  8
1
 62
7
 10
82.12531705584092
 20
-226.717940244439
 30
0
 11
83.12531705584092
 21
-227.717940244439
 31
0
  0
LINE
  8
1
 62
7
 10
82.12531705584092
 20
-225.717940244439
 30
0
 11
82.12531705584092
 21
-226.717940244439
 31
0
  0
LINE
  8
1
 62
7
 10
82.5253170558409
 20
-225.717940244439
 30
0
 11
82.12531705584092
 21
-225.717940244439
 31
0
  0
LINE
  8
1
 62
7
 10
84.12531705584092
 20
-227.317940244439
 30
0
 11
82.5253170558409
 21
-225.717940244439
 31
0
  0
LINE
  8
1
 62
7
 10
84.12531705584092
 20
-224.5679402444389
 30
0
 11
84.12531705584092
 21
-227.317940244439
 31
0
  0
LINE
  8
1
 62
7
 10
114.1253170558412
 20
-230.217940244439
 30
0
 11
114.1253170558412
 21
-234.217940244439
 31
0
  0
LINE
  8
1
 62
7
 10
114.1253170558412
 20
-231.717940244439
 30
0
 11
115.6253170558412
 21
-231.7179402444397
 31
0
  0
LINE
  8
1
 62
7
 10
107.1253170558412
 20
-224.5679402444389
 30
0
 11
84.12531705584092
 21
-224.5679402444389
 31
0
  0
LINE
  8
1
 62
7
 10
107.1253170558412
 20
-227.317940244439
 30
0
 11
107.1253170558412
 21
-224.5679402444389
 31
0
  0
LINE
  8
1
 62
7
 10
108.7253170558412
 20
-225.717940244439
 30
0
 11
107.1253170558412
 21
-227.317940244439
 31
0
  0
LINE
  8
1
 62
7
 10
109.1253170558412
 20
-225.717940244439
 30
0
 11
108.7253170558412
 21
-225.717940244439
 31
0
  0
LINE
  8
1
 62
7
 10
109.1253170558412
 20
-226.717940244439
 30
0
 11
109.1253170558412
 21
-225.717940244439
 31
0
  0
LINE
  8
1
 62
7
 10
108.1253170558412
 20
-227.717940244439
 30
0
 11
109.1253170558412
 21
-226.717940244439
 31
0
  0
LINE
  8
1
 62
7
 10
108.1253170558412
 20
-232.717940244439
 30
0
 11
108.1253170558412
 21
-227.717940244439
 31
0
  0
LINE
  8
1
 62
7
 10
109.1253170558412
 20
-232.717940244439
 30
0
 11
108.1253170558412
 21
-232.717940244439
 31
0
  0
LINE
  8
1
 62
7
 10
77.12531705584115
 20
-230.217940244439
 30
0
 11
82.12531705584115
 21
-230.217940244439
 31
0
  0
LINE
  8
1
 62
7
 10
114.1253170558412
 20
-230.217940244439
 30
0
 11
109.1253170558412
 21
-230.217940244439
 31
0
  0
LINE
  8
1
 62
7
 10
110.1253170558412
 20
-225.217940244439
 30
0
 11
110.1253170558412
 21
-230.217940244439
 31
0
  0
LINE
  8
1
 62
7
 10
107.6253170558412
 20
-225.217940244439
 30
0
 11
110.1253170558412
 21
-225.217940244439
 31
0
  0
LINE
  8
1
 62
7
 10
107.6253170558412
 20
-223.7179402444397
 30
0
 11
107.6253170558412
 21
-225.217940244439
 31
0
  0
LINE
  8
1
 62
7
 10
73.62531705584115
 20
-230.717940244439
 30
0
 11
73.62531705584115
 21
-234.217940244439
 31
0
  0
LINE
  8
1
 62
7
 10
73.62531705584115
 20
-231.717940244439
 30
0
 11
77.12531705584115
 21
-231.717940244439
 31
0
  0
LINE
  8
1
 62
7
 10
83.62531705584115
 20
-225.217940244439
 30
0
 11
81.12531705584115
 21
-225.217940244439
 31
0
  0
LINE
  8
1
 62
7
 10
83.62531705584115
 20
-223.717940244439
 30
0
 11
115.6253170558412
 21
-223.7179402444397
 31
0
  0
LINE
  8
1
 62
7
 10
83.62531705584115
 20
-223.717940244439
 30
0
 11
83.62531705584115
 21
-225.217940244439
 31
0
  0
LINE
  8
1
 62
7
 10
75.62531705584115
 20
-222.217940244439
 30
0
 11
115.6253170558412
 21
-222.217940244439
 31
0
  0
LINE
  8
1
 62
7
 10
115.6253170558412
 20
-234.217940244439
 30
0
 11
115.6253170558412
 21
-222.217940244439
 31
0
  0
LINE
  8
1
 62
7
 10
73.62531705584115
 20
-230.717940244439
 30
0
 11
75.62531705584115
 21
-230.717940244439
 31
0
  0
LINE
  8
1
 62
3
  6
DASHDOT
 10
74.20200441585519
 20
-227.717940244439
 30
0
 11
82.03196020372928
 21
-227.717940244439
 31
0
  0
LINE
  8
1
 62
7
 10
75.62531705584115
 20
-226.7676964461771
 30
0
 11
81.12531705584115
 21
-226.7676964461771
 31
0
  0
LINE
  8
1
 62
7
 10
75.62531705584115
 20
-222.217940244439
 30
0
 11
75.62531705584115
 21
-230.717940244439
 31
0
  0
LINE
  8
1
 62
7
 10
81.12531705584115
 20
-230.217940244439
 30
0
 11
81.12531705584115
 21
-225.217940244439
 31
0
  0
LINE
  8
1
 62
7
 10
75.62531705584115
 20
-228.6681840427009
 30
0
 11
81.12531705584115
 21
-228.6681840427009
 31
0
  0
LINE
  8
1
 62
3
 10
75.62531705584115
 20
-226.217940244439
 30
0
 11
81.12531705584115
 21
-226.217940244439
 31
0
  0
LINE
  8
1
 62
3
 10
75.62531705584115
 20
-229.217940244439
 30
0
 11
81.12531705584115
 21
-229.217940244439
 31
0
  0
LINE
  8
1
 62
7
 10
85.92531705584116
 20
-234.217940244439
 30
0
 11
85.92531705584116
 21
-238.217940244439
 31
0
  0
LINE
  8
1
 62
7
 10
90.92531705584116
 20
-234.217940244439
 30
0
 11
90.92531705584116
 21
-238.217940244439
 31
0
  0
LINE
  8
1
 62
7
 10
25.62531705584116
 20
-234.217940244439
 30
0
 11
25.62531705584116
 21
-242.217940244439
 31
0
  0
LINE
  8
1
 62
3
  6
DASHDOT
 10
-36.71650684241041
 20
-244.592940244439
 30
0
 11
-32.81939252538041
 21
-242.342940244439
 31
0
  0
LINE
  8
1
 62
3
  6
DASHDOT
 10
-14.63285904590724
 20
-244.592940244439
 30
0
 11
-18.52997336293721
 21
-242.342940244439
 31
0
  0
LINE
  8
1
 62
3
  6
DASHDOT
 10
23.62531705584116
 20
-238.217940244439
 30
0
 11
207.6253170558412
 21
-238.217940244439
 31
0
  0
LINE
  8
1
 62
3
  6
DASHDOT
 10
-25.67468294415883
 20
-220.217940244439
 30
0
 11
-25.67468294415883
 21
-256.217940244439
 31
0
  0
LINE
  8
1
 62
3
  6
DASHDOT
 10
-43.6746829441588
 20
-238.217940244439
 30
0
 11
-7.674682944158832
 21
-238.217940244439
 31
0
  0
CIRCLE
  8
1
 62
7
 10
111.6253170558412
 20
-232.217940244439
 30
0
 40
1.500000000000004
  0
CIRCLE
  8
1
 62
7
 10
79.62531705584115
 20
-232.217940244439
 30
0
 40
1.500000000000014
  0
CIRCLE
  8
1
 62
7
 10
-25.67468294415883
 20
-238.217940244439
 30
0
 40
7.499999999999975
  0
CIRCLE
  8
1
 62
7
 10
-25.67468294415883
 20
-238.217940244439
 30
0
 40
15.99999999999998
  0
CIRCLE
  8
1
 62
7
 10
-25.67468294415883
 20
-238.217940244439
 30
0
 40
6.5
  0
CIRCLE
  8
1
 62
7
 10
-25.67468294415883
 20
-238.217940244439
 30
0
 40
4
  0
CIRCLE
  8
1
 62
3
  6
DASHDOT
 10
-25.67468294415883
 20
-238.217940244439
 30
0
 40
10.49999999999998
  0
CIRCLE
  8
1
 62
3
 10
-25.67468294415883
 20
-227.717940244439
 30
0
 40
1.499999999999972
  0
CIRCLE
  8
1
 62
7
 10
-25.67468294415883
 20
-227.717940244439
 30
0
 40
1.199999999999982
  0
CIRCLE
  8
1
 62
7
 10
-34.76794968389541
 20
-243.467940244439
 30
0
 40
1.199999999999975
  0
CIRCLE
  8
1
 62
3
 10
-34.76794968389541
 20
-243.467940244439
 30
0
 40
1.500000000000025
  0
CIRCLE
  8
1
 62
7
 10
-16.58141620442223
 20
-243.467940244439
 30
0
 40
1.199999999999975
  0
CIRCLE
  8
1
 62
3
 10
-16.58141620442223
 20
-243.467940244439
 30
0
 40
1.499999999999951
  0
TEXT
  8
1
 62
7
 10
-42.90995941046556
 20
-183.5
 30
0
 40
6
  1
OPL 4BN
 41
0.9
  7
SIMPLEX
 73
2
 11
-42.90995941046556
 21
-180.5
 31
0
  0
ENDSEC
  0
EOF
