  0
SECTION
  2
HEADER
  9
$ACADVER
  1
AC1009
  9
$INSBASE
 10
0
 20
0
  9
$EXTMIN
 10
-44.13668966421041
 20
-27.69144394951701
  9
$EXTMAX
 10
212.5633103357896
 20
50.40000000000002
  9
$LIMMIN
 10
-44.13668966421041
 20
-27.69144394951701
  9
$LIMMAX
 10
212.5633103357896
 20
50.40000000000002
  9
$VIEWCTR
 10
10
 20
10
  9
$VIEWSIZE
 40
10
  9
$SNAPMODE
 70
0
  9
$SNAPUNIT
 10
1
 20
1
  9
$SNAPBASE
 10
0
 20
0
  9
$SNAPANG
 50
0
  9
$SNAPSTYLE
 70
0
  9
$SNAPISOPAIR
 70
0
  9
$GRIDMODE
 70
0
  9
$GRIDUNIT
 10
0
 20
0
  9
$ORTHOMODE
 70
0
  9
$REGENMODE
 70
1
  9
$FILLMODE
 70
1
  9
$QTEXTMODE
 70
0
  9
$DRAGMODE
 70
2
  9
$LTSCALE
 40
1
  9
$OSMODE
 70
0
  9
$ATTMODE
 70
1
  9
$TEXTSIZE
 40
3.5
  9
$TRACEWID
 40
0.5
  9
$TEXTSTYLE
  7
STANDARD
  9
$CLAYER
  8
0
  9
$CELTYPE
  6
BYLAYER
  9
$CECOLOR
 62
256
  9
$DIMSCALE
 40
1
  9
$DIMASZ
 40
0.18
  9
$DIMEXO
 40
0.0625
  9
$DIMDLI
 40
0.38
  9
$DIMRND
 40
0
  9
$DIMDLE
 40
0
  9
$DIMEXE
 40
0.18
  9
$DIMTP
 40
0
  9
$DIMTM
 40
0
  9
$DIMTXT
 40
0.18
  9
$DIMCEN
 40
0.09
  9
$DIMTSZ
 40
0
  9
$DIMTOL
 70
0
  9
$DIMLIM
 70
0
  9
$DIMTIH
 70
1
  9
$DIMTOH
 70
1
  9
$DIMSE1
 70
0
  9
$DIMSE2
 70
0
  9
$DIMTAD
 70
0
  9
$DIMZIN
 70
0
  9
$DIMBLK
  1

  9
$DIMASO
 70
1
  9
$DIMSHO
 70
1
  9
$DIMPOST
  1

  9
$DIMAPOST
  1

  9
$DIMALT
 70
0
  9
$DIMALTD
 70
2
  9
$DIMALTF
 40
25.4
  9
$DIMLFAC
 40
1
  9
$DIMTOFL
 70
0
  9
$DIMTVP
 40
0
  9
$DIMTIX
 70
0
  9
$DIMSOXD
 70
0
  9
$DIMSAH
 70
0
  9
$DIMBLK1
  1

  9
$DIMBLK2
  1

  9
$DIMSTYLE
  2
*UNNAMED
  9
$DIMCLRD
 70
0
  9
$DIMCLRE
 70
0
  9
$DIMCLRT
 70
0
  9
$DIMTFAC
 40
1
  9
$DIMGAP
 40
0.09
  9
$LUNITS
 70
2
  9
$LUPREC
 70
4
  9
$AXISMODE
 70
0
  9
$AXISUNIT
 10
0
 20
0
  9
$SKETCHINC
 40
0.1
  9
$FILLETRAD
 40
2
  9
$AUNITS
 70
0
  9
$AUPREC
 70
0
  9
$MENU
  1
ACAD
  9
$ELEVATION
 40
0
  9
$THICKNESS
 40
0
  9
$VIEWDIR
 10
0
 20
0
 30
1
  9
$LIMCHECK
 70
0
  9
$BLIPMODE
 70
1
  9
$CHAMFERA
 40
0
  9
$CHAMFERB
 40
0
  9
$FASTZOOM
 70
1
  9
$SKPOLY
 70
0
  9
$ANGBASE
 50
0
  9
$ANGDIR
 70
0
  9
$PDMODE
 70
0
  9
$PDSIZE
 40
0
  9
$PLINEWID
 40
0
  9
$COORDS
 70
2
  0
ENDSEC
  0
SECTION
  2
TABLES
  0
TABLE
  2
DIMSTYLE
 70
0
  0
ENDTAB
  0
TABLE
  2
LTYPE
 70
9
  0
LTYPE
  2
CONTINUOUS
 70
64
  3
Solid line
 72
65
 73
0
 40
0
  0
LTYPE
  2
BORDER
 70
64
  3
__ __ . __ __ .
 72
65
 73
6
 40
11.82171052631579
 49
3.377631578947368
 49
-1.688815789473684
 49
3.377631578947368
 49
-1.688815789473684
 49
0
 49
-1.688815789473684
  0
LTYPE
  2
CENTER
 70
64
  3
____ _ ____ _
 72
65
 73
4
 40
13.51052631578947
 49
8.444078947368421
 49
-1.688815789473684
 49
1.688815789473684
 49
-1.688815789473684
  0
LTYPE
  2
DASHDOT
 70
64
  3
__ . __ . __ .
 72
65
 73
4
 40
6.755263157894737
 49
3.377631578947368
 49
-1.688815789473684
 49
0
 49
-1.688815789473684
  0
LTYPE
  2
DASHED
 70
64
  3
__ __ __ __ __
 72
65
 73
2
 40
5.066447368421052
 49
3.377631578947368
 49
-1.688815789473684
  0
LTYPE
  2
DIVIDE
 70
64
  3
__ . . __ . . 
 72
65
 73
6
 40
8.444078947368421
 49
3.377631578947368
 49
-1.688815789473684
 49
0
 49
-1.688815789473684
 49
0
 49
-1.688815789473684
  0
LTYPE
  2
DOT
 70
64
  3
..............
 72
65
 73
4
 40
3.377631578947368
 49
0
 49
-1.688815789473684
 49
0
 49
-1.688815789473684
  0
LTYPE
  2
HIDDEN
 70
64
  3
_ _ _ _ _ _ _
 72
65
 73
2
 40
2.533223684210526
 49
1.688815789473684
 49
-0.8444078947368421
  0
LTYPE
  2
PHANTOM
 70
64
  3
_____ _ _ _____ _ _ 
 72
65
 73
6
 40
16.88815789473684
 49
8.444078947368421
 49
-1.688815789473684
 49
1.688815789473684
 49
-1.688815789473684
 49
1.688815789473684
 49
-1.688815789473684
  0
ENDTAB
  0
TABLE
  2
LAYER
 70
3
  0
LAYER
  2
1
 70
0
 62
7
  6
CONTINUOUS
  0
LAYER
  2
0
 70
0
 62
7
  6
CONTINUOUS
  0
ENDTAB
  0
TABLE
  2
STYLE
 70
4
  0
STYLE
  2
STANDARD
 70
0
 40
0
 41
1
 50
0
 71
0
 42
3.5
  3
txt
  4

  0
STYLE
  2
SIMPLEX
 70
0
 40
0
 41
1
 50
0
 71
0
 42
3.5
  3
simplex
  4

  0
STYLE
  2
COMPLEX
 70
0
 40
0
 41
1
 50
0
 71
0
 42
3.5
  3
complex
  4

  0
STYLE
  2
ITALIC
 70
0
 40
0
 41
1
 50
0
 71
0
 42
3.5
  3
italic
  4

  0
ENDTAB
  0
TABLE
  2
VIEW
 70
0
  0
ENDTAB
  0
ENDSEC
  0
SECTION
  2
BLOCKS
  0
BLOCK
  8
1
  2
*X0
 70
1
 10
0
 20
0
 30
0
  0
LINE
  8
1
 62
3
 10
90.86331033578958
 20
-5.8920863309353
 30
0
 11
95.86331033578958
 21
-5.8920863309353
 31
0
  0
LINE
  8
1
 62
3
 10
90.86331033578958
 20
-6.8920863309353
 30
0
 11
95.86331033578958
 21
-6.8920863309353
 31
0
  0
LINE
  8
1
 62
3
 10
90.86331033578958
 20
-7.8920863309353
 30
0
 11
95.86331033578958
 21
-7.8920863309353
 31
0
  0
LINE
  8
1
 62
3
 10
90.86331033578958
 20
-8.8920863309353
 30
0
 11
95.86331033578958
 21
-8.8920863309353
 31
0
  0
ENDBLK
  8
0
  0
ENDSEC
  0
SECTION
  2
ENTITIES
  0
INSERT
  8
1
  2
*X0
 10
0
 20
0
 30
0
  0
LINE
  8
1
 62
7
 10
210.5633103357896
 20
-5.691443949517009
 30
0
 11
210.5633103357896
 21
-13.69144394951707
 31
0
  0
LINE
  8
1
 62
7
 10
210.5633103357896
 20
-5.691443949517009
 30
0
 11
30.56331033578956
 21
-5.691443949517009
 31
0
  0
LINE
  8
1
 62
7
 10
80.56331033578954
 20
-25.69144394951695
 30
0
 11
80.56331033578954
 21
-9.691443949517009
 31
0
  0
LINE
  8
1
 62
7
 10
113.5633103357895
 20
-25.69144394951695
 30
0
 11
113.5633103357895
 21
-9.691443949517009
 31
0
  0
LINE
  8
1
 62
7
 10
210.5633103357896
 20
-13.69144394951707
 30
0
 11
113.5633103357895
 21
-13.69144394951707
 31
0
  0
LINE
  8
1
 62
7
 10
78.56331033578954
 20
-13.69144394951707
 30
0
 11
30.56331033578956
 21
-13.69144394951707
 31
0
  0
LINE
  8
1
 62
7
 10
113.5633103357895
 20
-25.69144394951695
 30
0
 11
80.56331033578954
 21
-25.69144394951695
 31
0
  0
LINE
  8
1
 62
7
 10
80.56331033578954
 20
-17.19144394951701
 30
0
 11
78.56331033578954
 21
-17.19144394951701
 31
0
  0
LINE
  8
1
 62
7
 10
78.56331033578954
 20
-9.691443949517009
 30
0
 11
78.56331033578954
 21
-17.19144394951701
 31
0
  0
LINE
  8
1
 62
3
 10
111.4633103357895
 20
-2.166945487689645
 30
0
 11
111.4633103357895
 21
-5.318250731249691
 31
0
  0
LINE
  8
1
 62
3
 10
107.6633103357896
 20
-2.116924769537889
 30
0
 11
107.6633103357896
 21
-5.218209294946178
 31
0
  0
LINE
  8
1
 62
3
 10
86.46331033578954
 20
-5.218209294946178
 30
0
 11
86.46331033578954
 21
-2.116924769537889
 31
0
  0
LINE
  8
1
 62
3
 10
82.66331033578959
 20
-2.166945487689645
 30
0
 11
82.66331033578959
 21
-5.218209294946178
 31
0
  0
LINE
  8
1
 62
7
 10
83.44527634703965
 20
-4.691443949517009
 30
0
 11
82.06331033578954
 21
-4.691443949517009
 31
0
  0
LINE
  8
1
 62
7
 10
112.0633103357895
 20
-2.691443949517009
 30
0
 11
110.6813443245395
 21
-2.691443949517009
 31
0
  0
LINE
  8
1
 62
7
 10
110.6813443245395
 20
-4.691443949517009
 30
0
 11
112.0633103357895
 21
-4.691443949517009
 31
0
  0
LINE
  8
1
 62
7
 10
107.0633103357895
 20
-4.691443949517009
 30
0
 11
108.4452763470396
 21
-4.691443949517009
 31
0
  0
LINE
  8
1
 62
7
 10
107.0633103357895
 20
-5.691443949517009
 30
0
 11
107.0633103357895
 21
-1.691443949517009
 31
0
  0
LINE
  8
1
 62
7
 10
107.0633103357895
 20
-2.691443949517009
 30
0
 11
108.4452763470396
 21
-2.691443949517009
 31
0
  0
LINE
  8
1
 62
7
 10
87.06331033578954
 20
-1.691443949517009
 30
0
 11
87.06331033578954
 21
-5.691443949517009
 31
0
  0
LINE
  8
1
 62
7
 10
85.68134432453948
 20
-2.691443949517009
 30
0
 11
87.06331033578954
 21
-2.691443949517009
 31
0
  0
LINE
  8
1
 62
7
 10
85.68134432453948
 20
-4.691443949517009
 30
0
 11
87.06331033578954
 21
-4.691443949517009
 31
0
  0
LINE
  8
1
 62
7
 10
82.06331033578954
 20
-5.691443949517009
 30
0
 11
82.06331033578954
 21
-1.691443949517009
 31
0
  0
LINE
  8
1
 62
7
 10
82.06331033578954
 20
-2.691443949517009
 30
0
 11
83.44527634703965
 21
-2.691443949517009
 31
0
  0
LINE
  8
1
 62
7
 10
88.06331033578934
 20
-4.191443949517009
 30
0
 11
87.06331033578934
 21
-4.191443949517009
 31
0
  0
LINE
  8
1
 62
7
 10
88.06331033578934
 20
0.8085560504830482
 30
0
 11
88.06331033578934
 21
-4.191443949517009
 31
0
  0
LINE
  8
1
 62
7
 10
87.06331033578934
 20
1.808556050483048
 30
0
 11
88.06331033578934
 21
0.8085560504830482
 31
0
  0
LINE
  8
1
 62
7
 10
87.06331033578934
 20
2.808556050483048
 30
0
 11
87.06331033578934
 21
1.808556050483048
 31
0
  0
LINE
  8
1
 62
7
 10
87.46331033578929
 20
2.808556050483048
 30
0
 11
87.06331033578934
 21
2.808556050483048
 31
0
  0
LINE
  8
1
 62
7
 10
89.06331033578934
 20
1.208556050482969
 30
0
 11
87.46331033578929
 21
2.808556050483048
 31
0
  0
LINE
  8
1
 62
7
 10
89.06331033578934
 20
3.958556050483026
 30
0
 11
89.06331033578934
 21
1.208556050482969
 31
0
  0
LINE
  8
1
 62
7
 10
112.0633103357895
 20
-1.691443949517009
 30
0
 11
112.0633103357895
 21
-5.691443949517009
 31
0
  0
LINE
  8
1
 62
7
 10
112.0633103357895
 20
-3.191443949517009
 30
0
 11
113.5633103357896
 21
-3.191443949517748
 31
0
  0
LINE
  8
1
 62
7
 10
105.0633103357895
 20
3.958556050483026
 30
0
 11
89.06331033578934
 21
3.958556050483026
 31
0
  0
LINE
  8
1
 62
7
 10
105.0633103357895
 20
1.208556050482969
 30
0
 11
105.0633103357895
 21
3.958556050483026
 31
0
  0
LINE
  8
1
 62
7
 10
106.6633103357896
 20
2.808556050483048
 30
0
 11
105.0633103357895
 21
1.208556050482969
 31
0
  0
LINE
  8
1
 62
7
 10
107.0633103357895
 20
2.808556050483048
 30
0
 11
106.6633103357896
 21
2.808556050483048
 31
0
  0
LINE
  8
1
 62
7
 10
107.0633103357895
 20
1.808556050483048
 30
0
 11
107.0633103357895
 21
2.808556050483048
 31
0
  0
LINE
  8
1
 62
7
 10
106.0633103357895
 20
0.8085560504830482
 30
0
 11
107.0633103357895
 21
1.808556050483048
 31
0
  0
LINE
  8
1
 62
7
 10
106.0633103357895
 20
-4.191443949517009
 30
0
 11
106.0633103357895
 21
0.8085560504830482
 31
0
  0
LINE
  8
1
 62
7
 10
107.0633103357895
 20
-4.191443949517009
 30
0
 11
106.0633103357895
 21
-4.191443949517009
 31
0
  0
LINE
  8
1
 62
7
 10
82.06331033578954
 20
-1.691443949517009
 30
0
 11
87.06331033578954
 21
-1.691443949517009
 31
0
  0
LINE
  8
1
 62
7
 10
112.0633103357895
 20
-1.691443949517009
 30
0
 11
107.0633103357895
 21
-1.691443949517009
 31
0
  0
LINE
  8
1
 62
7
 10
108.0633103357895
 20
3.308556050483048
 30
0
 11
108.0633103357895
 21
-1.691443949517009
 31
0
  0
LINE
  8
1
 62
7
 10
105.5633103357895
 20
3.308556050483048
 30
0
 11
108.0633103357895
 21
3.308556050483048
 31
0
  0
LINE
  8
1
 62
7
 10
105.5633103357896
 20
4.808556050482252
 30
0
 11
105.5633103357895
 21
3.308556050483048
 31
0
  0
LINE
  8
1
 62
7
 10
78.56331033578954
 20
-2.191443949517009
 30
0
 11
78.56331033578954
 21
-5.691443949517009
 31
0
  0
LINE
  8
1
 62
7
 10
78.56331033578954
 20
-3.191443949517009
 30
0
 11
82.06331033578954
 21
-3.191443949517009
 31
0
  0
LINE
  8
1
 62
7
 10
88.56331033578954
 20
3.308556050483048
 30
0
 11
86.06331033578954
 21
3.308556050483048
 31
0
  0
LINE
  8
1
 62
7
 10
88.56331033578954
 20
4.808556050483048
 30
0
 11
113.5633103357896
 21
4.808556050482252
 31
0
  0
LINE
  8
1
 62
7
 10
88.56331033578954
 20
4.808556050483048
 30
0
 11
88.56331033578954
 21
3.308556050483048
 31
0
  0
LINE
  8
1
 62
7
 10
80.56331033578954
 20
6.308556050483048
 30
0
 11
113.5633103357895
 21
6.308556050483048
 31
0
  0
LINE
  8
1
 62
7
 10
113.5633103357895
 20
-5.691443949517065
 30
0
 11
113.5633103357895
 21
6.308556050483048
 31
0
  0
LINE
  8
1
 62
7
 10
78.56331033578954
 20
-2.191443949517009
 30
0
 11
80.56331033578954
 21
-2.191443949517009
 31
0
  0
LINE
  8
1
 62
3
  6
DASHDOT
 10
79.1399976958036
 20
0.8085560504830482
 30
0
 11
86.9699534836777
 21
0.8085560504830482
 31
0
  0
LINE
  8
1
 62
7
 10
80.56331033578954
 20
1.7587998487449
 30
0
 11
86.06331033578954
 21
1.7587998487449
 31
0
  0
LINE
  8
1
 62
7
 10
80.56331033578954
 20
6.308556050483048
 30
0
 11
80.56331033578954
 21
-2.191443949517009
 31
0
  0
LINE
  8
1
 62
7
 10
86.06331033578954
 20
-1.691443949517009
 30
0
 11
86.06331033578954
 21
3.308556050483048
 31
0
  0
LINE
  8
1
 62
7
 10
80.56331033578954
 20
-0.1416877477788603
 30
0
 11
86.06331033578954
 21
-0.1416877477788603
 31
0
  0
LINE
  8
1
 62
3
 10
80.56331033578954
 20
2.308556050483048
 30
0
 11
86.06331033578954
 21
2.308556050483048
 31
0
  0
LINE
  8
1
 62
3
 10
80.56331033578954
 20
-0.6914439495170086
 30
0
 11
86.06331033578954
 21
-0.6914439495170086
 31
0
  0
LINE
  8
1
 62
7
 10
90.86331033578958
 20
-5.691443949517009
 30
0
 11
90.86331033578958
 21
-9.691443949517009
 31
0
  0
LINE
  8
1
 62
7
 10
95.86331033578958
 20
-5.691443949517009
 30
0
 11
95.86331033578958
 21
-9.691443949517009
 31
0
  0
LINE
  8
1
 62
7
 10
30.56331033578956
 20
-5.691443949517009
 30
0
 11
30.56331033578956
 21
-13.69144394951707
 31
0
  0
LINE
  8
1
 62
3
  6
DASHDOT
 10
-37.17851356246202
 20
-16.06644394951701
 30
0
 11
-33.28139924543201
 21
-13.81644394951701
 31
0
  0
LINE
  8
1
 62
3
  6
DASHDOT
 10
-15.09486576595884
 20
-16.06644394951701
 30
0
 11
-18.99198008298882
 21
-13.81644394951701
 31
0
  0
LINE
  8
1
 62
3
  6
DASHDOT
 10
28.56331033578955
 20
-9.691443949517009
 30
0
 11
212.5633103357896
 21
-9.691443949517009
 31
0
  0
LINE
  8
1
 62
3
  6
DASHDOT
 10
-26.13668966421044
 20
8.308556050482991
 30
0
 11
-26.13668966421044
 21
-27.69144394951701
 31
0
  0
LINE
  8
1
 62
3
  6
DASHDOT
 10
-44.13668966421041
 20
-9.691443949516952
 30
0
 11
-8.136689664210437
 21
-9.691443949516952
 31
0
  0
CIRCLE
  8
1
 62
7
 10
109.5633103357895
 20
-3.691443949517009
 30
0
 40
1.500000000000078
  0
CIRCLE
  8
1
 62
7
 10
84.56331033578954
 20
-3.691443949517009
 30
0
 40
1.500000000000036
  0
CIRCLE
  8
1
 62
7
 10
-26.13668966421044
 20
-9.691443949517009
 30
0
 40
7.499999999999968
  0
CIRCLE
  8
1
 62
7
 10
-26.13668966421044
 20
-9.691443949517009
 30
0
 40
15.99999999999997
  0
CIRCLE
  8
1
 62
7
 10
-26.13668966421044
 20
-9.691443949517009
 30
0
 40
6.5
  0
CIRCLE
  8
1
 62
7
 10
-26.13668966421044
 20
-9.691443949517009
 30
0
 40
4
  0
CIRCLE
  8
1
 62
3
  6
DASHDOT
 10
-26.13668966421044
 20
-9.691443949517009
 30
0
 40
10.49999999999997
  0
CIRCLE
  8
1
 62
3
 10
-26.13668966421044
 20
0.8085560504829914
 30
0
 40
1.499999999999972
  0
CIRCLE
  8
1
 62
7
 10
-26.13668966421044
 20
0.8085560504829914
 30
0
 40
1.199999999999971
  0
CIRCLE
  8
1
 62
7
 10
-35.22995640394701
 20
-14.94144394951701
 30
0
 40
1.200000000000017
  0
CIRCLE
  8
1
 62
3
 10
-35.22995640394701
 20
-14.94144394951701
 30
0
 40
1.499999999999977
  0
CIRCLE
  8
1
 62
7
 10
-17.04342292447383
 20
-14.94144394951701
 30
0
 40
1.200000000000027
  0
CIRCLE
  8
1
 62
3
 10
-17.04342292447383
 20
-14.94144394951701
 30
0
 40
1.499999999999975
  0
TEXT
  8
1
 62
7
 10
-43.00995941046558
 20
44.40000000000002
 30
0
 40
6
  1
OPL 2BN
 41
0.9
  7
SIMPLEX
 73
2
 11
-43.00995941046558
 21
47.40000000000002
 31
0
  0
ENDSEC
  0
EOF
