  0
SECTION
  2
HEADER
  9
$ACADVER
  1
AC1009
  9
$INSBASE
 10
0
 20
0
  9
$EXTMIN
 10
-110.0099594104656
 20
-18
  9
$EXTMAX
 10
131.7900405895344
 20
62.50000000000001
  9
$LIMMIN
 10
-110.0099594104656
 20
-18
  9
$LIMMAX
 10
131.7900405895344
 20
62.50000000000001
  9
$VIEWCTR
 10
10
 20
10
  9
$VIEWSIZE
 40
10
  9
$SNAPMODE
 70
0
  9
$SNAPUNIT
 10
1
 20
1
  9
$SNAPBASE
 10
0
 20
0
  9
$SNAPANG
 50
0
  9
$SNAPSTYLE
 70
0
  9
$SNAPISOPAIR
 70
0
  9
$GRIDMODE
 70
0
  9
$GRIDUNIT
 10
0
 20
0
  9
$ORTHOMODE
 70
0
  9
$REGENMODE
 70
1
  9
$FILLMODE
 70
1
  9
$QTEXTMODE
 70
0
  9
$DRAGMODE
 70
2
  9
$LTSCALE
 40
1
  9
$OSMODE
 70
0
  9
$ATTMODE
 70
1
  9
$TEXTSIZE
 40
3.5
  9
$TRACEWID
 40
0.5
  9
$TEXTSTYLE
  7
STANDARD
  9
$CLAYER
  8
0
  9
$CELTYPE
  6
BYLAYER
  9
$CECOLOR
 62
256
  9
$DIMSCALE
 40
1
  9
$DIMASZ
 40
0.18
  9
$DIMEXO
 40
0.0625
  9
$DIMDLI
 40
0.38
  9
$DIMRND
 40
0
  9
$DIMDLE
 40
0
  9
$DIMEXE
 40
0.18
  9
$DIMTP
 40
0
  9
$DIMTM
 40
0
  9
$DIMTXT
 40
0.18
  9
$DIMCEN
 40
0.09
  9
$DIMTSZ
 40
0
  9
$DIMTOL
 70
0
  9
$DIMLIM
 70
0
  9
$DIMTIH
 70
1
  9
$DIMTOH
 70
1
  9
$DIMSE1
 70
0
  9
$DIMSE2
 70
0
  9
$DIMTAD
 70
0
  9
$DIMZIN
 70
0
  9
$DIMBLK
  1

  9
$DIMASO
 70
1
  9
$DIMSHO
 70
1
  9
$DIMPOST
  1

  9
$DIMAPOST
  1

  9
$DIMALT
 70
0
  9
$DIMALTD
 70
2
  9
$DIMALTF
 40
25.4
  9
$DIMLFAC
 40
1
  9
$DIMTOFL
 70
0
  9
$DIMTVP
 40
0
  9
$DIMTIX
 70
0
  9
$DIMSOXD
 70
0
  9
$DIMSAH
 70
0
  9
$DIMBLK1
  1

  9
$DIMBLK2
  1

  9
$DIMSTYLE
  2
*UNNAMED
  9
$DIMCLRD
 70
0
  9
$DIMCLRE
 70
0
  9
$DIMCLRT
 70
0
  9
$DIMTFAC
 40
1
  9
$DIMGAP
 40
0.09
  9
$LUNITS
 70
2
  9
$LUPREC
 70
4
  9
$AXISMODE
 70
0
  9
$AXISUNIT
 10
0
 20
0
  9
$SKETCHINC
 40
0.1
  9
$FILLETRAD
 40
2
  9
$AUNITS
 70
0
  9
$AUPREC
 70
0
  9
$MENU
  1
ACAD
  9
$ELEVATION
 40
0
  9
$THICKNESS
 40
0
  9
$VIEWDIR
 10
0
 20
0
 30
1
  9
$LIMCHECK
 70
0
  9
$BLIPMODE
 70
1
  9
$CHAMFERA
 40
0
  9
$CHAMFERB
 40
0
  9
$FASTZOOM
 70
1
  9
$SKPOLY
 70
0
  9
$ANGBASE
 50
0
  9
$ANGDIR
 70
0
  9
$PDMODE
 70
0
  9
$PDSIZE
 40
0
  9
$PLINEWID
 40
0
  9
$COORDS
 70
2
  0
ENDSEC
  0
SECTION
  2
TABLES
  0
TABLE
  2
DIMSTYLE
 70
0
  0
ENDTAB
  0
TABLE
  2
LTYPE
 70
9
  0
LTYPE
  2
CONTINUOUS
 70
64
  3
Solid line
 72
65
 73
0
 40
0
  0
LTYPE
  2
BORDER
 70
64
  3
__ __ . __ __ .
 72
65
 73
6
 40
11.13552631578947
 49
3.181578947368421
 49
-1.590789473684211
 49
3.181578947368421
 49
-1.590789473684211
 49
0
 49
-1.590789473684211
  0
LTYPE
  2
CENTER
 70
64
  3
____ _ ____ _
 72
65
 73
4
 40
12.72631578947368
 49
7.953947368421053
 49
-1.590789473684211
 49
1.590789473684211
 49
-1.590789473684211
  0
LTYPE
  2
DASHDOT
 70
64
  3
__ . __ . __ .
 72
65
 73
4
 40
6.363157894736842
 49
3.181578947368421
 49
-1.590789473684211
 49
0
 49
-1.590789473684211
  0
LTYPE
  2
DASHED
 70
64
  3
__ __ __ __ __
 72
65
 73
2
 40
4.772368421052631
 49
3.181578947368421
 49
-1.590789473684211
  0
LTYPE
  2
DIVIDE
 70
64
  3
__ . . __ . . 
 72
65
 73
6
 40
7.953947368421053
 49
3.181578947368421
 49
-1.590789473684211
 49
0
 49
-1.590789473684211
 49
0
 49
-1.590789473684211
  0
LTYPE
  2
DOT
 70
64
  3
..............
 72
65
 73
4
 40
3.181578947368421
 49
0
 49
-1.590789473684211
 49
0
 49
-1.590789473684211
  0
LTYPE
  2
HIDDEN
 70
64
  3
_ _ _ _ _ _ _
 72
65
 73
2
 40
2.386184210526316
 49
1.590789473684211
 49
-0.7953947368421053
  0
LTYPE
  2
PHANTOM
 70
64
  3
_____ _ _ _____ _ _ 
 72
65
 73
6
 40
15.90789473684211
 49
7.953947368421053
 49
-1.590789473684211
 49
1.590789473684211
 49
-1.590789473684211
 49
1.590789473684211
 49
-1.590789473684211
  0
ENDTAB
  0
TABLE
  2
LAYER
 70
3
  0
LAYER
  2
1
 70
0
 62
7
  6
CONTINUOUS
  0
LAYER
  2
0
 70
0
 62
7
  6
CONTINUOUS
  0
ENDTAB
  0
TABLE
  2
STYLE
 70
4
  0
STYLE
  2
STANDARD
 70
0
 40
0
 41
1
 50
0
 71
0
 42
3.5
  3
txt
  4

  0
STYLE
  2
SIMPLEX
 70
0
 40
0
 41
1
 50
0
 71
0
 42
3.5
  3
simplex
  4

  0
STYLE
  2
COMPLEX
 70
0
 40
0
 41
1
 50
0
 71
0
 42
3.5
  3
complex
  4

  0
STYLE
  2
ITALIC
 70
0
 40
0
 41
1
 50
0
 71
0
 42
3.5
  3
italic
  4

  0
ENDTAB
  0
TABLE
  2
VIEW
 70
0
  0
ENDTAB
  0
ENDSEC
  0
SECTION
  2
BLOCKS
  0
BLOCK
  8
1
  2
*X0
 70
1
 10
0
 20
0
 30
0
  0
LINE
  8
1
 62
3
 10
8.690040589534387
 20
3.107913669064701
 30
0
 11
13.69004058953439
 21
3.107913669064701
 31
0
  0
LINE
  8
1
 62
3
 10
8.690040589534387
 20
2.107913669064701
 30
0
 11
13.69004058953439
 21
2.107913669064701
 31
0
  0
LINE
  8
1
 62
3
 10
8.690040589534387
 20
1.107913669064701
 30
0
 11
13.69004058953439
 21
1.107913669064701
 31
0
  0
LINE
  8
1
 62
3
 10
8.690040589534387
 20
0.1079136690647005
 30
0
 11
13.69004058953439
 21
0.1079136690647005
 31
0
  0
ENDBLK
  8
0
  0
ENDSEC
  0
SECTION
  2
ENTITIES
  0
INSERT
  8
1
  2
*X0
 10
0
 20
0
 30
0
  0
LINE
  8
1
 62
7
 10
128.3900405895344
 20
3.999999999999972
 30
0
 11
128.3900405895344
 21
-4.00000000000003
 31
0
  0
LINE
  8
1
 62
7
 10
128.3900405895344
 20
3.999999999999972
 30
0
 11
-51.60995941046564
 21
3.999999999999977
 31
0
  0
LINE
  8
1
 62
7
 10
-1.609959410465635
 20
-15.99999999999997
 30
0
 11
-1.609959410465635
 21
2.708944180085382e-014
 31
0
  0
LINE
  8
1
 62
7
 10
24.39004058953438
 20
-15.99999999999997
 30
0
 11
24.39004058953438
 21
2.708944180085382e-014
 31
0
  0
LINE
  8
1
 62
7
 10
128.3900405895344
 20
-4.00000000000003
 30
0
 11
24.39004058953438
 21
-4.00000000000003
 31
0
  0
LINE
  8
1
 62
7
 10
-3.609959410465635
 20
-4.00000000000003
 30
0
 11
-51.60995941046564
 21
-4.00000000000003
 31
0
  0
LINE
  8
1
 62
7
 10
24.39004058953438
 20
-15.99999999999997
 30
0
 11
-1.609959410465635
 21
-15.99999999999997
 31
0
  0
LINE
  8
1
 62
7
 10
-1.609959410465635
 20
-7.499999999999973
 30
0
 11
-3.609959410465635
 21
-7.499999999999973
 31
0
  0
LINE
  8
1
 62
7
 10
-3.609959410465635
 20
2.708944180085382e-014
 30
0
 11
-3.609959410465635
 21
-7.499999999999973
 31
0
  0
LINE
  8
1
 62
3
 10
22.29004058953435
 20
7.52449846182739
 30
0
 11
22.29004058953435
 21
4.373193218267344
 31
0
  0
LINE
  8
1
 62
3
 10
18.4900405895344
 20
7.574519179979147
 30
0
 11
18.4900405895344
 21
4.473234654570858
 31
0
  0
LINE
  8
1
 62
3
 10
4.290040589534353
 20
4.473234654570858
 30
0
 11
4.290040589534353
 21
7.574519179979147
 31
0
  0
LINE
  8
1
 62
3
 10
0.4900405895343951
 20
7.52449846182739
 30
0
 11
0.4900405895343951
 21
4.473234654570858
 31
0
  0
LINE
  8
1
 62
7
 10
1.272006600784458
 20
5.000000000000027
 30
0
 11
-0.1099594104656347
 21
5.000000000000027
 31
0
  0
LINE
  8
1
 62
7
 10
22.89004058953438
 20
7.000000000000027
 30
0
 11
21.50807457828429
 21
7.000000000000027
 31
0
  0
LINE
  8
1
 62
7
 10
21.50807457828429
 20
5.000000000000027
 30
0
 11
22.89004058953438
 21
5.000000000000027
 31
0
  0
LINE
  8
1
 62
7
 10
17.89004058953438
 20
5.000000000000027
 30
0
 11
19.27200660078446
 21
5.000000000000027
 31
0
  0
LINE
  8
1
 62
7
 10
17.89004058953438
 20
4.000000000000027
 30
0
 11
17.89004058953438
 21
8.000000000000027
 31
0
  0
LINE
  8
1
 62
7
 10
17.89004058953438
 20
7.000000000000027
 30
0
 11
19.27200660078446
 21
7.000000000000027
 31
0
  0
LINE
  8
1
 62
7
 10
4.890040589534362
 20
8.000000000000027
 30
0
 11
4.890040589534362
 21
4.000000000000027
 31
0
  0
LINE
  8
1
 62
7
 10
3.508074578284287
 20
7.000000000000027
 30
0
 11
4.890040589534362
 21
7.000000000000027
 31
0
  0
LINE
  8
1
 62
7
 10
3.508074578284287
 20
5.000000000000027
 30
0
 11
4.890040589534362
 21
5.000000000000027
 31
0
  0
LINE
  8
1
 62
7
 10
-0.1099594104656347
 20
4.000000000000027
 30
0
 11
-0.1099594104656347
 21
8.000000000000027
 31
0
  0
LINE
  8
1
 62
7
 10
-0.1099594104656347
 20
7.000000000000027
 30
0
 11
1.272006600784458
 21
7.000000000000027
 31
0
  0
LINE
  8
1
 62
7
 10
5.890040589534149
 20
5.500000000000027
 30
0
 11
4.890040589534149
 21
5.500000000000027
 31
0
  0
LINE
  8
1
 62
7
 10
5.890040589534149
 20
10.50000000000003
 30
0
 11
5.890040589534149
 21
5.500000000000027
 31
0
  0
LINE
  8
1
 62
7
 10
4.890040589534149
 20
11.50000000000003
 30
0
 11
5.890040589534149
 21
10.50000000000003
 31
0
  0
LINE
  8
1
 62
7
 10
4.890040589534149
 20
12.50000000000003
 30
0
 11
4.890040589534149
 21
11.50000000000003
 31
0
  0
LINE
  8
1
 62
7
 10
5.290040589534112
 20
12.50000000000003
 30
0
 11
4.890040589534149
 21
12.50000000000003
 31
0
  0
LINE
  8
1
 62
7
 10
6.890040589534149
 20
10.9
 30
0
 11
5.290040589534112
 21
12.50000000000003
 31
0
  0
LINE
  8
1
 62
7
 10
6.890040589534149
 20
13.65000000000006
 30
0
 11
6.890040589534149
 21
10.9
 31
0
  0
LINE
  8
1
 62
7
 10
22.89004058953438
 20
8.000000000000027
 30
0
 11
22.89004058953438
 21
4.000000000000027
 31
0
  0
LINE
  8
1
 62
7
 10
22.89004058953438
 20
6.500000000000027
 30
0
 11
24.39004058953443
 21
6.499999999999288
 31
0
  0
LINE
  8
1
 62
7
 10
15.89004058953438
 20
13.65000000000006
 30
0
 11
6.890040589534149
 21
13.65000000000006
 31
0
  0
LINE
  8
1
 62
7
 10
15.89004058953438
 20
10.9
 30
0
 11
15.89004058953438
 21
13.65000000000006
 31
0
  0
LINE
  8
1
 62
7
 10
17.4900405895344
 20
12.50000000000003
 30
0
 11
15.89004058953438
 21
10.9
 31
0
  0
LINE
  8
1
 62
7
 10
17.89004058953438
 20
12.50000000000003
 30
0
 11
17.4900405895344
 21
12.50000000000003
 31
0
  0
LINE
  8
1
 62
7
 10
17.89004058953438
 20
11.50000000000003
 30
0
 11
17.89004058953438
 21
12.50000000000003
 31
0
  0
LINE
  8
1
 62
7
 10
16.89004058953438
 20
10.50000000000003
 30
0
 11
17.89004058953438
 21
11.50000000000003
 31
0
  0
LINE
  8
1
 62
7
 10
16.89004058953438
 20
5.500000000000027
 30
0
 11
16.89004058953438
 21
10.50000000000003
 31
0
  0
LINE
  8
1
 62
7
 10
17.89004058953438
 20
5.500000000000027
 30
0
 11
16.89004058953438
 21
5.500000000000027
 31
0
  0
LINE
  8
1
 62
7
 10
-0.1099594104656347
 20
8.000000000000027
 30
0
 11
4.890040589534362
 21
8.000000000000027
 31
0
  0
LINE
  8
1
 62
7
 10
22.89004058953438
 20
8.000000000000027
 30
0
 11
17.89004058953438
 21
8.000000000000027
 31
0
  0
LINE
  8
1
 62
7
 10
18.89004058953438
 20
13.00000000000003
 30
0
 11
18.89004058953438
 21
8.000000000000027
 31
0
  0
LINE
  8
1
 62
7
 10
16.39004058953438
 20
13.00000000000003
 30
0
 11
18.89004058953438
 21
13.00000000000003
 31
0
  0
LINE
  8
1
 62
7
 10
16.39004058953443
 20
14.49999999999929
 30
0
 11
16.39004058953438
 21
13.00000000000003
 31
0
  0
LINE
  8
1
 62
7
 10
-3.609959410465635
 20
7.500000000000027
 30
0
 11
-3.609959410465635
 21
4.000000000000027
 31
0
  0
LINE
  8
1
 62
7
 10
-3.609959410465635
 20
6.500000000000027
 30
0
 11
-0.1099594104656347
 21
6.500000000000027
 31
0
  0
LINE
  8
1
 62
7
 10
6.390040589534362
 20
13.00000000000003
 30
0
 11
3.890040589534362
 21
13.00000000000003
 31
0
  0
LINE
  8
1
 62
7
 10
6.390040589534362
 20
14.50000000000003
 30
0
 11
24.39004058953443
 21
14.49999999999929
 31
0
  0
LINE
  8
1
 62
7
 10
6.390040589534362
 20
14.50000000000003
 30
0
 11
6.390040589534362
 21
13.00000000000003
 31
0
  0
LINE
  8
1
 62
7
 10
-1.609959410465635
 20
16.00000000000003
 30
0
 11
24.39004058953438
 21
16.00000000000003
 31
0
  0
LINE
  8
1
 62
7
 10
24.39004058953438
 20
3.99999999999997
 30
0
 11
24.39004058953438
 21
16.00000000000003
 31
0
  0
LINE
  8
1
 62
7
 10
-3.609959410465635
 20
7.500000000000027
 30
0
 11
-1.609959410465635
 21
7.500000000000027
 31
0
  0
LINE
  8
1
 62
3
  6
DASHDOT
 10
-3.033272050451593
 20
10.50000000000003
 30
0
 11
4.796683737422509
 21
10.50000000000003
 31
0
  0
LINE
  8
1
 62
7
 10
-1.609959410465635
 20
11.45024379826191
 30
0
 11
3.890040589534362
 21
11.45024379826191
 31
0
  0
LINE
  8
1
 62
7
 10
-1.609959410465635
 20
16.00000000000003
 30
0
 11
-1.609959410465635
 21
7.500000000000027
 31
0
  0
LINE
  8
1
 62
7
 10
3.890040589534362
 20
8.000000000000027
 30
0
 11
3.890040589534362
 21
13.00000000000003
 31
0
  0
LINE
  8
1
 62
7
 10
-1.609959410465635
 20
9.549756201738147
 30
0
 11
3.890040589534362
 21
9.549756201738147
 31
0
  0
LINE
  8
1
 62
3
 10
-1.609959410465635
 20
12.00000000000003
 30
0
 11
3.890040589534362
 21
12.00000000000003
 31
0
  0
LINE
  8
1
 62
3
 10
-1.609959410465635
 20
9.000000000000027
 30
0
 11
3.890040589534362
 21
9.000000000000027
 31
0
  0
LINE
  8
1
 62
7
 10
8.690040589534387
 20
3.999999999999999
 30
0
 11
8.690040589534387
 21
2.708944180085382e-014
 31
0
  0
LINE
  8
1
 62
7
 10
13.69004058953439
 20
3.999999999999999
 30
0
 11
13.69004058953439
 21
2.708944180085382e-014
 31
0
  0
LINE
  8
1
 62
7
 10
-51.60995941046564
 20
3.999999999999977
 30
0
 11
-51.60995941046564
 21
-4.00000000000003
 31
0
  0
LINE
  8
1
 62
3
  6
DASHDOT
 10
-103.0517833087172
 20
-6.374999999999996
 30
0
 11
-99.1546689916872
 21
-4.124999999999997
 31
0
  0
LINE
  8
1
 62
3
  6
DASHDOT
 10
-80.96813551221402
 20
-6.375000000000008
 30
0
 11
-84.86524982924399
 21
-4.125000000000005
 31
0
  0
LINE
  8
1
 62
3
  6
DASHDOT
 10
-53.60995941046564
 20
2.708944180085382e-014
 30
0
 11
131.7900405895344
 21
2.708944180085382e-014
 31
0
  0
LINE
  8
1
 62
3
  6
DASHDOT
 10
-92.00995941046563
 20
18
 30
0
 11
-92.00995941046563
 21
-18
 31
0
  0
LINE
  8
1
 62
3
  6
DASHDOT
 10
-110.0099594104656
 20
2.842170943040401e-014
 30
0
 11
-74.00995941046563
 21
2.842170943040401e-014
 31
0
  0
CIRCLE
  8
1
 62
7
 10
20.39004058953438
 20
6.000000000000027
 30
0
 40
1.500000000000012
  0
CIRCLE
  8
1
 62
7
 10
2.390040589534365
 20
6.000000000000027
 30
0
 40
1.50000000000002
  0
CIRCLE
  8
1
 62
7
 10
-92.00995941046563
 20
2.708944180085382e-014
 30
0
 40
7.499999999999972
  0
CIRCLE
  8
1
 62
7
 10
-92.00995941046563
 20
2.708944180085382e-014
 30
0
 40
15.99999999999997
  0
CIRCLE
  8
1
 62
7
 10
-92.00995941046563
 20
2.708944180085382e-014
 30
0
 40
6.5
  0
CIRCLE
  8
1
 62
7
 10
-92.00995941046563
 20
2.708944180085382e-014
 30
0
 40
3.999999999999976
  0
CIRCLE
  8
1
 62
3
  6
DASHDOT
 10
-92.00995941046563
 20
2.708944180085382e-014
 30
0
 40
10.49999999999997
  0
CIRCLE
  8
1
 62
3
 10
-92.00995941046563
 20
10.5
 30
0
 40
1.499999999999972
  0
CIRCLE
  8
1
 62
7
 10
-92.00995941046563
 20
10.5
 30
0
 40
1.19999999999996
  0
CIRCLE
  8
1
 62
7
 10
-101.1032261502022
 20
-5.249999999999996
 30
0
 40
1.200000000000008
  0
CIRCLE
  8
1
 62
3
 10
-101.1032261502022
 20
-5.249999999999996
 30
0
 40
1.500000000000002
  0
CIRCLE
  8
1
 62
7
 10
-82.91669267072902
 20
-5.250000000000006
 30
0
 40
1.200000000000013
  0
CIRCLE
  8
1
 62
3
 10
-82.91669267072902
 20
-5.250000000000006
 30
0
 40
1.499999999999999
  0
TEXT
  8
1
 62
7
 10
-107.6099594104656
 20
56.50000000000001
 30
0
 40
6
  1
OPL 1BN
 41
0.9
  7
SIMPLEX
 73
2
 11
-107.6099594104656
 21
59.50000000000001
 31
0
  0
ENDSEC
  0
EOF
