  0
SECTION
  2
HEADER
  9
$ACADVER
  1
AC1009
  9
$INSBASE
 10
0
 20
0
  9
$EXTMIN
 10
-141.7444718593602
 20
-19.50000000000001
  9
$EXTMAX
 10
107.1747601918464
 20
31.3482016695015
  9
$LIMMIN
 10
-141.7444718593602
 20
-19.50000000000001
  9
$LIMMAX
 10
107.1747601918464
 20
31.3482016695015
  9
$VIEWCTR
 10
10
 20
10
  9
$VIEWSIZE
 40
10
  9
$SNAPMODE
 70
0
  9
$SNAPUNIT
 10
1
 20
1
  9
$SNAPBASE
 10
0
 20
0
  9
$SNAPANG
 50
0
  9
$SNAPSTYLE
 70
0
  9
$SNAPISOPAIR
 70
0
  9
$GRIDMODE
 70
0
  9
$GRIDUNIT
 10
0
 20
0
  9
$ORTHOMODE
 70
0
  9
$REGENMODE
 70
1
  9
$FILLMODE
 70
1
  9
$QTEXTMODE
 70
0
  9
$DRAGMODE
 70
2
  9
$LTSCALE
 40
1
  9
$OSMODE
 70
0
  9
$ATTMODE
 70
1
  9
$TEXTSIZE
 40
3.5
  9
$TRACEWID
 40
0.5
  9
$TEXTSTYLE
  7
STANDARD
  9
$CLAYER
  8
0
  9
$CELTYPE
  6
BYLAYER
  9
$CECOLOR
 62
256
  9
$DIMSCALE
 40
1
  9
$DIMASZ
 40
0.18
  9
$DIMEXO
 40
0.0625
  9
$DIMDLI
 40
0.38
  9
$DIMRND
 40
0
  9
$DIMDLE
 40
0
  9
$DIMEXE
 40
0.18
  9
$DIMTP
 40
0
  9
$DIMTM
 40
0
  9
$DIMTXT
 40
0.18
  9
$DIMCEN
 40
0.09
  9
$DIMTSZ
 40
0
  9
$DIMTOL
 70
0
  9
$DIMLIM
 70
0
  9
$DIMTIH
 70
1
  9
$DIMTOH
 70
1
  9
$DIMSE1
 70
0
  9
$DIMSE2
 70
0
  9
$DIMTAD
 70
0
  9
$DIMZIN
 70
0
  9
$DIMBLK
  1

  9
$DIMASO
 70
1
  9
$DIMSHO
 70
1
  9
$DIMPOST
  1

  9
$DIMAPOST
  1

  9
$DIMALT
 70
0
  9
$DIMALTD
 70
2
  9
$DIMALTF
 40
25.4
  9
$DIMLFAC
 40
1
  9
$DIMTOFL
 70
0
  9
$DIMTVP
 40
0
  9
$DIMTIX
 70
0
  9
$DIMSOXD
 70
0
  9
$DIMSAH
 70
0
  9
$DIMBLK1
  1

  9
$DIMBLK2
  1

  9
$DIMSTYLE
  2
*UNNAMED
  9
$DIMCLRD
 70
0
  9
$DIMCLRE
 70
0
  9
$DIMCLRT
 70
0
  9
$DIMTFAC
 40
1
  9
$DIMGAP
 40
0.09
  9
$LUNITS
 70
2
  9
$LUPREC
 70
4
  9
$AXISMODE
 70
0
  9
$AXISUNIT
 10
0
 20
0
  9
$SKETCHINC
 40
0.1
  9
$FILLETRAD
 40
2
  9
$AUNITS
 70
0
  9
$AUPREC
 70
0
  9
$MENU
  1
ACAD
  9
$ELEVATION
 40
0
  9
$THICKNESS
 40
0
  9
$VIEWDIR
 10
0
 20
0
 30
1
  9
$LIMCHECK
 70
0
  9
$BLIPMODE
 70
1
  9
$CHAMFERA
 40
0
  9
$CHAMFERB
 40
0
  9
$FASTZOOM
 70
1
  9
$SKPOLY
 70
0
  9
$ANGBASE
 50
0
  9
$ANGDIR
 70
0
  9
$PDMODE
 70
0
  9
$PDSIZE
 40
0
  9
$PLINEWID
 40
0
  9
$COORDS
 70
2
  0
ENDSEC
  0
SECTION
  2
TABLES
  0
TABLE
  2
DIMSTYLE
 70
0
  0
ENDTAB
  0
TABLE
  2
LTYPE
 70
9
  0
LTYPE
  2
CONTINUOUS
 70
64
  3
Solid line
 72
65
 73
0
 40
0
  0
LTYPE
  2
BORDER
 70
64
  3
__ __ . __ __ .
 72
65
 73
6
 40
11.46338568656873
 49
3.27525305330535
 49
-1.637626526652675
 49
3.27525305330535
 49
-1.637626526652675
 49
0
 49
-1.637626526652675
  0
LTYPE
  2
CENTER
 70
64
  3
____ _ ____ _
 72
65
 73
4
 40
13.1010122132214
 49
8.188132633263376
 49
-1.637626526652675
 49
1.637626526652675
 49
-1.637626526652675
  0
LTYPE
  2
DASHDOT
 70
64
  3
__ . __ . __ .
 72
65
 73
4
 40
6.5505061066107
 49
3.27525305330535
 49
-1.637626526652675
 49
0
 49
-1.637626526652675
  0
LTYPE
  2
DASHED
 70
64
  3
__ __ __ __ __
 72
65
 73
2
 40
4.912879579958025
 49
3.27525305330535
 49
-1.637626526652675
  0
LTYPE
  2
DIVIDE
 70
64
  3
__ . . __ . . 
 72
65
 73
6
 40
8.188132633263376
 49
3.27525305330535
 49
-1.637626526652675
 49
0
 49
-1.637626526652675
 49
0
 49
-1.637626526652675
  0
LTYPE
  2
DOT
 70
64
  3
..............
 72
65
 73
4
 40
3.27525305330535
 49
0
 49
-1.637626526652675
 49
0
 49
-1.637626526652675
  0
LTYPE
  2
HIDDEN
 70
64
  3
_ _ _ _ _ _ _
 72
65
 73
2
 40
2.456439789979013
 49
1.637626526652675
 49
-0.8188132633263375
  0
LTYPE
  2
PHANTOM
 70
64
  3
_____ _ _ _____ _ _ 
 72
65
 73
6
 40
16.37626526652675
 49
8.188132633263376
 49
-1.637626526652675
 49
1.637626526652675
 49
-1.637626526652675
 49
1.637626526652675
 49
-1.637626526652675
  0
ENDTAB
  0
TABLE
  2
LAYER
 70
3
  0
LAYER
  2
1
 70
0
 62
7
  6
CONTINUOUS
  0
LAYER
  2
0
 70
0
 62
7
  6
CONTINUOUS
  0
ENDTAB
  0
TABLE
  2
STYLE
 70
4
  0
STYLE
  2
STANDARD
 70
0
 40
0
 41
1
 50
0
 71
0
 42
3.5
  3
txt
  4

  0
STYLE
  2
SIMPLEX
 70
0
 40
0
 41
1
 50
0
 71
0
 42
3.5
  3
simplex
  4

  0
STYLE
  2
COMPLEX
 70
0
 40
0
 41
1
 50
0
 71
0
 42
3.5
  3
complex
  4

  0
STYLE
  2
ITALIC
 70
0
 40
0
 41
1
 50
0
 71
0
 42
3.5
  3
italic
  4

  0
ENDTAB
  0
TABLE
  2
VIEW
 70
0
  0
ENDTAB
  0
ENDSEC
  0
SECTION
  2
BLOCKS
  0
ENDSEC
  0
SECTION
  2
ENTITIES
  0
LINE
  8
1
 62
3
 10
-12.42523980815359
 20
-6.8885331014392
 30
0
 11
-17.42523980815359
 21
-6.8885331014392
 31
0
  0
LINE
  8
1
 62
3
 10
-17.42523980815359
 20
-5.89159212310736
 30
0
 11
-12.42523980815359
 21
-5.89159212310736
 31
0
  0
LINE
  8
1
 62
3
 10
-12.42523980815359
 20
-4.89465114477552
 30
0
 11
-17.42523980815359
 21
-4.89465114477552
 31
0
  0
LINE
  8
1
 62
3
 10
-17.42523980815359
 20
-3.88732536458606
 30
0
 11
-12.42523980815359
 21
-3.88732536458606
 31
0
  0
LINE
  8
1
 62
7
 10
-12.42523980815359
 20
-7.500000000000014
 30
0
 11
-12.42523980815359
 21
-3.500000000000014
 31
0
  0
LINE
  8
1
 62
7
 10
-17.42523980815359
 20
-3.500000000000014
 30
0
 11
-17.42523980815359
 21
-7.500000000000014
 31
0
  0
LINE
  8
1
 62
3
  6
DASHDOT
 10
-121.6958567603354
 20
4.499999999999986
 30
0
 11
-121.6958567603354
 21
-19.50000000000001
 31
0
  0
LINE
  8
1
 62
3
  6
DASHDOT
 10
-133.6958567603354
 20
-7.500000000000014
 30
0
 11
-109.6958567603354
 21
-7.500000000000014
 31
0
  0
LINE
  8
1
 62
7
 10
-122.8958567603354
 20
-0.09662239244819659
 30
0
 11
-122.8958567603354
 21
-3.68424319433224
 31
0
  0
LINE
  8
1
 62
7
 10
-120.4958567603354
 20
-0.09662239244819659
 30
0
 11
-120.4958567603354
 21
-3.68424319433224
 31
0
  0
LINE
  8
1
 62
7
 10
-122.8958567603355
 20
-11.31575680566778
 30
0
 11
-122.8958567603354
 21
-14.90337760755183
 31
0
  0
LINE
  8
1
 62
7
 10
-120.4958567603354
 20
-11.31575680566778
 30
0
 11
-120.4958567603354
 21
-14.90337760755183
 31
0
  0
LINE
  8
1
 62
7
 10
105.1747601918464
 20
-11.50000000000001
 30
0
 11
-4.82523980815359
 21
-11.50000000000001
 31
0
  0
LINE
  8
1
 62
7
 10
105.1747601918464
 20
-11.50000000000001
 30
0
 11
105.1747601918464
 21
-3.500000000000014
 31
0
  0
LINE
  8
1
 62
7
 10
-74.8252398081536
 20
-3.500000000000014
 30
0
 11
-74.8252398081536
 21
-11.50000000000001
 31
0
  0
LINE
  8
1
 62
3
  6
DASHDOT
 10
-76.8252398081536
 20
-7.500000000000014
 30
0
 11
107.1747601918464
 21
-7.500000000000014
 31
0
  0
LINE
  8
1
 62
7
 10
-24.8252398081536
 20
-11.50000000000001
 30
0
 11
-74.8252398081536
 21
-11.50000000000001
 31
0
  0
LINE
  8
1
 62
7
 10
-5.82523980815359
 20
-17.50000000000001
 30
0
 11
-5.82523980815359
 21
-8.500000000000014
 31
0
  0
LINE
  8
1
 62
7
 10
-20.0752398081536
 20
2.499999999999986
 30
0
 11
-20.0752398081536
 21
1.499999999999986
 31
0
  0
LINE
  8
1
 62
7
 10
-9.57523980815359
 20
2.499999999999986
 30
0
 11
-9.57523980815359
 21
1.499999999999986
 31
0
  0
LINE
  8
1
 62
7
 10
-9.82523980815359
 20
0.7499999999999858
 30
0
 11
-9.82523980815359
 21
1.299999999999997
 31
0
  0
LINE
  8
1
 62
7
 10
-5.82523980815359
 20
1.499999999999986
 30
0
 11
-7.82523980815359
 21
1.499999999999986
 31
0
  0
LINE
  8
1
 62
7
 10
-4.82523980815359
 20
2.499999999999957
 30
0
 11
-4.82523980815359
 21
-1.4210854715202e-014
 31
0
  0
LINE
  8
1
 62
7
 10
-2.32523980815359
 20
-3.500000000000014
 30
0
 11
-2.32523980815359
 21
-1.4210854715202e-014
 31
0
  0
LINE
  8
1
 62
7
 10
-2.32523980815359
 20
-1.4210854715202e-014
 30
0
 11
-4.82523980815359
 21
-1.4210854715202e-014
 31
0
  0
LINE
  8
1
 62
7
 10
-8.725239808153567
 20
-3.500000000000014
 30
0
 11
-8.725239808153454
 21
-2.000000000000014
 31
0
  0
LINE
  8
1
 62
7
 10
-7.82523980815359
 20
-2.000000000000014
 30
0
 11
-7.82523980815359
 21
-0.2500000000000142
 31
0
  0
LINE
  8
1
 62
7
 10
-7.82523980815359
 20
-0.2500000000000142
 30
0
 11
-6.95921440436917
 21
0.2499999999999858
 31
0
  0
LINE
  8
1
 62
7
 10
-6.95921440436917
 20
0.2499999999999858
 30
0
 11
-5.82523980815359
 21
0.2499999999999858
 31
0
  0
LINE
  8
1
 62
7
 10
-5.82523980815359
 20
0.2499999999999858
 30
0
 11
-5.82523980815359
 21
0.7499999999999858
 31
0
  0
LINE
  8
1
 62
7
 10
-5.82523980815359
 20
0.7499999999999858
 30
0
 11
-9.82523980815359
 21
0.7499999999999858
 31
0
  0
LINE
  8
1
 62
7
 10
-9.82523980815359
 20
1.299999999999997
 30
0
 11
-8.26639408134168
 21
2.199999999999974
 31
0
  0
LINE
  8
1
 62
7
 10
-8.26639408134168
 20
2.199999999999974
 30
0
 11
-7.82523980815359
 21
2.199999999999974
 31
0
  0
LINE
  8
1
 62
7
 10
-7.82523980815359
 20
-2.000000000000014
 30
0
 11
-8.725239808153454
 21
-2.000000000000014
 31
0
  0
LINE
  8
1
 62
7
 10
-7.82523980815359
 20
1.499999999999986
 30
0
 11
-7.82523980815359
 21
2.499999999999986
 31
0
  0
LINE
  8
1
 62
7
 10
-5.82523980815359
 20
1.499999999999986
 30
0
 11
-5.82523980815359
 21
2.499999999999986
 31
0
  0
LINE
  8
1
 62
7
 10
-23.8252398081536
 20
2.499999999999986
 30
0
 11
-23.8252398081536
 21
1.499999999999986
 31
0
  0
LINE
  8
1
 62
7
 10
-21.8252398081536
 20
1.499999999999986
 30
0
 11
-21.8252398081536
 21
2.499999999999986
 31
0
  0
LINE
  8
1
 62
7
 10
-20.92523980815362
 20
-2.000000000000014
 30
0
 11
-21.8252398081536
 21
-2.000000000000014
 31
0
  0
LINE
  8
1
 62
7
 10
-21.8252398081536
 20
2.199999999999974
 30
0
 11
-21.38408553496551
 21
2.199999999999974
 31
0
  0
LINE
  8
1
 62
7
 10
-21.38408553496551
 20
2.199999999999974
 30
0
 11
-19.8252398081536
 21
1.299999999999997
 31
0
  0
LINE
  8
1
 62
7
 10
-19.8252398081536
 20
0.7499999999999858
 30
0
 11
-23.8252398081536
 21
0.7499999999999858
 31
0
  0
LINE
  8
1
 62
7
 10
-23.8252398081536
 20
0.7499999999999858
 30
0
 11
-23.8252398081536
 21
0.2499999999999858
 31
0
  0
LINE
  8
1
 62
7
 10
-23.8252398081536
 20
0.2499999999999858
 30
0
 11
-22.69126521193802
 21
0.2499999999999858
 31
0
  0
LINE
  8
1
 62
7
 10
-22.69126521193802
 20
0.2499999999999858
 30
0
 11
-21.8252398081536
 21
-0.2500000000000142
 31
0
  0
LINE
  8
1
 62
7
 10
-21.8252398081536
 20
-0.2500000000000142
 30
0
 11
-21.8252398081536
 21
-2.000000000000014
 31
0
  0
LINE
  8
1
 62
7
 10
-20.92523980815362
 20
-2.000000000000014
 30
0
 11
-20.92523980815362
 21
-3.500000000000014
 31
0
  0
LINE
  8
1
 62
7
 10
-19.8252398081536
 20
1.299999999999997
 30
0
 11
-19.8252398081536
 21
0.7499999999999858
 31
0
  0
LINE
  8
1
 62
7
 10
-24.8252398081536
 20
-1.4210854715202e-014
 30
0
 11
-27.3252398081536
 21
-1.4210854715202e-014
 31
0
  0
LINE
  8
1
 62
7
 10
-27.3252398081536
 20
-1.4210854715202e-014
 30
0
 11
-27.3252398081536
 21
-3.500000000000014
 31
0
  0
LINE
  8
1
 62
7
 10
-24.8252398081536
 20
-1.4210854715202e-014
 30
0
 11
-24.8252398081536
 21
2.499999999999957
 31
0
  0
LINE
  8
1
 62
7
 10
-21.8252398081536
 20
1.499999999999986
 30
0
 11
-23.8252398081536
 21
1.499999999999986
 31
0
  0
LINE
  8
1
 62
7
 10
-20.17164996966734
 20
1.499999999999986
 30
0
 11
-9.478829646639845
 21
1.499999999999986
 31
0
  0
LINE
  8
1
 62
7
 10
-24.8252398081536
 20
-17.50000000000001
 30
0
 11
-24.8252398081536
 21
-7.500000000000014
 31
0
  0
LINE
  8
1
 62
7
 10
-23.8252398081536
 20
-8.500000000000014
 30
0
 11
-23.8252398081536
 21
-17.50000000000001
 31
0
  0
LINE
  8
1
 62
7
 10
-2.325239808153597
 20
-15.00000000000001
 30
0
 11
-4.825239808153597
 21
-15.00000000000001
 31
0
  0
LINE
  8
1
 62
7
 10
-2.32523980815359
 20
-11.50000000000001
 30
0
 11
-2.325239808153597
 21
-15.00000000000001
 31
0
  0
LINE
  8
1
 62
7
 10
-27.3252398081536
 20
-15.00000000000001
 30
0
 11
-24.8252398081536
 21
-15.00000000000001
 31
0
  0
LINE
  8
1
 62
7
 10
-27.3252398081536
 20
-11.50000000000001
 30
0
 11
-27.3252398081536
 21
-15.00000000000001
 31
0
  0
LINE
  8
1
 62
7
 10
-22.3252398081536
 20
-8.500000000000014
 30
0
 11
-22.3252398081536
 21
-7.500000000000014
 31
0
  0
LINE
  8
1
 62
7
 10
-23.8252398081536
 20
-8.500000000000014
 30
0
 11
-22.3252398081536
 21
-8.500000000000014
 31
0
  0
LINE
  8
1
 62
7
 10
-4.82523980815359
 20
-17.50000000000001
 30
0
 11
-24.8252398081536
 21
-17.50000000000001
 31
0
  0
LINE
  8
1
 62
7
 10
-7.32523980815359
 20
-8.500000000000014
 30
0
 11
-5.82523980815359
 21
-8.500000000000014
 31
0
  0
LINE
  8
1
 62
7
 10
-7.32523980815359
 20
-7.500000000000014
 30
0
 11
-7.32523980815359
 21
-8.500000000000014
 31
0
  0
LINE
  8
1
 62
7
 10
-4.82523980815359
 20
-7.500000000000014
 30
0
 11
-4.82523980815359
 21
-17.50000000000001
 31
0
  0
LINE
  8
1
 62
7
 10
-4.82523980815359
 20
2.499999999999957
 30
0
 11
-24.8252398081536
 21
2.499999999999957
 31
0
  0
LINE
  8
1
 62
7
 10
-17.42523980815359
 20
0.7499999999999858
 30
0
 11
-17.42523980815359
 21
-2.500000000000014
 31
0
  0
LINE
  8
1
 62
7
 10
-11.42523980815359
 20
-2.500000000000014
 30
0
 11
-18.42523980815359
 21
-2.500000000000014
 31
0
  0
LINE
  8
1
 62
7
 10
-12.42523980815359
 20
0.7499999999999858
 30
0
 11
-12.42523980815359
 21
-2.500000000000014
 31
0
  0
LINE
  8
1
 62
7
 10
-11.42523980815359
 20
-2.500000000000014
 30
0
 11
-11.42523980815359
 21
-3.500000000000014
 31
0
  0
LINE
  8
1
 62
7
 10
-18.42523980815359
 20
-3.500000000000014
 30
0
 11
-18.42523980815359
 21
-2.500000000000014
 31
0
  0
LINE
  8
1
 62
7
 10
-20.8252398081536
 20
-2.000000000000014
 30
0
 11
-20.8252398081536
 21
-3.500000000000014
 31
0
  0
LINE
  8
1
 62
7
 10
-20.3252398081536
 20
-2.000000000000014
 30
0
 11
-20.3252398081536
 21
-1.500000000000014
 31
0
  0
LINE
  8
1
 62
7
 10
-20.3252398081536
 20
-2.000000000000014
 30
0
 11
-20.8252398081536
 21
-2.000000000000014
 31
0
  0
LINE
  8
1
 62
7
 10
-20.3252398081536
 20
-1.500000000000014
 30
0
 11
-21.02523980815342
 21
-0.8000000000000256
 31
0
  0
LINE
  8
1
 62
7
 10
-21.02523980815342
 20
-0.1000000000000085
 30
0
 11
-21.02523980815342
 21
-2.000000000000014
 31
0
  0
LINE
  8
1
 62
7
 10
-21.02523980815342
 20
-0.1000000000000085
 30
0
 11
-20.72523980815346
 21
-0.1000000000000085
 31
0
  0
LINE
  8
1
 62
7
 10
-8.82523980815359
 20
-2.000000000000014
 30
0
 11
-9.32523980815359
 21
-2.000000000000014
 31
0
  0
LINE
  8
1
 62
7
 10
-8.82523980815359
 20
-3.500000000000014
 30
0
 11
-8.82523980815359
 21
-2.000000000000014
 31
0
  0
LINE
  8
1
 62
7
 10
-9.32523980815359
 20
-1.500000000000014
 30
0
 11
-9.32523980815359
 21
-2.000000000000014
 31
0
  0
LINE
  8
1
 62
7
 10
-8.625239808153545
 20
-0.8000000000000256
 30
0
 11
-9.32523980815359
 21
-1.500000000000014
 31
0
  0
LINE
  8
1
 62
7
 10
-8.925239808153499
 20
-0.1000000000000085
 30
0
 11
-8.625239808153545
 21
-0.1000000000000085
 31
0
  0
LINE
  8
1
 62
7
 10
-8.625239808153545
 20
-0.1000000000000085
 30
0
 11
-8.625239808153545
 21
-2.000000000000014
 31
0
  0
LINE
  8
1
 62
7
 10
-10.32523980815359
 20
-1.500000000000014
 30
0
 11
-8.925239808153499
 21
-0.1000000000000085
 31
0
  0
LINE
  8
1
 62
7
 10
-10.32523980815359
 20
0.7499999999999858
 30
0
 11
-10.32523980815359
 21
-1.500000000000014
 31
0
  0
LINE
  8
1
 62
7
 10
-19.3252398081536
 20
0.7499999999999858
 30
0
 11
-10.32523980815359
 21
0.7499999999999858
 31
0
  0
LINE
  8
1
 62
7
 10
-19.3252398081536
 20
-1.500000000000014
 30
0
 11
-19.3252398081536
 21
0.7499999999999858
 31
0
  0
LINE
  8
1
 62
7
 10
-20.72523980815346
 20
-0.1000000000000085
 30
0
 11
-19.3252398081536
 21
-1.500000000000014
 31
0
  0
LINE
  8
1
 62
7
 10
-74.8252398081536
 20
-3.500000000000014
 30
0
 11
105.1747601918464
 21
-3.500000000000014
 31
0
  0
ARC
  8
1
 62
7
 10
-121.6958567603354
 20
-7.500000000000014
 30
0
 40
5.499999999999989
 50
282.6022648414651
 51
77.39773515853489
  0
ARC
  8
1
 62
7
 10
-121.6958567603354
 20
-7.500000000000014
 30
0
 40
5.499999999999984
 50
102.6022648414651
 51
257.3977351585348
  0
CIRCLE
  8
1
 62
7
 10
-121.6958567603354
 20
-7.500000000000014
 30
0
 40
10
  0
CIRCLE
  8
1
 62
7
 10
-121.6958567603354
 20
-7.500000000000014
 30
0
 40
7.5
  0
CIRCLE
  8
1
 62
7
 10
-121.6958567603354
 20
-7.500000000000014
 30
0
 40
4
  0
TEXT
  8
1
 62
7
 10
-143.4274718593602
 20
27.3482016695015
 30
0
 40
4
  1
OPL 0.6N
 41
0.891
  7
SIMPLEX
 72
1
 11
-129.1714718593602
 21
27.3482016695015
 31
0
  0
ENDSEC
  0
EOF
