  0
SECTION
  2
HEADER
  9
$ACADVER
  1
AC1009
  9
$INSBASE
 10
0.0
 20
0.0
 30
0.0
  9
$EXTMIN
 10
122.8491008189575
 20
207.77967464655859
 30
0.0
  9
$EXTMAX
 10
274.8491008189576
 20
239.94988977138101
 30
0.0
  9
$LIMMIN
 10
122.8491008189575
 20
207.77967464655859
  9
$LIMMAX
 10
274.8491008189576
 20
239.94988977138101
  9
$ORTHOMODE
 70
     0
  9
$REGENMODE
 70
     1
  9
$FILLMODE
 70
     1
  9
$QTEXTMODE
 70
     0
  9
$MIRRTEXT
 70
     1
  9
$DRAGMODE
 70
     2
  9
$LTSCALE
 40
1.0
  9
$OSMODE
 70
    37
  9
$ATTMODE
 70
     1
  9
$TEXTSIZE
 40
3.5
  9
$TRACEWID
 40
0.5
  9
$TEXTSTYLE
  7
STANDARD
  9
$CLAYER
  8
0
  9
$CELTYPE
  6
BYLAYER
  9
$CECOLOR
 62
   256
  9
$DIMSCALE
 40
1.0
  9
$DIMASZ
 40
0.18
  9
$DIMEXO
 40
0.0625
  9
$DIMDLI
 40
0.38
  9
$DIMRND
 40
0.0
  9
$DIMDLE
 40
0.0
  9
$DIMEXE
 40
0.18
  9
$DIMTP
 40
0.0
  9
$DIMTM
 40
0.0
  9
$DIMTXT
 40
0.18
  9
$DIMCEN
 40
0.09
  9
$DIMTSZ
 40
0.0
  9
$DIMTOL
 70
     0
  9
$DIMLIM
 70
     0
  9
$DIMTIH
 70
     1
  9
$DIMTOH
 70
     1
  9
$DIMSE1
 70
     0
  9
$DIMSE2
 70
     0
  9
$DIMTAD
 70
     0
  9
$DIMZIN
 70
     0
  9
$DIMBLK
  1

  9
$DIMASO
 70
     1
  9
$DIMSHO
 70
     1
  9
$DIMPOST
  1

  9
$DIMAPOST
  1

  9
$DIMALT
 70
     0
  9
$DIMALTD
 70
     2
  9
$DIMALTF
 40
25.399999999999999
  9
$DIMLFAC
 40
1.0
  9
$DIMTOFL
 70
     0
  9
$DIMTVP
 40
0.0
  9
$DIMTIX
 70
     0
  9
$DIMSOXD
 70
     0
  9
$DIMSAH
 70
     0
  9
$DIMBLK1
  1

  9
$DIMBLK2
  1

  9
$DIMSTYLE
  2
STANDARD
  9
$DIMCLRD
 70
     0
  9
$DIMCLRE
 70
     0
  9
$DIMCLRT
 70
     0
  9
$DIMTFAC
 40
1.0
  9
$DIMGAP
 40
0.09
  9
$LUNITS
 70
     2
  9
$LUPREC
 70
     4
  9
$SKETCHINC
 40
0.1
  9
$FILLETRAD
 40
2.0
  9
$AUNITS
 70
     0
  9
$AUPREC
 70
     0
  9
$MENU
  1
ACAD
  9
$ELEVATION
 40
0.0
  9
$PELEVATION
 40
0.0
  9
$THICKNESS
 40
0.0
  9
$LIMCHECK
 70
     0
  9
$BLIPMODE
 70
     0
  9
$CHAMFERA
 40
0.0
  9
$CHAMFERB
 40
0.0
  9
$SKPOLY
 70
     0
  9
$TDCREATE
 40
2452095.3425214118
  9
$TDUPDATE
 40
2452095.3431247682
  9
$TDINDWG
 40
0.0006172454
  9
$TDUSRTIMER
 40
0.0006172454
  9
$USRTIMER
 70
     1
  9
$ANGBASE
 50
0.0
  9
$ANGDIR
 70
     0
  9
$PDMODE
 70
     0
  9
$PDSIZE
 40
0.0
  9
$PLINEWID
 40
0.0
  9
$COORDS
 70
     1
  9
$SPLFRAME
 70
     0
  9
$SPLINETYPE
 70
     6
  9
$SPLINESEGS
 70
     8
  9
$ATTDIA
 70
     0
  9
$ATTREQ
 70
     1
  9
$HANDLING
 70
 10241
  9
$HANDSEED
  5
88
  9
$SURFTAB1
 70
     6
  9
$SURFTAB2
 70
     6
  9
$SURFTYPE
 70
     6
  9
$SURFU
 70
     6
  9
$SURFV
 70
     6
  9
$UCSNAME
  2

  9
$UCSORG
 10
0.0
 20
0.0
 30
0.0
  9
$UCSXDIR
 10
1.0
 20
0.0
 30
0.0
  9
$UCSYDIR
 10
0.0
 20
1.0
 30
0.0
  9
$PUCSNAME
  2

  9
$PUCSORG
 10
0.0
 20
0.0
 30
0.0
  9
$PUCSXDIR
 10
1.0
 20
0.0
 30
0.0
  9
$PUCSYDIR
 10
0.0
 20
1.0
 30
0.0
  9
$USERI1
 70
     0
  9
$USERI2
 70
     0
  9
$USERI3
 70
     0
  9
$USERI4
 70
     0
  9
$USERI5
 70
     0
  9
$USERR1
 40
0.0
  9
$USERR2
 40
0.0
  9
$USERR3
 40
0.0
  9
$USERR4
 40
0.0
  9
$USERR5
 40
0.0
  9
$WORLDVIEW
 70
     1
  9
$SHADEDGE
 70
     3
  9
$SHADEDIF
 70
    70
  9
$TILEMODE
 70
     1
  9
$MAXACTVP
 70
    64
  9
$PLIMCHECK
 70
     0
  9
$PEXTMIN
 10
1.0000000000000000E+020
 20
1.0000000000000000E+020
 30
1.0000000000000000E+020
  9
$PEXTMAX
 10
-1.0000000000000000E+020
 20
-1.0000000000000000E+020
 30
-1.0000000000000000E+020
  9
$PLIMMIN
 10
0.0
 20
0.0
  9
$PLIMMAX
 10
12.0
 20
9.0
  9
$UNITMODE
 70
     0
  9
$VISRETAIN
 70
     1
  9
$PLINEGEN
 70
     0
  9
$PSLTSCALE
 70
     1
  0
ENDSEC
  0
SECTION
  2
TABLES
  0
TABLE
  2
VPORT
 70
     2
  0
VPORT
  2
*ACTIVE
 70
     0
 10
0.0
 20
0.0
 11
1.0
 21
1.0
 12
133.47117661394969
 22
235.69204202946651
 13
0.0
 23
0.0
 14
1.0
 24
1.0
 15
0.0
 25
0.0
 16
0.0
 26
0.0
 36
1.0
 17
0.0
 27
0.0
 37
0.0
 40
9.000000062685217
 41
2.4144144144144142
 42
50.0
 43
0.0
 44
0.0
 50
0.0
 51
0.0
 71
     0
 72
   100
 73
     1
 74
     1
 75
     0
 76
     0
 77
     0
 78
     0
  0
ENDTAB
  0
TABLE
  2
LTYPE
 70
     9
  0
LTYPE
  2
CONTINUOUS
 70
     0
  3
Solid line
 72
    65
 73
     0
 40
0.0
  0
LTYPE
  2
BORDER
 70
     0
  3
__ __ . __ __ .
 72
    65
 73
     6
 40
7.0
 49
2.0
 49
-1.0
 49
2.0
 49
-1.0
 49
0.0
 49
-1.0
  0
LTYPE
  2
CENTER
 70
     0
  3
____ _ ____ _
 72
    65
 73
     4
 40
8.0
 49
5.0
 49
-1.0
 49
1.0
 49
-1.0
  0
LTYPE
  2
DASHDOT
 70
     0
  3
__ . __ . __ .
 72
    65
 73
     4
 40
4.0
 49
2.0
 49
-1.0
 49
0.0
 49
-1.0
  0
LTYPE
  2
DASHED
 70
     0
  3
__ __ __ __ __
 72
    65
 73
     2
 40
3.0
 49
2.0
 49
-1.0
  0
LTYPE
  2
DIVIDE
 70
     0
  3
__ . . __ . . 
 72
    65
 73
     6
 40
5.0
 49
2.0
 49
-1.0
 49
0.0
 49
-1.0
 49
0.0
 49
-1.0
  0
LTYPE
  2
DOT
 70
     0
  3
..............
 72
    65
 73
     4
 40
2.0
 49
0.0
 49
-1.0
 49
0.0
 49
-1.0
  0
LTYPE
  2
HIDDEN
 70
     0
  3
_ _ _ _ _ _ _
 72
    65
 73
     2
 40
1.5
 49
1.0
 49
-0.5
  0
LTYPE
  2
PHANTOM
 70
     0
  3
_____ _ _ _____ _ _ 
 72
    65
 73
     6
 40
10.0
 49
5.0
 49
-1.0
 49
1.0
 49
-1.0
 49
1.0
 49
-1.0
  0
ENDTAB
  0
TABLE
  2
LAYER
 70
     2
  0
LAYER
  2
0
 70
     0
 62
     7
  6
CONTINUOUS
  0
LAYER
  2
1
 70
     0
 62
     7
  6
CONTINUOUS
  0
ENDTAB
  0
TABLE
  2
STYLE
 70
     4
  0
STYLE
  2
STANDARD
 70
     0
 40
0.0
 41
1.0
 50
0.0
 71
     0
 42
3.5
  3
txt
  4

  0
STYLE
  2
SIMPLEX
 70
     0
 40
0.0
 41
1.0
 50
0.0
 71
     0
 42
3.5
  3
simplex
  4

  0
STYLE
  2
COMPLEX
 70
     0
 40
0.0
 41
1.0
 50
0.0
 71
     0
 42
3.5
  3
complex
  4

  0
STYLE
  2
ITALIC
 70
     0
 40
0.0
 41
1.0
 50
0.0
 71
     0
 42
3.5
  3
italic
  4

  0
ENDTAB
  0
TABLE
  2
VIEW
 70
     0
  0
ENDTAB
  0
TABLE
  2
UCS
 70
     0
  0
ENDTAB
  0
TABLE
  2
APPID
 70
     1
  0
APPID
  2
ACAD
 70
     0
  0
ENDTAB
  0
TABLE
  2
DIMSTYLE
 70
     1
  0
DIMSTYLE
  2
STANDARD
 70
     0
  3

  4

  5

  6

  7

 40
1.0
 41
0.18
 42
0.0625
 43
0.38
 44
0.18
 45
0.0
 46
0.0
 47
0.0
 48
0.0
140
0.18
141
0.09
142
0.0
143
25.399999999999999
144
1.0
145
0.0
146
1.0
147
0.09
 71
     0
 72
     0
 73
     1
 74
     1
 75
     0
 76
     0
 77
     0
 78
     0
170
     0
171
     2
172
     0
173
     0
174
     0
175
     0
176
     0
177
     0
178
     0
  0
ENDTAB
  0
ENDSEC
  0
SECTION
  2
BLOCKS
  0
BLOCK
  8
0
  2
$MODEL_SPACE
 70
     0
 10
0.0
 20
0.0
 30
0.0
  3
$MODEL_SPACE
  1

  0
ENDBLK
  5
20
  8
0
  0
BLOCK
 67
     1
  8
0
  2
$PAPER_SPACE
 70
     0
 10
0.0
 20
0.0
 30
0.0
  3
$PAPER_SPACE
  1

  0
ENDBLK
  5
1C
 67
     1
  8
0
  0
ENDSEC
  0
SECTION
  2
ENTITIES
  0
LINE
  5
33
  8
1
 62
     7
 10
188.74910081895749
 20
209.3648068519939
 30
0.0
 11
186.24910081895749
 21
209.3648068519939
 31
0.0
  0
LINE
  5
34
  8
1
 62
     7
 10
186.24910081895749
 20
226.1945424411231
 30
0.0
 11
188.74910081895749
 21
226.1945424411231
 31
0.0
  0
LINE
  5
35
  8
1
  6
DASHED
 62
     3
 10
213.74910081895791
 20
213.77967464655859
 30
0.0
 11
188.74910081895749
 21
213.77967464655859
 31
0.0
  0
LINE
  5
36
  8
1
  6
DASHED
 62
     3
 10
188.74910081895749
 20
221.77967464655859
 30
0.0
 11
213.74910081895791
 21
221.77967464655859
 31
0.0
  0
LINE
  5
37
  8
1
 62
     7
 10
128.9420376178891
 20
223.82408174261499
 30
0.0
 11
128.34469481268039
 21
224.748198631637
 31
0.0
  0
LINE
  5
38
  8
1
 62
     7
 10
137.3535068252346
 20
224.748198631637
 30
0.0
 11
136.75616402002601
 21
223.82408174261499
 31
0.0
  0
LINE
  5
39
  8
1
 62
     7
 10
128.34469481268039
 20
210.8111506614801
 30
0.0
 11
128.9420376178891
 21
211.73526755050219
 31
0.0
  0
LINE
  5
3A
  8
1
 62
     7
 10
136.75616402002601
 20
211.73526755050219
 30
0.0
 11
137.3535068252346
 21
210.8111506614801
 31
0.0
  0
LINE
  5
3B
  8
1
 62
     7
 10
188.74910081895749
 20
207.77967464655859
 30
0.0
 11
208.74910081895769
 21
207.77967464655859
 31
0.0
  0
LINE
  5
3C
  8
1
 62
     7
 10
186.24910081895749
 20
209.27967464655859
 30
0.0
 11
188.74910081895749
 21
209.27967464655859
 31
0.0
  0
LINE
  5
3D
  8
1
 62
     7
 10
186.24910081895749
 20
212.27967464655859
 30
0.0
 11
186.24910081895749
 21
209.27967464655859
 31
0.0
  0
LINE
  5
3E
  8
1
 62
     7
 10
188.74910081895749
 20
212.27967464655859
 30
0.0
 11
186.24910081895749
 21
212.27967464655859
 31
0.0
  0
LINE
  5
3F
  8
1
 62
     7
 10
189.74910081895749
 20
216.87967464655861
 30
0.0
 11
191.14910081895761
 21
216.87967464655861
 31
0.0
  0
LINE
  5
40
  8
1
 62
     7
 10
189.74910081895749
 20
216.87967464655861
 30
0.0
 11
189.74910081895749
 21
207.77967464655859
 31
0.0
  0
LINE
  5
41
  8
1
 62
     7
 10
206.3491008189576
 20
216.87967464655861
 30
0.0
 11
207.7491008189576
 21
216.87967464655861
 31
0.0
  0
LINE
  5
42
  8
1
 62
     7
 10
207.7491008189576
 20
207.77967464655859
 30
0.0
 11
207.7491008189576
 21
216.87967464655861
 31
0.0
  0
LINE
  5
43
  8
1
 62
     7
 10
131.64910081895749
 20
212.41217988643061
 30
0.0
 11
131.64910081895749
 21
209.36480685199399
 31
0.0
  0
LINE
  5
44
  8
1
 62
     7
 10
134.04910081895761
 20
212.41217988643061
 30
0.0
 11
134.04910081895761
 21
209.36480685199399
 31
0.0
  0
LINE
  5
45
  8
1
 62
     7
 10
131.64910081895749
 20
226.1945424411231
 30
0.0
 11
131.64910081895749
 21
223.14716940668629
 31
0.0
  0
LINE
  5
46
  8
1
 62
     7
 10
134.04910081895761
 20
226.1945424411231
 30
0.0
 11
134.04910081895761
 21
223.14716940668629
 31
0.0
  0
LINE
  5
47
  8
1
 62
     7
 10
259.45025835042782
 20
216.72967464655861
 30
0.0
 11
260.98937284926842
 21
216.72967464655861
 31
0.0
  0
LINE
  5
48
  8
1
 62
     7
 10
259.45025835042782
 20
218.8296746465586
 30
0.0
 11
260.98937284926842
 21
218.8296746465586
 31
0.0
  0
LINE
  5
49
  8
1
 62
     7
 10
268.70882878864683
 20
216.72967464655861
 30
0.0
 11
270.24794328748737
 21
216.72967464655861
 31
0.0
  0
LINE
  5
4A
  8
1
 62
     7
 10
268.70882878864683
 20
218.8296746465586
 30
0.0
 11
270.24794328748737
 21
218.8296746465586
 31
0.0
  0
LINE
  5
4B
  8
1
 62
     7
 10
213.74910081895791
 20
216.72967464655841
 30
0.0
 11
210.79910081895781
 21
216.72967464655841
 31
0.0
  0
LINE
  5
4C
  8
1
 62
     7
 10
213.74910081895791
 20
216.72967464655841
 30
0.0
 11
213.74910081895791
 21
212.27967464655859
 31
0.0
  0
LINE
  5
4D
  8
1
 62
     7
 10
208.74910081895769
 20
212.27967464655859
 30
0.0
 11
213.74910081895791
 21
212.27967464655859
 31
0.0
  0
LINE
  5
4E
  8
1
 62
     7
 10
208.74910081895769
 20
227.77967464655859
 30
0.0
 11
188.74910081895749
 21
227.77967464655859
 31
0.0
  0
LINE
  5
4F
  8
1
 62
     7
 10
188.74910081895749
 20
226.27967464655859
 30
0.0
 11
186.24910081895749
 21
226.27967464655859
 31
0.0
  0
LINE
  5
50
  8
1
 62
     7
 10
186.24910081895749
 20
226.27967464655859
 30
0.0
 11
186.24910081895749
 21
223.27967464655859
 31
0.0
  0
LINE
  5
51
  8
1
 62
     7
 10
186.24910081895749
 20
223.27967464655859
 30
0.0
 11
188.74910081895749
 21
223.27967464655859
 31
0.0
  0
LINE
  5
52
  8
1
 62
     7
 10
188.74910081895749
 20
227.77967464655859
 30
0.0
 11
188.74910081895749
 21
207.77967464655859
 31
0.0
  0
LINE
  5
53
  8
1
 62
     7
 10
208.74910081895769
 20
227.77967464655859
 30
0.0
 11
208.74910081895769
 21
207.77967464655859
 31
0.0
  0
LINE
  5
54
  8
1
 62
     7
 10
191.14910081895761
 20
218.67967464655851
 30
0.0
 11
189.74910081895749
 21
218.67967464655851
 31
0.0
  0
LINE
  5
55
  8
1
 62
     7
 10
191.14910081895761
 20
218.67967464655851
 30
0.0
 11
191.14910081895761
 21
216.87967464655861
 31
0.0
  0
LINE
  5
56
  8
1
 62
     7
 10
189.74910081895749
 20
227.77967464655859
 30
0.0
 11
189.74910081895749
 21
218.67967464655851
 31
0.0
  0
LINE
  5
57
  8
1
 62
     7
 10
206.3491008189576
 20
218.67967464655851
 30
0.0
 11
206.3491008189576
 21
216.87967464655861
 31
0.0
  0
LINE
  5
58
  8
1
 62
     7
 10
207.7491008189576
 20
218.67967464655851
 30
0.0
 11
206.3491008189576
 21
218.67967464655851
 31
0.0
  0
LINE
  5
59
  8
1
 62
     7
 10
207.7491008189576
 20
218.67967464655851
 30
0.0
 11
207.7491008189576
 21
227.77967464655859
 31
0.0
  0
LINE
  5
5A
  8
1
 62
     7
 10
210.79910081895781
 20
218.8296746465586
 30
0.0
 11
213.74910081895791
 21
218.8296746465586
 31
0.0
  0
LINE
  5
5B
  8
1
 62
     7
 10
213.74910081895791
 20
223.27967464655859
 30
0.0
 11
213.74910081895791
 21
218.8296746465586
 31
0.0
  0
LINE
  5
5C
  8
1
 62
     7
 10
213.74910081895791
 20
223.27967464655859
 30
0.0
 11
208.74910081895769
 21
223.27967464655859
 31
0.0
  0
LINE
  5
5D
  8
1
  6
DASHDOT
 62
     3
 10
135.34910081895751
 20
217.77967464655859
 30
0.0
 11
130.3491008189576
 21
217.77967464655859
 31
0.0
  0
LINE
  5
5E
  8
1
  6
DASHDOT
 62
     3
 10
132.84910081895751
 20
220.27967464655859
 30
0.0
 11
132.84910081895751
 21
215.27967464655859
 31
0.0
  0
LINE
  5
5F
  8
1
  6
DASHDOT
 62
     3
 10
267.34910081895748
 20
217.77967464655859
 30
0.0
 11
262.3491008189576
 21
217.77967464655859
 31
0.0
  0
LINE
  5
60
  8
1
  6
DASHDOT
 62
     3
 10
264.8491008189576
 20
220.27967464655859
 30
0.0
 11
264.8491008189576
 21
215.27967464655859
 31
0.0
  0
LINE
  5
61
  8
1
  6
DASHDOT
 62
     3
 10
188.74910081895749
 20
217.77967464655859
 30
0.0
 11
185.7491008189576
 21
217.77967464655859
 31
0.0
  0
LINE
  5
62
  8
1
  6
DASHDOT
 62
     3
 10
213.74910081895791
 20
217.77967464655859
 30
0.0
 11
216.74910081895791
 21
217.77967464655859
 31
0.0
  0
ARC
  5
63
  8
1
 62
     7
 10
129.11000262882291
 20
223.93265317118639
 30
0.0
 40
0.1999999999999778
 50
212.87834956437001
 51
301.28659538778282
  0
ARC
  5
64
  8
1
 62
     7
 10
128.1767298017468
 20
224.6396272030656
 30
0.0
 40
0.1999999999999932
 50
32.87834956437694
 51
124.2591043987332
  0
ARC
  5
65
  8
1
 62
     7
 10
136.58819900909231
 20
223.93265317118639
 30
0.0
 40
0.1999999999999348
 50
238.71340461221021
 51
327.12165043562982
  0
ARC
  5
66
  8
1
 62
     7
 10
137.52147183616839
 20
224.6396272030656
 30
0.0
 40
0.2000000000000545
 50
55.740895601260043
 51
147.121650435623
  0
ARC
  5
67
  8
1
 62
     7
 10
129.11000262882291
 20
211.62669612193079
 30
0.0
 40
0.19999999999992
 50
58.713404612217118
 51
147.1216504356299
  0
ARC
  5
68
  8
1
 62
     7
 10
128.1767298017468
 20
210.91972209005141
 30
0.0
 40
0.2000000000000385
 50
235.7408956012666
 51
327.12165043565727
  0
ARC
  5
69
  8
1
 62
     7
 10
136.58819900909231
 20
211.62669612193079
 30
0.0
 40
0.1999999999999778
 50
32.87834956437009
 51
121.2865953877898
  0
ARC
  5
6A
  8
1
 62
     7
 10
137.52147183616839
 20
210.91972209005141
 30
0.0
 40
0.199999999999916
 50
212.87834956434281
 51
304.25910439875997
  0
ARC
  5
6B
  8
1
 62
     7
 10
210.79910081895781
 20
217.77967464655859
 30
0.0
 40
1.05000000000001
 50
90.0
 51
270.0
  0
ARC
  5
6C
  8
1
 62
     7
 10
132.84910081895751
 20
217.77967464655859
 30
0.0
 40
6.2499999999999813
 50
101.06952497337311
 51
258.93047502662682
  0
ARC
  5
6D
  8
1
 62
     7
 10
132.84910081895751
 20
217.77967464655859
 30
0.0
 40
6.25
 50
0.0
 51
78.930475026625885
  0
ARC
  5
6E
  8
1
 62
     7
 10
132.84910081895751
 20
217.77967464655859
 30
0.0
 40
6.2499999999999751
 50
281.0695249733742
 51
0.0
  0
ARC
  5
6F
  8
1
 62
     7
 10
132.84910081895751
 20
217.77967464655859
 30
0.0
 40
7.0000000000000338
 50
58.713404612208073
 51
80.129110393859705
  0
ARC
  5
70
  8
1
 62
     7
 10
132.84910081895751
 20
217.77967464655859
 30
0.0
 40
7.0000000000000338
 50
238.71340461220811
 51
260.12911039386051
  0
ARC
  5
71
  8
1
 62
     7
 10
132.84910081895751
 20
217.77967464655859
 30
0.0
 40
7.0000000000000488
 50
99.870889606139357
 51
121.28659538779191
  0
ARC
  5
72
  8
1
 62
     7
 10
132.84910081895751
 20
217.77967464655859
 30
0.0
 40
8.5000000000000835
 50
304.25910439873132
 51
55.740895601269173
  0
ARC
  5
73
  8
1
 62
     7
 10
132.84910081895751
 20
217.77967464655859
 30
0.0
 40
7.00000000000004
 50
279.87088960614028
 51
301.28659538779181
  0
ARC
  5
74
  8
1
 62
     7
 10
132.84910081895751
 20
217.77967464655859
 30
0.0
 40
8.5000000000000195
 50
124.2591043987306
 51
235.74089560126919
  0
ARC
  5
75
  8
1
 62
     7
 10
132.84910081895751
 20
217.77967464655859
 30
0.0
 40
5.5000000000000346
 50
257.39773515853511
 51
282.60226484146591
  0
ARC
  5
76
  8
1
 62
     7
 10
132.84910081895751
 20
217.77967464655859
 30
0.0
 40
8.5000000000000266
 50
261.88407075919872
 51
278.11592924080202
  0
ARC
  5
77
  8
1
 62
     7
 10
132.84910081895751
 20
217.77967464655859
 30
0.0
 40
5.4999999999999778
 50
77.397735158533806
 51
102.6022648414649
  0
ARC
  5
78
  8
1
 62
     7
 10
132.84910081895751
 20
217.77967464655859
 30
0.0
 40
8.5000000000000444
 50
81.884070759198011
 51
98.115929240801236
  0
CIRCLE
  5
79
  8
1
 62
     7
 10
264.8491008189576
 20
217.77967464655859
 30
0.0
 40
10.0
  0
CIRCLE
  5
7A
  8
1
 62
     7
 10
132.84910081895751
 20
217.77967464655859
 30
0.0
 40
10.0
  0
CIRCLE
  5
7B
  8
1
 62
     7
 10
264.8491008189576
 20
217.77967464655859
 30
0.0
 40
5.5
  0
CIRCLE
  5
7C
  8
1
 62
     7
 10
132.84910081895751
 20
217.77967464655859
 30
0.0
 40
5.0
  0
CIRCLE
  5
7D
  8
1
 62
     7
 10
132.84910081895751
 20
217.77967464655859
 30
0.0
 40
4.0
  0
CIRCLE
  5
7E
  8
1
 62
     7
 10
264.8491008189576
 20
217.77967464655859
 30
0.0
 40
4.0
  0
TEXT
  5
7F
  8
1
 62
     7
 10
124.51152267912749
 20
237.94988977138101
 30
0.0
 40
2.0
  1
OPL 0.3R
 41
0.9
  7
SIMPLEX
 72
     1
 11
130.6400941076989
 21
237.94988977138101
 31
0.0
  0
ENDSEC
  0
EOF
