  0
SECTION
  2
HEADER
  9
$ACADVER
  1
AC1009
  9
$INSBASE
 10
0
 20
0
  9
$EXTMIN
 10
-195.1187418593602
 20
-213.008070514755
  9
$EXTMAX
 10
41.1597381301149
 20
-161.1517983304985
  9
$LIMMIN
 10
-195.1187418593602
 20
-213.008070514755
  9
$LIMMAX
 10
41.1597381301149
 20
-161.1517983304985
  9
$VIEWCTR
 10
10
 20
10
  9
$VIEWSIZE
 40
10
  9
$SNAPMODE
 70
0
  9
$SNAPUNIT
 10
1
 20
1
  9
$SNAPBASE
 10
0
 20
0
  9
$SNAPANG
 50
0
  9
$SNAPSTYLE
 70
0
  9
$SNAPISOPAIR
 70
0
  9
$GRIDMODE
 70
0
  9
$GRIDUNIT
 10
0
 20
0
  9
$ORTHOMODE
 70
0
  9
$REGENMODE
 70
1
  9
$FILLMODE
 70
1
  9
$QTEXTMODE
 70
0
  9
$DRAGMODE
 70
2
  9
$LTSCALE
 40
1
  9
$OSMODE
 70
0
  9
$ATTMODE
 70
1
  9
$TEXTSIZE
 40
3.5
  9
$TRACEWID
 40
0.5
  9
$TEXTSTYLE
  7
STANDARD
  9
$CLAYER
  8
0
  9
$CELTYPE
  6
BYLAYER
  9
$CECOLOR
 62
256
  9
$DIMSCALE
 40
1
  9
$DIMASZ
 40
0.18
  9
$DIMEXO
 40
0.0625
  9
$DIMDLI
 40
0.38
  9
$DIMRND
 40
0
  9
$DIMDLE
 40
0
  9
$DIMEXE
 40
0.18
  9
$DIMTP
 40
0
  9
$DIMTM
 40
0
  9
$DIMTXT
 40
0.18
  9
$DIMCEN
 40
0.09
  9
$DIMTSZ
 40
0
  9
$DIMTOL
 70
0
  9
$DIMLIM
 70
0
  9
$DIMTIH
 70
1
  9
$DIMTOH
 70
1
  9
$DIMSE1
 70
0
  9
$DIMSE2
 70
0
  9
$DIMTAD
 70
0
  9
$DIMZIN
 70
0
  9
$DIMBLK
  1

  9
$DIMASO
 70
1
  9
$DIMSHO
 70
1
  9
$DIMPOST
  1

  9
$DIMAPOST
  1

  9
$DIMALT
 70
0
  9
$DIMALTD
 70
2
  9
$DIMALTF
 40
25.4
  9
$DIMLFAC
 40
1
  9
$DIMTOFL
 70
0
  9
$DIMTVP
 40
0
  9
$DIMTIX
 70
0
  9
$DIMSOXD
 70
0
  9
$DIMSAH
 70
0
  9
$DIMBLK1
  1

  9
$DIMBLK2
  1

  9
$DIMSTYLE
  2
*UNNAMED
  9
$DIMCLRD
 70
0
  9
$DIMCLRE
 70
0
  9
$DIMCLRT
 70
0
  9
$DIMTFAC
 40
1
  9
$DIMGAP
 40
0.09
  9
$LUNITS
 70
2
  9
$LUPREC
 70
4
  9
$AXISMODE
 70
0
  9
$AXISUNIT
 10
0
 20
0
  9
$SKETCHINC
 40
0.1
  9
$FILLETRAD
 40
2
  9
$AUNITS
 70
0
  9
$AUPREC
 70
0
  9
$MENU
  1
ACAD
  9
$ELEVATION
 40
0
  9
$THICKNESS
 40
0
  9
$VIEWDIR
 10
0
 20
0
 30
1
  9
$LIMCHECK
 70
0
  9
$BLIPMODE
 70
1
  9
$CHAMFERA
 40
0
  9
$CHAMFERB
 40
0
  9
$FASTZOOM
 70
1
  9
$SKPOLY
 70
0
  9
$ANGBASE
 50
0
  9
$ANGDIR
 70
0
  9
$PDMODE
 70
0
  9
$PDSIZE
 40
0
  9
$PLINEWID
 40
0
  9
$COORDS
 70
2
  0
ENDSEC
  0
SECTION
  2
TABLES
  0
TABLE
  2
DIMSTYLE
 70
0
  0
ENDTAB
  0
TABLE
  2
LTYPE
 70
9
  0
LTYPE
  2
CONTINUOUS
 70
64
  3
Solid line
 72
65
 73
0
 40
0
  0
LTYPE
  2
BORDER
 70
64
  3
__ __ . __ __ .
 72
65
 73
6
 40
10.88124578898898
 49
3.108927368282567
 49
-1.554463684141284
 49
3.108927368282567
 49
-1.554463684141284
 49
0
 49
-1.554463684141284
  0
LTYPE
  2
CENTER
 70
64
  3
____ _ ____ _
 72
65
 73
4
 40
12.43570947313027
 49
7.772318420706418
 49
-1.554463684141284
 49
1.554463684141284
 49
-1.554463684141284
  0
LTYPE
  2
DASHDOT
 70
64
  3
__ . __ . __ .
 72
65
 73
4
 40
6.217854736565134
 49
3.108927368282567
 49
-1.554463684141284
 49
0
 49
-1.554463684141284
  0
LTYPE
  2
DASHED
 70
64
  3
__ __ __ __ __
 72
65
 73
2
 40
4.663391052423851
 49
3.108927368282567
 49
-1.554463684141284
  0
LTYPE
  2
DIVIDE
 70
64
  3
__ . . __ . . 
 72
65
 73
6
 40
7.772318420706418
 49
3.108927368282567
 49
-1.554463684141284
 49
0
 49
-1.554463684141284
 49
0
 49
-1.554463684141284
  0
LTYPE
  2
DOT
 70
64
  3
..............
 72
65
 73
4
 40
3.108927368282567
 49
0
 49
-1.554463684141284
 49
0
 49
-1.554463684141284
  0
LTYPE
  2
HIDDEN
 70
64
  3
_ _ _ _ _ _ _
 72
65
 73
2
 40
2.331695526211925
 49
1.554463684141284
 49
-0.7772318420706418
  0
LTYPE
  2
PHANTOM
 70
64
  3
_____ _ _ _____ _ _ 
 72
65
 73
6
 40
15.54463684141284
 49
7.772318420706418
 49
-1.554463684141284
 49
1.554463684141284
 49
-1.554463684141284
 49
1.554463684141284
 49
-1.554463684141284
  0
ENDTAB
  0
TABLE
  2
LAYER
 70
3
  0
LAYER
  2
1
 70
0
 62
7
  6
CONTINUOUS
  0
LAYER
  2
0
 70
0
 62
7
  6
CONTINUOUS
  0
ENDTAB
  0
TABLE
  2
STYLE
 70
4
  0
STYLE
  2
STANDARD
 70
0
 40
0
 41
1
 50
0
 71
0
 42
3.5
  3
txt
  4

  0
STYLE
  2
SIMPLEX
 70
0
 40
0
 41
1
 50
0
 71
0
 42
3.5
  3
simplex
  4

  0
STYLE
  2
COMPLEX
 70
0
 40
0
 41
1
 50
0
 71
0
 42
3.5
  3
complex
  4

  0
STYLE
  2
ITALIC
 70
0
 40
0
 41
1
 50
0
 71
0
 42
3.5
  3
italic
  4

  0
ENDTAB
  0
TABLE
  2
VIEW
 70
0
  0
ENDTAB
  0
ENDSEC
  0
SECTION
  2
BLOCKS
  0
BLOCK
  8
1
  2
*X0
 70
1
 10
0
 20
0
 30
0
  0
LINE
  8
1
 62
3
 10
-83.44026186988511
 20
-197.8920863309353
 30
0
 11
-78.44026186988511
 21
-197.8920863309353
 31
0
  0
LINE
  8
1
 62
3
 10
-83.44026186988511
 20
-198.8920863309353
 30
0
 11
-78.44026186988511
 21
-198.8920863309353
 31
0
  0
LINE
  8
1
 62
3
 10
-83.44026186988511
 20
-199.8920863309353
 30
0
 11
-78.44026186988511
 21
-199.8920863309353
 31
0
  0
LINE
  8
1
 62
3
 10
-83.44026186988511
 20
-200.8920863309353
 30
0
 11
-78.44026186988511
 21
-200.8920863309353
 31
0
  0
ENDBLK
  8
0
  0
ENDSEC
  0
SECTION
  2
ENTITIES
  0
INSERT
  8
1
  2
*X0
 10
0
 20
0
 30
0
  0
LINE
  8
1
 62
7
 10
-180.1911522818159
 20
-204.8238273204228
 30
0
 11
-180.1911522818159
 21
-208.4114481223068
 31
0
  0
LINE
  8
1
 62
7
 10
-182.5911522818159
 20
-204.8238273204228
 30
0
 11
-182.5911522818159
 21
-208.4114481223068
 31
0
  0
LINE
  8
1
 62
7
 10
-180.1911522818159
 20
-193.6046929072031
 30
0
 11
-180.1911522818159
 21
-197.1923137090872
 31
0
  0
LINE
  8
1
 62
7
 10
-182.5911522818159
 20
-193.6046929072031
 30
0
 11
-182.5911522818159
 21
-197.1923137090872
 31
0
  0
LINE
  8
1
 62
7
 10
-70.84026186988511
 20
-205.008070514755
 30
0
 11
39.1597381301149
 21
-205.008070514755
 31
0
  0
LINE
  8
1
 62
7
 10
39.1597381301149
 20
-205.008070514755
 30
0
 11
39.1597381301149
 21
-197.008070514755
 31
0
  0
LINE
  8
1
 62
7
 10
39.1597381301149
 20
-197.008070514755
 30
0
 11
-140.8402618698851
 21
-197.008070514755
 31
0
  0
LINE
  8
1
 62
7
 10
-140.8402618698851
 20
-205.008070514755
 30
0
 11
-90.84026186988511
 21
-205.008070514755
 31
0
  0
LINE
  8
1
 62
7
 10
-140.8402618698851
 20
-197.008070514755
 30
0
 11
-140.8402618698851
 21
-205.008070514755
 31
0
  0
LINE
  8
1
 62
3
  6
DASHDOT
 10
-193.3911522818159
 20
-201.008070514755
 30
0
 11
-169.3911522818159
 21
-201.008070514755
 31
0
  0
LINE
  8
1
 62
3
  6
DASHDOT
 10
-181.3911522818159
 20
-189.008070514755
 30
0
 11
-181.3911522818159
 21
-213.008070514755
 31
0
  0
LINE
  8
1
 62
3
  6
DASHDOT
 10
-142.8402618698851
 20
-201.008070514755
 30
0
 11
41.1597381301149
 21
-201.008070514755
 31
0
  0
LINE
  8
1
 62
7
 10
-78.44026186988511
 20
-197.008070514755
 30
0
 11
-78.44026186988511
 21
-201.008070514755
 31
0
  0
LINE
  8
1
 62
7
 10
-83.44026186988511
 20
-197.008070514755
 30
0
 11
-83.44026186988511
 21
-201.008070514755
 31
0
  0
LINE
  8
1
 62
7
 10
-86.74026186988498
 20
-193.608070514755
 30
0
 11
-85.34026186988511
 21
-195.008070514755
 31
0
  0
LINE
  8
1
 62
7
 10
-85.34026186988511
 20
-195.008070514755
 30
0
 11
-85.34026186988511
 21
-192.758070514755
 31
0
  0
LINE
  8
1
 62
7
 10
-85.34026186988511
 20
-192.758070514755
 30
0
 11
-76.34026186988511
 21
-192.758070514755
 31
0
  0
LINE
  8
1
 62
7
 10
-76.34026186988511
 20
-192.758070514755
 30
0
 11
-76.34026186988511
 21
-195.008070514755
 31
0
  0
LINE
  8
1
 62
7
 10
-76.34026186988511
 20
-195.008070514755
 30
0
 11
-74.94026186988502
 21
-193.608070514755
 31
0
  0
LINE
  8
1
 62
7
 10
-74.64026186988507
 20
-193.608070514755
 30
0
 11
-74.64026186988507
 21
-195.508070514755
 31
0
  0
LINE
  8
1
 62
7
 10
-74.94026186988502
 20
-193.608070514755
 30
0
 11
-74.64026186988507
 21
-193.608070514755
 31
0
  0
LINE
  8
1
 62
7
 10
-74.64026186988507
 20
-194.308070514755
 30
0
 11
-75.34026186988511
 21
-195.008070514755
 31
0
  0
LINE
  8
1
 62
7
 10
-75.34026186988511
 20
-195.008070514755
 30
0
 11
-75.34026186988511
 21
-195.508070514755
 31
0
  0
LINE
  8
1
 62
7
 10
-74.84026186988511
 20
-197.008070514755
 30
0
 11
-74.84026186988511
 21
-195.508070514755
 31
0
  0
LINE
  8
1
 62
7
 10
-74.84026186988511
 20
-195.508070514755
 30
0
 11
-75.34026186988511
 21
-195.508070514755
 31
0
  0
LINE
  8
1
 62
7
 10
-87.04026186988493
 20
-193.608070514755
 30
0
 11
-86.74026186988498
 21
-193.608070514755
 31
0
  0
LINE
  8
1
 62
7
 10
-87.04026186988493
 20
-193.608070514755
 30
0
 11
-87.04026186988493
 21
-195.508070514755
 31
0
  0
LINE
  8
1
 62
7
 10
-86.34026186988511
 20
-195.008070514755
 30
0
 11
-87.04026186988493
 21
-194.308070514755
 31
0
  0
LINE
  8
1
 62
7
 10
-86.34026186988511
 20
-195.508070514755
 30
0
 11
-86.84026186988511
 21
-195.508070514755
 31
0
  0
LINE
  8
1
 62
7
 10
-86.34026186988511
 20
-195.508070514755
 30
0
 11
-86.34026186988511
 21
-195.008070514755
 31
0
  0
LINE
  8
1
 62
7
 10
-86.84026186988511
 20
-195.508070514755
 30
0
 11
-86.84026186988511
 21
-197.008070514755
 31
0
  0
LINE
  8
1
 62
7
 10
-84.44026186988511
 20
-197.008070514755
 30
0
 11
-84.44026186988511
 21
-196.008070514755
 31
0
  0
LINE
  8
1
 62
7
 10
-77.44026186988511
 20
-196.008070514755
 30
0
 11
-77.44026186988511
 21
-197.008070514755
 31
0
  0
LINE
  8
1
 62
7
 10
-78.44026186988511
 20
-192.758070514755
 30
0
 11
-78.44026186988511
 21
-196.008070514755
 31
0
  0
LINE
  8
1
 62
7
 10
-77.44026186988511
 20
-196.008070514755
 30
0
 11
-84.44026186988511
 21
-196.008070514755
 31
0
  0
LINE
  8
1
 62
7
 10
-83.44026186988511
 20
-192.758070514755
 30
0
 11
-83.44026186988511
 21
-196.008070514755
 31
0
  0
LINE
  8
1
 62
7
 10
-70.84026186988511
 20
-191.008070514755
 30
0
 11
-90.84026186988511
 21
-191.008070514755
 31
0
  0
LINE
  8
1
 62
7
 10
-70.84026186988511
 20
-201.008070514755
 30
0
 11
-70.84026186988511
 21
-211.008070514755
 31
0
  0
LINE
  8
1
 62
7
 10
-73.34026186988511
 20
-201.008070514755
 30
0
 11
-73.34026186988511
 21
-202.008070514755
 31
0
  0
LINE
  8
1
 62
7
 10
-73.34026186988511
 20
-202.008070514755
 30
0
 11
-71.84026186988511
 21
-202.008070514755
 31
0
  0
LINE
  8
1
 62
7
 10
-70.84026186988511
 20
-211.008070514755
 30
0
 11
-90.84026186988511
 21
-211.008070514755
 31
0
  0
LINE
  8
1
 62
7
 10
-89.84026186988511
 20
-202.008070514755
 30
0
 11
-88.34026186988511
 21
-202.008070514755
 31
0
  0
LINE
  8
1
 62
7
 10
-88.34026186988511
 20
-202.008070514755
 30
0
 11
-88.34026186988511
 21
-201.008070514755
 31
0
  0
LINE
  8
1
 62
7
 10
-93.34026186988511
 20
-205.008070514755
 30
0
 11
-93.34026186988511
 21
-208.508070514755
 31
0
  0
LINE
  8
1
 62
7
 10
-93.34026186988511
 20
-208.508070514755
 30
0
 11
-90.84026186988511
 21
-208.508070514755
 31
0
  0
LINE
  8
1
 62
7
 10
-68.34026186988511
 20
-205.008070514755
 30
0
 11
-68.34026186988511
 21
-208.508070514755
 31
0
  0
LINE
  8
1
 62
7
 10
-68.34026186988511
 20
-208.508070514755
 30
0
 11
-70.84026186988511
 21
-208.508070514755
 31
0
  0
LINE
  8
1
 62
7
 10
-89.84026186988511
 20
-202.008070514755
 30
0
 11
-89.84026186988511
 21
-211.008070514755
 31
0
  0
LINE
  8
1
 62
7
 10
-90.84026186988511
 20
-211.008070514755
 30
0
 11
-90.84026186988511
 21
-201.008070514755
 31
0
  0
LINE
  8
1
 62
7
 10
-86.18667203139886
 20
-192.008070514755
 30
0
 11
-75.49385170837137
 21
-192.008070514755
 31
0
  0
LINE
  8
1
 62
7
 10
-87.84026186988511
 20
-192.008070514755
 30
0
 11
-89.84026186988511
 21
-192.008070514755
 31
0
  0
LINE
  8
1
 62
7
 10
-90.84026186988511
 20
-193.508070514755
 30
0
 11
-90.84026186988511
 21
-191.008070514755
 31
0
  0
LINE
  8
1
 62
7
 10
-93.34026186988511
 20
-193.508070514755
 30
0
 11
-93.34026186988511
 21
-197.008070514755
 31
0
  0
LINE
  8
1
 62
7
 10
-90.84026186988511
 20
-193.508070514755
 30
0
 11
-93.34026186988511
 21
-193.508070514755
 31
0
  0
LINE
  8
1
 62
7
 10
-85.84026186988511
 20
-192.208070514755
 30
0
 11
-85.84026186988511
 21
-192.758070514755
 31
0
  0
LINE
  8
1
 62
7
 10
-86.94026186988513
 20
-195.508070514755
 30
0
 11
-86.94026186988513
 21
-197.008070514755
 31
0
  0
LINE
  8
1
 62
7
 10
-87.84026186988511
 20
-193.758070514755
 30
0
 11
-87.84026186988511
 21
-195.508070514755
 31
0
  0
LINE
  8
1
 62
7
 10
-88.70628727366953
 20
-193.258070514755
 30
0
 11
-87.84026186988511
 21
-193.758070514755
 31
0
  0
LINE
  8
1
 62
7
 10
-89.84026186988511
 20
-193.258070514755
 30
0
 11
-88.70628727366953
 21
-193.258070514755
 31
0
  0
LINE
  8
1
 62
7
 10
-89.84026186988511
 20
-192.758070514755
 30
0
 11
-89.84026186988511
 21
-193.258070514755
 31
0
  0
LINE
  8
1
 62
7
 10
-85.84026186988511
 20
-192.758070514755
 30
0
 11
-89.84026186988511
 21
-192.758070514755
 31
0
  0
LINE
  8
1
 62
7
 10
-87.39910759669702
 20
-191.308070514755
 30
0
 11
-85.84026186988511
 21
-192.208070514755
 31
0
  0
LINE
  8
1
 62
7
 10
-87.84026186988511
 20
-191.308070514755
 30
0
 11
-87.39910759669702
 21
-191.308070514755
 31
0
  0
LINE
  8
1
 62
7
 10
-86.94026186988513
 20
-195.508070514755
 30
0
 11
-87.84026186988511
 21
-195.508070514755
 31
0
  0
LINE
  8
1
 62
7
 10
-87.84026186988511
 20
-192.008070514755
 30
0
 11
-87.84026186988511
 21
-191.008070514755
 31
0
  0
LINE
  8
1
 62
7
 10
-89.84026186988511
 20
-191.008070514755
 30
0
 11
-89.84026186988511
 21
-192.008070514755
 31
0
  0
LINE
  8
1
 62
7
 10
-71.84026186988511
 20
-192.008070514755
 30
0
 11
-71.84026186988511
 21
-191.008070514755
 31
0
  0
LINE
  8
1
 62
7
 10
-73.84026186988511
 20
-192.008070514755
 30
0
 11
-73.84026186988511
 21
-191.008070514755
 31
0
  0
LINE
  8
1
 62
7
 10
-73.84026186988511
 20
-195.508070514755
 30
0
 11
-74.74026186988498
 21
-195.508070514755
 31
0
  0
LINE
  8
1
 62
7
 10
-74.2814161430732
 20
-191.308070514755
 30
0
 11
-73.84026186988511
 21
-191.308070514755
 31
0
  0
LINE
  8
1
 62
7
 10
-75.84026186988511
 20
-192.208070514755
 30
0
 11
-74.2814161430732
 21
-191.308070514755
 31
0
  0
LINE
  8
1
 62
7
 10
-71.84026186988511
 20
-192.758070514755
 30
0
 11
-75.84026186988511
 21
-192.758070514755
 31
0
  0
LINE
  8
1
 62
7
 10
-71.84026186988511
 20
-193.258070514755
 30
0
 11
-71.84026186988511
 21
-192.758070514755
 31
0
  0
LINE
  8
1
 62
7
 10
-72.97423646610069
 20
-193.258070514755
 30
0
 11
-71.84026186988511
 21
-193.258070514755
 31
0
  0
LINE
  8
1
 62
7
 10
-73.84026186988511
 20
-193.758070514755
 30
0
 11
-72.97423646610069
 21
-193.258070514755
 31
0
  0
LINE
  8
1
 62
7
 10
-73.84026186988511
 20
-195.508070514755
 30
0
 11
-73.84026186988511
 21
-193.758070514755
 31
0
  0
LINE
  8
1
 62
7
 10
-74.74026186988509
 20
-197.008070514755
 30
0
 11
-74.74026186988498
 21
-195.508070514755
 31
0
  0
LINE
  8
1
 62
7
 10
-68.34026186988511
 20
-193.508070514755
 30
0
 11
-70.84026186988511
 21
-193.508070514755
 31
0
  0
LINE
  8
1
 62
7
 10
-68.34026186988511
 20
-197.008070514755
 30
0
 11
-68.34026186988511
 21
-193.508070514755
 31
0
  0
LINE
  8
1
 62
7
 10
-70.84026186988511
 20
-191.008070514755
 30
0
 11
-70.84026186988511
 21
-193.508070514755
 31
0
  0
LINE
  8
1
 62
7
 10
-71.84026186988511
 20
-192.008070514755
 30
0
 11
-73.84026186988511
 21
-192.008070514755
 31
0
  0
LINE
  8
1
 62
7
 10
-75.84026186988511
 20
-192.758070514755
 30
0
 11
-75.84026186988511
 21
-192.208070514755
 31
0
  0
LINE
  8
1
 62
7
 10
-75.59026186988511
 20
-191.008070514755
 30
0
 11
-75.59026186988511
 21
-192.008070514755
 31
0
  0
LINE
  8
1
 62
7
 10
-86.09026186988511
 20
-191.008070514755
 30
0
 11
-86.09026186988511
 21
-192.008070514755
 31
0
  0
LINE
  8
1
 62
7
 10
-71.84026186988511
 20
-211.008070514755
 30
0
 11
-71.84026186988511
 21
-202.008070514755
 31
0
  0
ARC
  8
1
 62
7
 10
-181.3911522818159
 20
-201.008070514755
 30
0
 40
5.500000000000044
 50
102.6022648414651
 51
257.3977351585348
  0
ARC
  8
1
 62
7
 10
-181.3911522818159
 20
-201.008070514755
 30
0
 40
5.500000000000036
 50
282.6022648414649
 51
77.39773515853516
  0
CIRCLE
  8
1
 62
7
 10
-181.3911522818159
 20
-201.008070514755
 30
0
 40
4
  0
CIRCLE
  8
1
 62
7
 10
-181.3911522818159
 20
-201.008070514755
 30
0
 40
7.5
  0
CIRCLE
  8
1
 62
7
 10
-181.3911522818159
 20
-201.008070514755
 30
0
 40
10
  0
TEXT
  8
1
 62
7
 10
-196.7849118593602
 20
-165.1517983304985
 30
0
 40
4
  1
OPL 0.3N
 41
0.88209
  7
SIMPLEX
 72
1
 11
-182.6714718593602
 21
-165.1517983304985
 31
0
  0
ENDSEC
  0
EOF
