  0
SECTION
  2
HEADER
  9
$ACADVER
  1
AC1018
  9
$ACADMAINTVER
 70
     0
  9
$DWGCODEPAGE
  3
ANSI_932
  9
$INSBASE
 10
0.0
 20
0.0
 30
0.0
  9
$EXTMIN
 10
-20.44068699140723
 20
-233.531768358137
 30
-0.0015258207003583
  9
$EXTMAX
 10
272.4339379606305
 20
-44.48824955023565
 30
0.0000000349246037
  9
$LIMMIN
 10
-20.43175039449765
 20
-233.526
  9
$LIMMAX
 10
272.425
 20
-44.49401878862159
  9
$ORTHOMODE
 70
     0
  9
$REGENMODE
 70
     1
  9
$FILLMODE
 70
     1
  9
$QTEXTMODE
 70
     0
  9
$MIRRTEXT
 70
     1
  9
$LTSCALE
 40
1.0
  9
$ATTMODE
 70
     1
  9
$TEXTSIZE
 40
3.5
  9
$TRACEWID
 40
0.5
  9
$TEXTSTYLE
  7
STANDARD
  9
$CLAYER
  8
0
  9
$CELTYPE
  6
ByLayer
  9
$CECOLOR
 62
   256
  9
$CELTSCALE
 40
1.0
  9
$DISPSILH
 70
     0
  9
$DIMSCALE
 40
1.0
  9
$DIMASZ
 40
0.18
  9
$DIMEXO
 40
0.0625
  9
$DIMDLI
 40
0.38
  9
$DIMRND
 40
0.0
  9
$DIMDLE
 40
0.0
  9
$DIMEXE
 40
0.18
  9
$DIMTP
 40
0.0
  9
$DIMTM
 40
0.0
  9
$DIMTXT
 40
0.18
  9
$DIMCEN
 40
0.09
  9
$DIMTSZ
 40
0.0
  9
$DIMTOL
 70
     0
  9
$DIMLIM
 70
     0
  9
$DIMTIH
 70
     1
  9
$DIMTOH
 70
     1
  9
$DIMSE1
 70
     0
  9
$DIMSE2
 70
     0
  9
$DIMTAD
 70
     0
  9
$DIMZIN
 70
     0
  9
$DIMBLK
  1

  9
$DIMASO
 70
     1
  9
$DIMSHO
 70
     1
  9
$DIMPOST
  1

  9
$DIMAPOST
  1

  9
$DIMALT
 70
     0
  9
$DIMALTD
 70
     2
  9
$DIMALTF
 40
25.4
  9
$DIMLFAC
 40
1.0
  9
$DIMTOFL
 70
     0
  9
$DIMTVP
 40
0.0
  9
$DIMTIX
 70
     0
  9
$DIMSOXD
 70
     0
  9
$DIMSAH
 70
     0
  9
$DIMBLK1
  1

  9
$DIMBLK2
  1

  9
$DIMSTYLE
  2
STANDARD
  9
$DIMCLRD
 70
     0
  9
$DIMCLRE
 70
     0
  9
$DIMCLRT
 70
     0
  9
$DIMTFAC
 40
1.0
  9
$DIMGAP
 40
0.09
  9
$DIMJUST
 70
     0
  9
$DIMSD1
 70
     0
  9
$DIMSD2
 70
     0
  9
$DIMTOLJ
 70
     1
  9
$DIMTZIN
 70
     0
  9
$DIMALTZ
 70
     0
  9
$DIMALTTZ
 70
     0
  9
$DIMUPT
 70
     0
  9
$DIMDEC
 70
     4
  9
$DIMTDEC
 70
     4
  9
$DIMALTU
 70
     2
  9
$DIMALTTD
 70
     2
  9
$DIMTXSTY
  7
STANDARD
  9
$DIMAUNIT
 70
     0
  9
$DIMADEC
 70
     0
  9
$DIMALTRND
 40
0.0
  9
$DIMAZIN
 70
     0
  9
$DIMDSEP
 70
    46
  9
$DIMATFIT
 70
     3
  9
$DIMFRAC
 70
     0
  9
$DIMLDRBLK
  1

  9
$DIMLUNIT
 70
     2
  9
$DIMLWD
 70
    -2
  9
$DIMLWE
 70
    -2
  9
$DIMTMOVE
 70
     0
  9
$LUNITS
 70
     2
  9
$LUPREC
 70
     4
  9
$SKETCHINC
 40
0.1
  9
$FILLETRAD
 40
2.0
  9
$AUNITS
 70
     0
  9
$AUPREC
 70
     0
  9
$MENU
  1
ACAD
  9
$ELEVATION
 40
0.0
  9
$PELEVATION
 40
0.0
  9
$THICKNESS
 40
0.0
  9
$LIMCHECK
 70
     0
  9
$CHAMFERA
 40
0.0
  9
$CHAMFERB
 40
0.0
  9
$CHAMFERC
 40
0.0
  9
$CHAMFERD
 40
0.0
  9
$SKPOLY
 70
     0
  9
$TDCREATE
 40
2452095.341660648
  9
$TDUCREATE
 40
2452095.508327315
  9
$TDUPDATE
 40
2453209.448620209
  9
$TDUUPDATE
 40
2453209.615286875
  9
$TDINDWG
 40
0.0005368981
  9
$TDUSRTIMER
 40
0.0005368981
  9
$USRTIMER
 70
     1
  9
$ANGBASE
 50
0.0
  9
$ANGDIR
 70
     0
  9
$PDMODE
 70
     0
  9
$PDSIZE
 40
0.0
  9
$PLINEWID
 40
0.0
  9
$SPLFRAME
 70
     0
  9
$SPLINETYPE
 70
     6
  9
$SPLINESEGS
 70
     8
  9
$HANDSEED
  5
F7
  9
$SURFTAB1
 70
     6
  9
$SURFTAB2
 70
     6
  9
$SURFTYPE
 70
     6
  9
$SURFU
 70
     6
  9
$SURFV
 70
     6
  9
$UCSBASE
  2

  9
$UCSNAME
  2

  9
$UCSORG
 10
0.0
 20
0.0
 30
0.0
  9
$UCSXDIR
 10
1.0
 20
0.0
 30
0.0
  9
$UCSYDIR
 10
0.0
 20
1.0
 30
0.0
  9
$UCSORTHOREF
  2

  9
$UCSORTHOVIEW
 70
     0
  9
$UCSORGTOP
 10
0.0
 20
0.0
 30
0.0
  9
$UCSORGBOTTOM
 10
0.0
 20
0.0
 30
0.0
  9
$UCSORGLEFT
 10
0.0
 20
0.0
 30
0.0
  9
$UCSORGRIGHT
 10
0.0
 20
0.0
 30
0.0
  9
$UCSORGFRONT
 10
0.0
 20
0.0
 30
0.0
  9
$UCSORGBACK
 10
0.0
 20
0.0
 30
0.0
  9
$PUCSBASE
  2

  9
$PUCSNAME
  2

  9
$PUCSORG
 10
0.0
 20
0.0
 30
0.0
  9
$PUCSXDIR
 10
1.0
 20
0.0
 30
0.0
  9
$PUCSYDIR
 10
0.0
 20
1.0
 30
0.0
  9
$PUCSORTHOREF
  2

  9
$PUCSORTHOVIEW
 70
     0
  9
$PUCSORGTOP
 10
0.0
 20
0.0
 30
0.0
  9
$PUCSORGBOTTOM
 10
0.0
 20
0.0
 30
0.0
  9
$PUCSORGLEFT
 10
0.0
 20
0.0
 30
0.0
  9
$PUCSORGRIGHT
 10
0.0
 20
0.0
 30
0.0
  9
$PUCSORGFRONT
 10
0.0
 20
0.0
 30
0.0
  9
$PUCSORGBACK
 10
0.0
 20
0.0
 30
0.0
  9
$USERI1
 70
     0
  9
$USERI2
 70
     0
  9
$USERI3
 70
     0
  9
$USERI4
 70
     0
  9
$USERI5
 70
     0
  9
$USERR1
 40
0.0
  9
$USERR2
 40
0.0
  9
$USERR3
 40
0.0
  9
$USERR4
 40
0.0
  9
$USERR5
 40
0.0
  9
$WORLDVIEW
 70
     1
  9
$SHADEDGE
 70
     3
  9
$SHADEDIF
 70
    70
  9
$TILEMODE
 70
     1
  9
$MAXACTVP
 70
    64
  9
$PINSBASE
 10
0.0
 20
0.0
 30
0.0
  9
$PLIMCHECK
 70
     0
  9
$PEXTMIN
 10
1.000000000000000E+20
 20
1.000000000000000E+20
 30
1.000000000000000E+20
  9
$PEXTMAX
 10
-1.000000000000000E+20
 20
-1.000000000000000E+20
 30
-1.000000000000000E+20
  9
$PLIMMIN
 10
0.0
 20
0.0
  9
$PLIMMAX
 10
12.0
 20
9.0
  9
$UNITMODE
 70
     0
  9
$VISRETAIN
 70
     1
  9
$PLINEGEN
 70
     0
  9
$PSLTSCALE
 70
     1
  9
$TREEDEPTH
 70
  3020
  9
$CMLSTYLE
  2
Standard
  9
$CMLJUST
 70
     0
  9
$CMLSCALE
 40
1.0
  9
$PROXYGRAPHICS
 70
     1
  9
$MEASUREMENT
 70
     0
  9
$CELWEIGHT
370
    -1
  9
$ENDCAPS
280
     0
  9
$JOINSTYLE
280
     0
  9
$LWDISPLAY
290
     0
  9
$INSUNITS
 70
     0
  9
$HYPERLINKBASE
  1

  9
$STYLESHEET
  1

  9
$XEDIT
290
     1
  9
$CEPSNTYPE
380
     0
  9
$PSTYLEMODE
290
     1
  9
$FINGERPRINTGUID
  2
{422A882B-3FAF-4860-B2B7-4E18442703CF}
  9
$VERSIONGUID
  2
{B20AE8C9-4961-4ACB-A08F-46A9753D25BE}
  9
$EXTNAMES
290
     1
  9
$PSVPSCALE
 40
0.0
  9
$OLESTARTUP
290
     0
  9
$SORTENTS
280
   127
  9
$INDEXCTL
280
     0
  9
$HIDETEXT
280
     0
  9
$XCLIPFRAME
290
     0
  9
$HALOGAP
280
     0
  9
$OBSCOLOR
 70
   257
  9
$OBSLTYPE
280
     0
  9
$INTERSECTIONDISPLAY
280
     0
  9
$INTERSECTIONCOLOR
 70
   257
  9
$DIMASSOC
280
     1
  9
$PROJECTNAME
  1

  0
ENDSEC
  0
SECTION
  2
CLASSES
  0
CLASS
  1
ACDBDICTIONARYWDFLT
  2
AcDbDictionaryWithDefault
  3
ObjectDBX Classes
 90
        0
 91
        1
280
     0
281
     0
  0
ENDSEC
  0
SECTION
  2
TABLES
  0
TABLE
  2
VPORT
  5
C4
330
0
100
AcDbSymbolTable
 70
     2
  0
VPORT
  5
F6
330
C4
100
AcDbSymbolTableRecord
100
AcDbViewportTableRecord
  2
*Active
 70
     0
 10
0.0
 20
0.0
 11
1.0
 21
1.0
 12
125.9966254846116
 22
-139.0100089541863
 13
0.0
 23
0.0
 14
1.0
 24
1.0
 15
0.0
 25
0.0
 16
0.0
 26
0.0
 36
1.0
 17
0.0
 27
0.0
 37
0.0
 40
190.7491746166944
 41
1.625
 42
50.0
 43
0.0
 44
0.0
 50
0.0
 51
0.0
 71
     0
 72
   100
 73
     1
 74
     1
 75
     0
 76
     0
 77
     0
 78
     0
281
     0
 65
     1
110
0.0
120
0.0
130
0.0
111
1.0
121
0.0
131
0.0
112
0.0
122
1.0
132
0.0
 79
     0
146
0.0
  0
ENDTAB
  0
TABLE
  2
LTYPE
  5
C1
330
0
100
AcDbSymbolTable
 70
     9
  0
LTYPE
  5
CF
330
C1
100
AcDbSymbolTableRecord
100
AcDbLinetypeTableRecord
  2
ByBlock
 70
     0
  3

 72
    65
 73
     0
 40
0.0
  0
LTYPE
  5
D0
330
C1
100
AcDbSymbolTableRecord
100
AcDbLinetypeTableRecord
  2
ByLayer
 70
     0
  3

 72
    65
 73
     0
 40
0.0
  0
LTYPE
  5
D1
330
C1
100
AcDbSymbolTableRecord
100
AcDbLinetypeTableRecord
  2
CONTINUOUS
 70
     0
  3
Solid line
 72
    65
 73
     0
 40
0.0
  0
LTYPE
  5
E1
330
C1
100
AcDbSymbolTableRecord
100
AcDbLinetypeTableRecord
  2
BORDER
 70
     0
  3
__ __ . __ __ .
 72
    65
 73
     6
 40
13.48682403132555
 49
3.853378294664442
 74
     0
 49
-1.92668914733222
 74
     0
 49
3.853378294664442
 74
     0
 49
-1.92668914733222
 74
     0
 49
0.0
 74
     0
 49
-1.92668914733222
 74
     0
  0
LTYPE
  5
E2
330
C1
100
AcDbSymbolTableRecord
100
AcDbLinetypeTableRecord
  2
CENTER
 70
     0
  3
____ _ ____ _
 72
    65
 73
     4
 40
15.41351317865776
 49
9.633445736661107
 74
     0
 49
-1.92668914733222
 74
     0
 49
1.92668914733222
 74
     0
 49
-1.92668914733222
 74
     0
  0
LTYPE
  5
E3
330
C1
100
AcDbSymbolTableRecord
100
AcDbLinetypeTableRecord
  2
DASHDOT
 70
     0
  3
__ . __ . __ .
 72
    65
 73
     4
 40
7.706756589328886
 49
3.853378294664442
 74
     0
 49
-1.92668914733222
 74
     0
 49
0.0
 74
     0
 49
-1.92668914733222
 74
     0
  0
LTYPE
  5
E4
330
C1
100
AcDbSymbolTableRecord
100
AcDbLinetypeTableRecord
  2
DASHED
 70
     0
  3
__ __ __ __ __
 72
    65
 73
     2
 40
5.780067441996664
 49
3.853378294664442
 74
     0
 49
-1.92668914733222
 74
     0
  0
LTYPE
  5
E5
330
C1
100
AcDbSymbolTableRecord
100
AcDbLinetypeTableRecord
  2
DIVIDE
 70
     0
  3
__ . . __ . . 
 72
    65
 73
     6
 40
9.633445736661107
 49
3.853378294664442
 74
     0
 49
-1.92668914733222
 74
     0
 49
0.0
 74
     0
 49
-1.92668914733222
 74
     0
 49
0.0
 74
     0
 49
-1.92668914733222
 74
     0
  0
LTYPE
  5
E6
330
C1
100
AcDbSymbolTableRecord
100
AcDbLinetypeTableRecord
  2
DOT
 70
     0
  3
..............
 72
    65
 73
     4
 40
3.853378294664442
 49
0.0
 74
     0
 49
-1.92668914733222
 74
     0
 49
0.0
 74
     0
 49
-1.92668914733222
 74
     0
  0
LTYPE
  5
E7
330
C1
100
AcDbSymbolTableRecord
100
AcDbLinetypeTableRecord
  2
HIDDEN
 70
     0
  3
_ _ _ _ _ _ _
 72
    65
 73
     2
 40
2.890033720998332
 49
1.92668914733222
 74
     0
 49
-0.9633445736661109
 74
     0
  0
LTYPE
  5
E8
330
C1
100
AcDbSymbolTableRecord
100
AcDbLinetypeTableRecord
  2
PHANTOM
 70
     0
  3
_____ _ _ _____ _ _ 
 72
    65
 73
     6
 40
19.2668914733222
 49
9.633445736661107
 74
     0
 49
-1.92668914733222
 74
     0
 49
1.92668914733222
 74
     0
 49
-1.92668914733222
 74
     0
 49
1.92668914733222
 74
     0
 49
-1.92668914733222
 74
     0
  0
ENDTAB
  0
TABLE
  2
LAYER
  5
BE
330
0
100
AcDbSymbolTable
 70
     2
  0
LAYER
  5
CC
330
BE
100
AcDbSymbolTableRecord
100
AcDbLayerTableRecord
  2
0
 70
     0
 62
     7
  6
CONTINUOUS
370
    -3
390
CB
  0
LAYER
  5
E9
330
BE
100
AcDbSymbolTableRecord
100
AcDbLayerTableRecord
  2
1
 70
     0
 62
     7
  6
CONTINUOUS
370
    -3
390
CB
  0
ENDTAB
  0
TABLE
  2
STYLE
  5
BF
330
0
100
AcDbSymbolTable
 70
     4
  0
STYLE
  5
CD
330
BF
100
AcDbSymbolTableRecord
100
AcDbTextStyleTableRecord
  2
STANDARD
 70
     0
 40
0.0
 41
1.0
 50
0.0
 71
     0
 42
3.5
  3
txt
  4

  0
STYLE
  5
EA
330
BF
100
AcDbSymbolTableRecord
100
AcDbTextStyleTableRecord
  2
SIMPLEX
 70
     0
 40
0.0
 41
1.0
 50
0.0
 71
     0
 42
3.5
  3
simplex
  4

  0
STYLE
  5
EB
330
BF
100
AcDbSymbolTableRecord
100
AcDbTextStyleTableRecord
  2
COMPLEX
 70
     0
 40
0.0
 41
1.0
 50
0.0
 71
     0
 42
3.5
  3
complex
  4

  0
STYLE
  5
EC
330
BF
100
AcDbSymbolTableRecord
100
AcDbTextStyleTableRecord
  2
ITALIC
 70
     0
 40
0.0
 41
1.0
 50
0.0
 71
     0
 42
3.5
  3
italic
  4

  0
ENDTAB
  0
TABLE
  2
VIEW
  5
C2
330
0
100
AcDbSymbolTable
 70
     0
  0
ENDTAB
  0
TABLE
  2
UCS
  5
C3
330
0
100
AcDbSymbolTable
 70
     0
  0
ENDTAB
  0
TABLE
  2
APPID
  5
C5
330
0
100
AcDbSymbolTable
 70
     1
  0
APPID
  5
CE
330
C5
100
AcDbSymbolTableRecord
100
AcDbRegAppTableRecord
  2
ACAD
 70
     0
  0
ENDTAB
  0
TABLE
  2
DIMSTYLE
  5
C6
330
0
100
AcDbSymbolTable
 70
     1
100
AcDbDimStyleTable
 71
     0
  0
DIMSTYLE
105
ED
330
C6
100
AcDbSymbolTableRecord
100
AcDbDimStyleTableRecord
  2
STANDARD
 70
     0
279
     2
340
CD
  0
ENDTAB
  0
TABLE
  2
BLOCK_RECORD
  5
BD
330
0
100
AcDbSymbolTable
 70
     2
  0
BLOCK_RECORD
  5
DC
330
BD
100
AcDbSymbolTableRecord
100
AcDbBlockTableRecord
  2
*Model_Space
340
DF
  0
BLOCK_RECORD
  5
D8
330
BD
100
AcDbSymbolTableRecord
100
AcDbBlockTableRecord
  2
*Paper_Space
340
DB
  0
BLOCK_RECORD
  5
F2
330
BD
100
AcDbSymbolTableRecord
100
AcDbBlockTableRecord
  2
$MODEL_SPACE
340
0
  0
BLOCK_RECORD
  5
F4
330
BD
100
AcDbSymbolTableRecord
100
AcDbBlockTableRecord
  2
$PAPER_SPACE
340
0
  0
ENDTAB
  0
ENDSEC
  0
SECTION
  2
BLOCKS
  0
BLOCK
  5
DD
330
DC
100
AcDbEntity
  8
0
100
AcDbBlockBegin
  2
*Model_Space
 70
     0
 10
0.0
 20
0.0
 30
0.0
  3
*Model_Space
  1

  0
ENDBLK
  5
DE
330
DC
100
AcDbEntity
  8
0
100
AcDbBlockEnd
  0
BLOCK
  5
D9
330
D8
100
AcDbEntity
 67
     1
  8
0
100
AcDbBlockBegin
  2
*Paper_Space
 70
     0
 10
0.0
 20
0.0
 30
0.0
  3
*Paper_Space
  1

  0
ENDBLK
  5
DA
330
D8
100
AcDbEntity
 67
     1
  8
0
100
AcDbBlockEnd
  0
BLOCK
  5
F3
330
F2
100
AcDbEntity
  8
0
100
AcDbBlockBegin
  2
$MODEL_SPACE
 70
     0
 10
0.0
 20
0.0
 30
0.0
  3
$MODEL_SPACE
  1

  0
ENDBLK
  5
20
330
F2
100
AcDbEntity
  8
0
100
AcDbBlockEnd
  0
BLOCK
  5
F5
330
F4
100
AcDbEntity
  8
0
100
AcDbBlockBegin
  2
$PAPER_SPACE
 70
     0
 10
0.0
 20
0.0
 30
0.0
  3
$PAPER_SPACE
  1

  0
ENDBLK
  5
1C
330
F4
100
AcDbEntity
  8
0
100
AcDbBlockEnd
  0
ENDSEC
  0
SECTION
  2
ENTITIES
  0
LINE
  5
33
330
DC
100
AcDbEntity
  8
1
  6
DASHDOT
 62
     3
100
AcDbLine
 10
218.175
 20
-200.5054734194974
 30
0.0
 11
212.675
 21
-190.9791939778686
 31
0.0
  0
LINE
  5
34
330
DC
100
AcDbEntity
  8
1
  6
DASHDOT
 62
     3
100
AcDbLine
 10
131.175
 20
-150.276
 30
0.0
 11
142.175
 21
-150.276
 31
0.0
  0
LINE
  5
35
330
DC
100
AcDbEntity
  8
1
  6
DASHDOT
 62
     3
100
AcDbLine
 10
218.175
 20
-100.0465265805025
 30
0.0
 11
212.675
 21
-109.5728060221313
 31
0.0
  0
LINE
  5
36
330
DC
100
AcDbEntity
  8
1
  6
DASHDOT
 62
     3
100
AcDbLine
 10
189.175
 20
-150.276
 30
0.0
 11
189.175
 21
-147.276
 31
0.0
  0
LINE
  5
37
330
DC
100
AcDbEntity
  8
1
  6
DASHDOT
 62
     3
100
AcDbLine
 10
189.175
 20
-150.276
 30
0.0
 11
186.175
 21
-150.276
 31
0.0
  0
LINE
  5
38
330
DC
100
AcDbEntity
  8
1
  6
DASHDOT
 62
     3
100
AcDbLine
 10
189.175
 20
-150.276
 30
0.0
 11
189.175
 21
-153.276
 31
0.0
  0
LINE
  5
39
330
DC
100
AcDbEntity
  8
1
  6
DASHDOT
 62
     3
100
AcDbLine
 10
189.175
 20
-150.276
 30
0.0
 11
192.175
 21
-150.276
 31
0.0
  0
LINE
  5
3A
330
DC
100
AcDbEntity
  8
1
 62
     7
100
AcDbLine
 10
186.675
 20
-142.6766579232146
 30
0.0
 11
186.675
 21
-139.976
 31
0.0
  0
LINE
  5
3B
330
DC
100
AcDbEntity
  8
1
 62
     7
100
AcDbLine
 10
186.675
 20
-139.976
 30
0.0
 11
191.675
 21
-139.976
 31
0.0
  0
LINE
  5
3C
330
DC
100
AcDbEntity
  8
1
 62
     7
100
AcDbLine
 10
191.675
 20
-139.976
 30
0.0
 11
191.675
 21
-142.6766579232146
 31
0.0
  0
LINE
  5
3D
330
DC
100
AcDbEntity
  8
1
  6
DASHED
 62
     3
100
AcDbLine
 10
187.175
 20
-139.976
 30
0.0
 11
187.175
 21
-132.8906613492862
 31
0.0
  0
LINE
  5
3E
330
DC
100
AcDbEntity
  8
1
  6
DASHED
 62
     3
100
AcDbLine
 10
191.1749999999999
 20
-132.8906613492862
 30
0.0
 11
191.1749999999999
 21
-139.976
 31
0.0
  0
LINE
  5
3F
330
DC
100
AcDbEntity
  8
1
  6
DASHED
 62
     7
100
AcDbLine
 10
187.7749999999999
 20
-139.976
 30
0.0
 11
187.7749999999999
 21
-132.832089887872
 31
0.0
  0
LINE
  5
40
330
DC
100
AcDbEntity
  8
1
  6
DASHED
 62
     7
100
AcDbLine
 10
190.5749999999999
 20
-132.832089887872
 30
0.0
 11
190.5749999999999
 21
-139.976
 31
0.0
  0
LINE
  5
41
330
DC
100
AcDbEntity
  8
1
  6
DASHDOT
 62
     3
100
AcDbLine
 10
189.175
 20
-142.9759999999999
 30
0.0
 11
189.175
 21
-129.776
 31
0.0
  0
LINE
  5
42
330
DC
100
AcDbEntity
  8
1
  6
DASHED
 62
     3
100
AcDbLine
 10
181.4290333075851
 20
-152.276
 30
0.0
 11
171.7896613492863
 21
-152.276
 31
0.0
  0
LINE
  5
43
330
DC
100
AcDbEntity
  8
1
  6
DASHED
 62
     3
100
AcDbLine
 10
171.7896613492863
 20
-148.276
 30
0.0
 11
181.4290333075851
 21
-148.276
 31
0.0
  0
LINE
  5
44
330
DC
100
AcDbEntity
  8
1
  6
DASHED
 62
     7
100
AcDbLine
 10
181.2984525329937
 20
-151.676
 30
0.0
 11
171.731089887872
 21
-151.676
 31
0.0
  0
LINE
  5
45
330
DC
100
AcDbEntity
  8
1
  6
DASHED
 62
     7
100
AcDbLine
 10
171.731089887872
 20
-148.876
 30
0.0
 11
181.2984525329937
 21
-148.876
 31
0.0
  0
LINE
  5
46
330
DC
100
AcDbEntity
  8
1
  6
DASHDOT
 62
     3
100
AcDbLine
 10
184.175
 20
-150.276
 30
0.0
 11
168.675
 21
-150.276
 31
0.0
  0
LINE
  5
47
330
DC
100
AcDbEntity
  8
1
 62
     7
100
AcDbLine
 10
72.88682810145259
 20
-167.7759999999999
 30
0.0
 11
63.88682810145261
 21
-167.7759999999999
 31
0.0
  0
LINE
  5
48
330
DC
100
AcDbEntity
  8
1
 62
     7
100
AcDbLine
 10
72.88682810145259
 20
-167.7759999999999
 30
0.0
 11
72.88682810145259
 21
-150.276
 31
0.0
  0
LINE
  5
49
330
DC
100
AcDbEntity
  8
1
 62
     7
100
AcDbLine
 10
10.88682810145259
 20
-233.276
 30
0.0
 11
10.88682810145259
 21
-150.276
 31
0.0
  0
LINE
  5
4A
330
DC
100
AcDbEntity
  8
1
 62
     7
100
AcDbLine
 10
57.8868281014526
 20
-223.276
 30
0.0
 11
57.38682810145259
 21
-223.276
 31
0.0
  0
LINE
  5
4B
330
DC
100
AcDbEntity
  8
1
 62
     7
100
AcDbLine
 10
57.38682810145258
 20
-150.2760000000001
 30
0.0
 11
57.38682810145259
 21
-233.276
 31
0.0
  0
LINE
  5
4C
330
DC
100
AcDbEntity
  8
1
 62
     7
100
AcDbLine
 10
57.88682810145258
 20
-150.2760000000001
 30
0.0
 11
57.8868281014526
 21
-233.526
 31
0.0
  0
LINE
  5
4D
330
DC
100
AcDbEntity
  8
1
 62
     7
100
AcDbLine
 10
63.88682810145261
 20
-233.526
 30
0.0
 11
57.8868281014526
 21
-233.526
 31
0.0
  0
LINE
  5
4E
330
DC
100
AcDbEntity
  8
1
 62
     7
100
AcDbLine
 10
63.88682810145261
 20
-150.276
 30
0.0
 11
63.88682810145261
 21
-233.526
 31
0.0
  0
LINE
  5
4F
330
DC
100
AcDbEntity
  8
1
 62
     7
100
AcDbLine
 10
4.886828101452591
 20
-150.276
 30
0.0
 11
4.886828101452591
 21
-233.276
 31
0.0
  0
LINE
  5
50
330
DC
100
AcDbEntity
  8
1
 62
     7
100
AcDbLine
 10
4.886828101452591
 20
-233.276
 30
0.0
 11
57.38682810145259
 21
-233.276
 31
0.0
  0
LINE
  5
51
330
DC
100
AcDbEntity
  8
1
 62
     7
100
AcDbLine
 10
51.78682810145259
 20
-77.27600000000002
 30
0.0
 11
57.8868281014526
 21
-77.27600000000002
 31
0.0
  0
LINE
  5
52
330
DC
100
AcDbEntity
  8
1
 62
     3
100
AcDbLine
 10
47.38682810145259
 20
-73.81523048454133
 30
0.0
 11
52.38682810145259
 21
-73.81523048454133
 31
0.0
  0
LINE
  5
53
330
DC
100
AcDbEntity
  8
1
 62
     3
100
AcDbLine
 10
51.78682810145259
 20
-73.81523048454133
 30
0.0
 11
52.38682810145259
 21
-72.77600000000003
 31
0.0
  0
LINE
  5
54
330
DC
100
AcDbEntity
  8
1
 62
     3
100
AcDbLine
 10
51.78682810145259
 20
-84.27600000000003
 30
0.0
 11
51.78682810145259
 21
-73.81523048454133
 31
0.0
  0
LINE
  5
55
330
DC
100
AcDbEntity
  8
1
 62
     3
100
AcDbLine
 10
47.9868281014526
 20
-73.81523048454133
 30
0.0
 11
47.38682810145259
 21
-72.77600000000003
 31
0.0
  0
LINE
  5
56
330
DC
100
AcDbEntity
  8
1
 62
     3
100
AcDbLine
 10
47.9868281014526
 20
-84.27600000000003
 30
0.0
 11
47.9868281014526
 21
-73.81523048454133
 31
0.0
  0
LINE
  5
57
330
DC
100
AcDbEntity
  8
1
 62
     7
100
AcDbLine
 10
47.38682810145259
 20
-83.67600000000001
 30
0.0
 11
52.38682810145259
 21
-83.67600000000001
 31
0.0
  0
LINE
  5
58
330
DC
100
AcDbEntity
  8
1
 62
     7
100
AcDbLine
 10
52.38682810145259
 20
-83.67600000000001
 30
0.0
 11
52.38682810145259
 21
-72.27600000000002
 31
0.0
  0
LINE
  5
59
330
DC
100
AcDbEntity
  8
1
 62
     7
100
AcDbLine
 10
51.78682810145259
 20
-84.27600000000003
 30
0.0
 11
52.38682810145259
 21
-83.67600000000001
 31
0.0
  0
LINE
  5
5A
330
DC
100
AcDbEntity
  8
1
 62
     7
100
AcDbLine
 10
47.9868281014526
 20
-84.27600000000003
 30
0.0
 11
51.78682810145259
 21
-84.27600000000003
 31
0.0
  0
LINE
  5
5B
330
DC
100
AcDbEntity
  8
1
 62
     7
100
AcDbLine
 10
47.38682810145259
 20
-83.67600000000001
 30
0.0
 11
47.9868281014526
 21
-84.27600000000003
 31
0.0
  0
LINE
  5
5C
330
DC
100
AcDbEntity
  8
1
 62
     7
100
AcDbLine
 10
47.38682810145259
 20
-72.27600000000002
 30
0.0
 11
47.38682810145259
 21
-83.67600000000001
 31
0.0
  0
LINE
  5
5D
330
DC
100
AcDbEntity
  8
1
 62
     7
100
AcDbLine
 10
45.63682810145258
 20
-67.576
 30
0.0
 11
54.13682810145258
 21
-67.576
 31
0.0
  0
LINE
  5
5E
330
DC
100
AcDbEntity
  8
1
 62
     7
100
AcDbLine
 10
54.13682810145258
 20
-67.576
 30
0.0
 11
54.13682810145258
 21
-72.27600000000002
 31
0.0
  0
LINE
  5
5F
330
DC
100
AcDbEntity
  8
1
 62
     7
100
AcDbLine
 10
53.61721285918193
 20
-67.27600000000001
 30
0.0
 11
54.13682810145258
 21
-67.576
 31
0.0
  0
LINE
  5
60
330
DC
100
AcDbEntity
  8
1
 62
     7
100
AcDbLine
 10
45.63682810145258
 20
-67.576
 30
0.0
 11
46.15644334372325
 21
-67.27600000000001
 31
0.0
  0
LINE
  5
61
330
DC
100
AcDbEntity
  8
1
 62
     7
100
AcDbLine
 10
45.63682810145258
 20
-72.27600000000002
 30
0.0
 11
45.63682810145258
 21
-67.576
 31
0.0
  0
LINE
  5
62
330
DC
100
AcDbEntity
  8
1
  6
DASHDOT
 62
     3
100
AcDbLine
 10
49.88682810145259
 20
-64.27600000000001
 30
0.0
 11
49.88682810145259
 21
-87.27600000000002
 31
0.0
  0
LINE
  5
63
330
DC
100
AcDbEntity
  8
1
 62
     7
100
AcDbLine
 10
46.88682810145258
 20
-72.27600000000002
 30
0.0
 11
46.88682810145258
 21
-77.27600000000002
 31
0.0
  0
LINE
  5
64
330
DC
100
AcDbEntity
  8
1
 62
     7
100
AcDbLine
 10
52.88682810145258
 20
-72.27600000000002
 30
0.0
 11
52.88682810145258
 21
-77.27600000000002
 31
0.0
  0
LINE
  5
65
330
DC
100
AcDbEntity
  8
1
 62
     7
100
AcDbLine
 10
45.13682810145257
 20
-72.27600000000002
 30
0.0
 11
45.13682810145257
 21
-67.27600000000001
 31
0.0
  0
LINE
  5
66
330
DC
100
AcDbEntity
  8
1
 62
     7
100
AcDbLine
 10
54.63682810145257
 20
-72.27600000000002
 30
0.0
 11
45.13682810145257
 21
-72.27600000000002
 31
0.0
  0
LINE
  5
67
330
DC
100
AcDbEntity
  8
1
 62
     7
100
AcDbLine
 10
54.63682810145257
 20
-67.27600000000001
 30
0.0
 11
54.63682810145257
 21
-72.27600000000002
 31
0.0
  0
LINE
  5
68
330
DC
100
AcDbEntity
  8
1
 62
     7
100
AcDbLine
 10
63.88682810145261
 20
-119.276
 30
0.0
 11
60.88682810145261
 21
-119.276
 31
0.0
  0
LINE
  5
69
330
DC
100
AcDbEntity
  8
1
 62
     7
100
AcDbLine
 10
57.8868281014526
 20
-67.02600000000001
 30
0.0
 11
57.8868281014526
 21
-77.27600000000002
 31
0.0
  0
LINE
  5
6A
330
DC
100
AcDbEntity
  8
1
 62
     7
100
AcDbLine
 10
63.88682810145261
 20
-67.02600000000001
 30
0.0
 11
63.88682810145261
 21
-132.776
 31
0.0
  0
LINE
  5
6B
330
DC
100
AcDbEntity
  8
1
 62
     7
100
AcDbLine
 10
57.8868281014526
 20
-67.02600000000001
 30
0.0
 11
63.88682810145261
 21
-67.02600000000001
 31
0.0
  0
LINE
  5
6C
330
DC
100
AcDbEntity
  8
1
  6
DASHDOT
 62
     3
100
AcDbLine
 10
66.88682810145259
 20
-145.276
 30
0.0
 11
66.88682810145259
 21
-155.276
 31
0.0
  0
LINE
  5
6D
330
DC
100
AcDbEntity
  8
1
  6
DASHDOT
 62
     3
100
AcDbLine
 10
66.88682810145259
 20
-129.776
 30
0.0
 11
66.88682810145259
 21
-142.9759999999999
 31
0.0
  0
LINE
  5
6E
330
DC
100
AcDbEntity
  8
1
 62
     7
100
AcDbLine
 10
65.48682810145257
 20
-139.976
 30
0.0
 11
65.48682810145257
 21
-132.776
 31
0.0
  0
LINE
  5
6F
330
DC
100
AcDbEntity
  8
1
 62
     7
100
AcDbLine
 10
68.28682810145259
 20
-132.776
 30
0.0
 11
68.28682810145259
 21
-139.976
 31
0.0
  0
LINE
  5
70
330
DC
100
AcDbEntity
  8
1
 62
     3
100
AcDbLine
 10
64.8868281014526
 20
-139.976
 30
0.0
 11
64.8868281014526
 21
-132.776
 31
0.0
  0
LINE
  5
71
330
DC
100
AcDbEntity
  8
1
 62
     3
100
AcDbLine
 10
68.88682810145259
 20
-132.776
 30
0.0
 11
68.88682810145259
 21
-139.976
 31
0.0
  0
LINE
  5
72
330
DC
100
AcDbEntity
  8
1
 62
     7
100
AcDbLine
 10
72.88682810145259
 20
-139.976
 30
0.0
 11
8.886828101452595
 21
-139.976
 31
0.0
  0
LINE
  5
73
330
DC
100
AcDbEntity
  8
1
 62
     7
100
AcDbLine
 10
72.88682810145259
 20
-142.276
 30
0.0
 11
8.886828101452589
 21
-142.276
 31
0.0
  0
LINE
  5
74
330
DC
100
AcDbEntity
  8
1
 62
     7
100
AcDbLine
 10
57.38682810145259
 20
-67.27600000000001
 30
0.0
 11
57.38682810145259
 21
-77.27600000000002
 31
0.0
  0
LINE
  5
75
330
DC
100
AcDbEntity
  8
1
 62
     7
100
AcDbLine
 10
10.88682810145259
 20
-77.27600000000002
 30
0.0
 11
47.98682810145257
 21
-77.27600000000002
 31
0.0
  0
LINE
  5
76
330
DC
100
AcDbEntity
  8
1
 62
     7
100
AcDbLine
 10
43.18682810145261
 20
-78.27600000000002
 30
0.0
 11
39.18682810145261
 21
-78.27600000000002
 31
0.0
  0
LINE
  5
77
330
DC
100
AcDbEntity
  8
1
 62
     7
100
AcDbLine
 10
39.18682810145261
 20
-124.276
 30
0.0
 11
39.18682810145261
 21
-78.27600000000002
 31
0.0
  0
LINE
  5
78
330
DC
100
AcDbEntity
  8
1
 62
     7
100
AcDbLine
 10
44.8868281014526
 20
-124.276
 30
0.0
 11
39.18682810145261
 21
-124.276
 31
0.0
  0
LINE
  5
79
330
DC
100
AcDbEntity
  8
1
 62
     7
100
AcDbLine
 10
29.58682810145261
 20
-78.27600000000002
 30
0.0
 11
29.58682810145258
 21
-124.276
 31
0.0
  0
LINE
  5
7A
330
DC
100
AcDbEntity
  8
1
 62
     7
100
AcDbLine
 10
25.5868281014526
 20
-78.27600000000002
 30
0.0
 11
29.58682810145261
 21
-78.27600000000002
 31
0.0
  0
LINE
  5
7B
330
DC
100
AcDbEntity
  8
1
 62
     7
100
AcDbLine
 10
23.88682810145259
 20
-124.276
 30
0.0
 11
29.58682810145258
 21
-124.276
 31
0.0
  0
LINE
  5
7C
330
DC
100
AcDbEntity
  8
1
 62
     7
100
AcDbLine
 10
7.886828101452595
 20
-119.276
 30
0.0
 11
4.886828101452591
 21
-119.276
 31
0.0
  0
LINE
  5
7D
330
DC
100
AcDbEntity
  8
1
 62
     7
100
AcDbLine
 10
43.18682810145261
 20
-124.276
 30
0.0
 11
43.18682810145261
 21
-77.27600000000002
 31
0.0
  0
LINE
  5
7E
330
DC
100
AcDbEntity
  8
1
 62
     7
100
AcDbLine
 10
60.88682810145261
 20
-117.776
 30
0.0
 11
60.88682810145261
 21
-132.776
 31
0.0
  0
LINE
  5
7F
330
DC
100
AcDbEntity
  8
1
 62
     7
100
AcDbLine
 10
60.88682810145261
 20
-123.276
 30
0.0
 11
58.88682810145261
 21
-123.276
 31
0.0
  0
LINE
  5
80
330
DC
100
AcDbEntity
  8
1
 62
     7
100
AcDbLine
 10
58.88682810145261
 20
-117.776
 30
0.0
 11
60.88682810145261
 21
-117.776
 31
0.0
  0
LINE
  5
81
330
DC
100
AcDbEntity
  8
1
 62
     7
100
AcDbLine
 10
7.886828101452595
 20
-117.776
 30
0.0
 11
7.88682810145259
 21
-150.276
 31
0.0
  0
LINE
  5
82
330
DC
100
AcDbEntity
  8
1
 62
     7
100
AcDbLine
 10
9.886828101452595
 20
-123.276
 30
0.0
 11
7.886828101452595
 21
-123.276
 31
0.0
  0
LINE
  5
83
330
DC
100
AcDbEntity
  8
1
 62
     7
100
AcDbLine
 10
7.886828101452595
 20
-117.776
 30
0.0
 11
9.886828101452595
 21
-117.776
 31
0.0
  0
LINE
  5
84
330
DC
100
AcDbEntity
  8
1
 62
     7
100
AcDbLine
 10
4.886828101452591
 20
-67.27600000000001
 30
0.0
 11
4.886828101452591
 21
-150.276
 31
0.0
  0
LINE
  5
85
330
DC
100
AcDbEntity
  8
1
 62
     7
100
AcDbLine
 10
57.38682810145259
 20
-67.27600000000001
 30
0.0
 11
4.886828101452591
 21
-67.27600000000001
 31
0.0
  0
LINE
  5
86
330
DC
100
AcDbEntity
  8
1
 62
     7
100
AcDbLine
 10
10.88682810145259
 20
-77.27600000000002
 30
0.0
 11
10.88682810145259
 21
-67.27600000000001
 31
0.0
  0
LINE
  5
87
330
DC
100
AcDbEntity
  8
1
 62
     7
100
AcDbLine
 10
25.58682810145259
 20
-124.276
 30
0.0
 11
25.5868281014526
 21
-77.27600000000002
 31
0.0
  0
LINE
  5
88
330
DC
100
AcDbEntity
  8
1
 62
     7
100
AcDbLine
 10
58.88682810145261
 20
-117.776
 30
0.0
 11
58.88682810145261
 21
-132.776
 31
0.0
  0
LINE
  5
89
330
DC
100
AcDbEntity
  8
1
 62
     7
100
AcDbLine
 10
58.88682810145261
 20
-119.276
 30
0.0
 11
44.8868281014526
 21
-119.276
 31
0.0
  0
LINE
  5
8A
330
DC
100
AcDbEntity
  8
1
 62
     7
100
AcDbLine
 10
54.0202979864053
 20
-122.5835
 30
0.0
 11
58.88682810145262
 21
-122.5835
 31
0.0
  0
LINE
  5
8B
330
DC
100
AcDbEntity
  8
1
 62
     7
100
AcDbLine
 10
57.41182810145261
 20
-121.7566249999999
 30
0.0
 11
57.41182810145261
 21
-130.295375
 31
0.0
  0
LINE
  5
8C
330
DC
100
AcDbEntity
  8
1
 62
     7
100
AcDbLine
 10
54.0202979864053
 20
-129.4685
 30
0.0
 11
58.88682810145261
 21
-129.4685
 31
0.0
  0
LINE
  5
8D
330
DC
100
AcDbEntity
  8
1
 62
     7
100
AcDbLine
 10
46.3618281014526
 20
-121.7566249999999
 30
0.0
 11
46.3618281014526
 21
-130.295375
 31
0.0
  0
LINE
  5
8E
330
DC
100
AcDbEntity
  8
1
 62
     7
100
AcDbLine
 10
49.75335821649991
 20
-122.5835
 30
0.0
 11
44.8868281014526
 21
-122.5835
 31
0.0
  0
LINE
  5
8F
330
DC
100
AcDbEntity
  8
1
 62
     7
100
AcDbLine
 10
49.75335821649991
 20
-129.4685
 30
0.0
 11
44.8868281014526
 21
-129.4685
 31
0.0
  0
LINE
  5
90
330
DC
100
AcDbEntity
  8
1
 62
     7
100
AcDbLine
 10
22.4118281014526
 20
-121.7566249999999
 30
0.0
 11
22.4118281014526
 21
-130.295375
 31
0.0
  0
LINE
  5
91
330
DC
100
AcDbEntity
  8
1
 62
     7
100
AcDbLine
 10
11.36182810145259
 20
-121.7566249999999
 30
0.0
 11
11.36182810145259
 21
-130.295375
 31
0.0
  0
LINE
  5
92
330
DC
100
AcDbEntity
  8
1
 62
     7
100
AcDbLine
 10
14.75335821649992
 20
-122.5835
 30
0.0
 11
9.8868281014526
 21
-122.5835
 31
0.0
  0
LINE
  5
93
330
DC
100
AcDbEntity
  8
1
 62
     7
100
AcDbLine
 10
19.02029798640528
 20
-122.5835
 30
0.0
 11
23.8868281014526
 21
-122.5835
 31
0.0
  0
LINE
  5
94
330
DC
100
AcDbEntity
  8
1
 62
     7
100
AcDbLine
 10
14.75335821649992
 20
-129.4685
 30
0.0
 11
9.886828101452595
 21
-129.4685
 31
0.0
  0
LINE
  5
95
330
DC
100
AcDbEntity
  8
1
 62
     7
100
AcDbLine
 10
19.02029798640528
 20
-129.4685
 30
0.0
 11
23.8868281014526
 21
-129.4685
 31
0.0
  0
LINE
  5
96
330
DC
100
AcDbEntity
  8
1
 62
     7
100
AcDbLine
 10
9.886828101452595
 20
-117.776
 30
0.0
 11
9.886828101452591
 21
-132.776
 31
0.0
  0
LINE
  5
97
330
DC
100
AcDbEntity
  8
1
 62
     7
100
AcDbLine
 10
23.8868281014526
 20
-119.276
 30
0.0
 11
9.8868281014526
 21
-119.276
 31
0.0
  0
LINE
  5
98
330
DC
100
AcDbEntity
  8
1
 62
     7
100
AcDbLine
 10
38.38682810145261
 20
-78.27600000000002
 30
0.0
 11
38.38682810145261
 21
-132.776
 31
0.0
  0
LINE
  5
99
330
DC
100
AcDbEntity
  8
1
 62
     7
100
AcDbLine
 10
30.38682810145261
 20
-78.27600000000002
 30
0.0
 11
38.38682810145261
 21
-78.27600000000002
 31
0.0
  0
LINE
  5
9A
330
DC
100
AcDbEntity
  8
1
 62
     7
100
AcDbLine
 10
30.38682810145261
 20
-132.776
 30
0.0
 11
30.38682810145261
 21
-78.27600000000002
 31
0.0
  0
LINE
  5
9B
330
DC
100
AcDbEntity
  8
1
 62
     7
100
AcDbLine
 10
44.8868281014526
 20
-119.276
 30
0.0
 11
44.8868281014526
 21
-132.776
 31
0.0
  0
LINE
  5
9C
330
DC
100
AcDbEntity
  8
1
 62
     7
100
AcDbLine
 10
23.8868281014526
 20
-119.276
 30
0.0
 11
23.8868281014526
 21
-132.776
 31
0.0
  0
LINE
  5
9D
330
DC
100
AcDbEntity
  8
1
 62
     7
100
AcDbLine
 10
38.38682810145261
 20
-125.276
 30
0.0
 11
44.8868281014526
 21
-125.276
 31
0.0
  0
LINE
  5
9E
330
DC
100
AcDbEntity
  8
1
 62
     7
100
AcDbLine
 10
23.8868281014526
 20
-125.276
 30
0.0
 11
30.38682810145261
 21
-125.276
 31
0.0
  0
LINE
  5
9F
330
DC
100
AcDbEntity
  8
1
  6
DASHDOT
 62
     3
100
AcDbLine
 10
77.88682810145259
 20
-150.276
 30
0.0
 11
-0.1131718985474031
 21
-150.276
 31
0.0
  0
LINE
  5
A0
330
DC
100
AcDbEntity
  8
1
 62
     7
100
AcDbLine
 10
8.886828101452595
 20
-132.776
 30
0.0
 11
8.886828101452595
 21
-150.276
 31
0.0
  0
LINE
  5
A1
330
DC
100
AcDbEntity
  8
1
 62
     7
100
AcDbLine
 10
72.88682810145259
 20
-132.776
 30
0.0
 11
8.886828101452595
 21
-132.776
 31
0.0
  0
LINE
  5
A2
330
DC
100
AcDbEntity
  8
1
 62
     7
100
AcDbLine
 10
72.88682810145259
 20
-150.276
 30
0.0
 11
72.88682810145259
 21
-132.776
 31
0.0
  0
ARC
  5
A3
330
DC
100
AcDbEntity
  8
1
  6
DASHDOT
 62
     3
100
AcDbCircle
 10
189.175
 20
-150.276
 30
0.0
 40
52.50000000000002
100
AcDbArc
 50
293.9865509471819
 51
306.0134490528182
  0
ARC
  5
A4
330
DC
100
AcDbEntity
  8
1
  6
DASHDOT
 62
     3
100
AcDbCircle
 10
189.175
 20
-150.276
 30
0.0
 40
52.49999999999993
100
AcDbArc
 50
173.9865509471818
 51
186.0134490528181
  0
ARC
  5
A5
330
DC
100
AcDbEntity
  8
1
  6
DASHDOT
 62
     3
100
AcDbCircle
 10
189.175
 20
-150.276
 30
0.0
 40
52.5
100
AcDbArc
 50
53.98655094718179
 51
66.01344905281812
  0
ARC
  5
A6
330
DC
100
AcDbEntity
  8
1
 62
     7
100
AcDbCircle
 10
189.175
 20
-150.276
 30
0.0
 40
7.999999999999987
100
AcDbArc
 50
108.209956864283
 51
71.79004313571695
  0
ARC
  5
A7
330
DC
100
AcDbEntity
  8
1
 62
     7
100
AcDbCircle
 10
66.88682810145259
 20
-150.276
 30
0.0
 40
1.400000000000004
100
AcDbArc
 50
180.0
 51
0.0
  0
ARC
  5
A8
330
DC
100
AcDbEntity
  8
1
 62
     3
100
AcDbCircle
 10
66.88682810145259
 20
-150.276
 30
0.0
 40
2.0
100
AcDbArc
 50
180.0
 51
0.0
  0
CIRCLE
  5
A9
330
DC
100
AcDbEntity
  8
1
 62
     3
100
AcDbCircle
 10
215.425
 20
-195.742333698683
 30
0.0
 40
2.499999999999984
  0
CIRCLE
  5
AA
330
DC
100
AcDbEntity
  8
1
 62
     7
100
AcDbCircle
 10
215.425
 20
-195.742333698683
 30
0.0
 40
1.900000000000056
  0
CIRCLE
  5
AB
330
DC
100
AcDbEntity
  8
1
 62
     3
100
AcDbCircle
 10
136.675
 20
-150.276
 30
0.0
 40
2.500000000000008
  0
CIRCLE
  5
AC
330
DC
100
AcDbEntity
  8
1
 62
     7
100
AcDbCircle
 10
136.675
 20
-150.276
 30
0.0
 40
1.900000000000081
  0
CIRCLE
  5
AD
330
DC
100
AcDbEntity
  8
1
 62
     3
100
AcDbCircle
 10
215.425
 20
-104.809666301317
 30
0.0
 40
2.5
  0
CIRCLE
  5
AE
330
DC
100
AcDbEntity
  8
1
 62
     7
100
AcDbCircle
 10
215.425
 20
-104.809666301317
 30
0.0
 40
1.899999999999975
  0
CIRCLE
  5
AF
330
DC
100
AcDbEntity
  8
1
 62
     7
100
AcDbCircle
 10
189.175
 20
-150.276
 30
0.0
 40
83.25000000000001
  0
CIRCLE
  5
B0
330
DC
100
AcDbEntity
  8
1
 62
     7
100
AcDbCircle
 10
189.175
 20
-150.276
 30
0.0
 40
31.0
  0
CIRCLE
  5
B1
330
DC
100
AcDbEntity
  8
1
 62
     7
100
AcDbCircle
 10
189.175
 20
-150.276
 30
0.0
 40
17.5
  0
CIRCLE
  5
B2
330
DC
100
AcDbEntity
  8
1
 62
     7
100
AcDbCircle
 10
51.88682810145261
 20
-126.026
 30
0.0
 40
4.050000000000004
  0
CIRCLE
  5
B3
330
DC
100
AcDbEntity
  8
1
 62
     7
100
AcDbCircle
 10
16.88682810145259
 20
-126.026
 30
0.0
 40
4.05
  0
TEXT
  5
B5
330
DC
100
AcDbEntity
  8
1
 62
     7
100
AcDbText
 10
-20.43175039449765
 20
-49.49401878862159
 30
0.0
 40
5.0
  1
PHT 70D
 41
0.9
  7
SIMPLEX
100
AcDbText
  0
ENDSEC
  0
SECTION
  2
OBJECTS
  0
DICTIONARY
  5
C8
330
0
100
AcDbDictionary
281
     1
  3
ACAD_COLOR
350
D7
  3
ACAD_GROUP
350
C9
  3
ACAD_LAYOUT
350
D5
  3
ACAD_MATERIAL
350
D6
  3
ACAD_MLINESTYLE
350
D2
  3
ACAD_PLOTSETTINGS
350
D4
  3
ACAD_PLOTSTYLENAME
350
CA
  0
DICTIONARY
  5
D7
102
{ACAD_REACTORS
330
C8
102
}
330
C8
100
AcDbDictionary
281
     1
  0
DICTIONARY
  5
C9
102
{ACAD_REACTORS
330
C8
102
}
330
C8
100
AcDbDictionary
281
     1
  0
DICTIONARY
  5
D5
102
{ACAD_REACTORS
330
C8
102
}
330
C8
100
AcDbDictionary
281
     1
  3
Layout1
350
DB
  3
Model
350
DF
  0
DICTIONARY
  5
D6
102
{ACAD_REACTORS
330
C8
102
}
330
C8
100
AcDbDictionary
281
     1
  0
DICTIONARY
  5
D2
102
{ACAD_REACTORS
330
C8
102
}
330
C8
100
AcDbDictionary
281
     1
  3
Standard
350
D3
  0
DICTIONARY
  5
D4
102
{ACAD_REACTORS
330
C8
102
}
330
C8
100
AcDbDictionary
281
     1
  0
ACDBDICTIONARYWDFLT
  5
CA
102
{ACAD_REACTORS
330
C8
102
}
330
C8
100
AcDbDictionary
281
     1
  3
Normal
350
CB
100
AcDbDictionaryWithDefault
340
CB
  0
LAYOUT
  5
DB
102
{ACAD_REACTORS
330
D5
102
}
330
D5
100
AcDbPlotSettings
  1

  2
\\Ogura1\HP Color LaserJet 4600 PCL 5c
  4

  6

 40
0.0
 41
0.0
 42
0.0
 43
0.0
 44
0.0
 45
0.0
 46
0.0
 47
0.0
 48
0.0
 49
0.0
140
0.0
141
0.0
142
1.0
143
1.0
 70
   688
 72
     0
 73
     0
 74
     5
  7

 75
    16
147
1.0
 76
     0
 77
     2
 78
   300
148
0.0
149
0.0
100
AcDbLayout
  1
Layout1
 70
     1
 71
     1
 10
0.0
 20
0.0
 11
12.0
 21
9.0
 12
0.0
 22
0.0
 32
0.0
 14
1.000000000000000E+20
 24
1.000000000000000E+20
 34
1.000000000000000E+20
 15
-1.000000000000000E+20
 25
-1.000000000000000E+20
 35
-1.000000000000000E+20
146
0.0
 13
0.0
 23
0.0
 33
0.0
 16
1.0
 26
0.0
 36
0.0
 17
0.0
 27
1.0
 37
0.0
 76
     0
330
D8
  0
LAYOUT
  5
DF
102
{ACAD_REACTORS
330
D5
102
}
330
D5
100
AcDbPlotSettings
  1

  2
\\Ogura1\HP Color LaserJet 4600 PCL 5c
  4

  6

 40
0.0
 41
0.0
 42
0.0
 43
0.0
 44
0.0
 45
0.0
 46
0.0
 47
0.0
 48
0.0
 49
0.0
140
0.0
141
0.0
142
1.0
143
1.0
 70
  1712
 72
     0
 73
     0
 74
     0
  7

 75
     0
147
1.0
 76
     0
 77
     2
 78
   300
148
0.0
149
0.0
100
AcDbLayout
  1
Model
 70
     1
 71
     0
 10
0.0
 20
0.0
 11
12.0
 21
9.0
 12
0.0
 22
0.0
 32
0.0
 14
0.0
 24
0.0
 34
0.0
 15
0.0
 25
0.0
 35
0.0
146
0.0
 13
0.0
 23
0.0
 33
0.0
 16
1.0
 26
0.0
 36
0.0
 17
0.0
 27
1.0
 37
0.0
 76
     0
330
DC
  0
MLINESTYLE
  5
D3
102
{ACAD_REACTORS
330
D2
102
}
330
D2
100
AcDbMlineStyle
  2
STANDARD
 70
     0
  3

 62
   256
 51
90.0
 52
90.0
 71
     2
 49
0.5
 62
   256
  6
BYLAYER
 49
-0.5
 62
   256
  6
BYLAYER
  0
ACDBPLACEHOLDER
  5
CB
102
{ACAD_REACTORS
330
CA
102
}
330
CA
  0
ENDSEC
  0
EOF
