  0
SECTION
  2
HEADER
  9
$ACADVER
  1
AC1018
  9
$ACADMAINTVER
 70
     0
  9
$DWGCODEPAGE
  3
ANSI_932
  9
$INSBASE
 10
0.0
 20
0.0
 30
0.0
  9
$EXTMIN
 10
-97.46160922058948
 20
-31.85399334985084
 30
-0.0015258207003583
  9
$EXTMAX
 10
135.3136853048919
 20
61.26078940996669
 30
0.0000000349246037
  9
$LIMMIN
 10
-97.7033803457593
 20
-31.85115210240581
  9
$LIMMAX
 10
135.3065738628836
 20
61.2579477289486
  9
$ORTHOMODE
 70
     0
  9
$REGENMODE
 70
     1
  9
$FILLMODE
 70
     1
  9
$QTEXTMODE
 70
     0
  9
$MIRRTEXT
 70
     1
  9
$LTSCALE
 40
1.0
  9
$ATTMODE
 70
     1
  9
$TEXTSIZE
 40
3.5
  9
$TRACEWID
 40
0.5
  9
$TEXTSTYLE
  7
STANDARD
  9
$CLAYER
  8
0
  9
$CELTYPE
  6
ByLayer
  9
$CECOLOR
 62
   256
  9
$CELTSCALE
 40
1.0
  9
$DISPSILH
 70
     0
  9
$DIMSCALE
 40
1.0
  9
$DIMASZ
 40
0.18
  9
$DIMEXO
 40
0.0625
  9
$DIMDLI
 40
0.38
  9
$DIMRND
 40
0.0
  9
$DIMDLE
 40
0.0
  9
$DIMEXE
 40
0.18
  9
$DIMTP
 40
0.0
  9
$DIMTM
 40
0.0
  9
$DIMTXT
 40
0.18
  9
$DIMCEN
 40
0.09
  9
$DIMTSZ
 40
0.0
  9
$DIMTOL
 70
     0
  9
$DIMLIM
 70
     0
  9
$DIMTIH
 70
     1
  9
$DIMTOH
 70
     1
  9
$DIMSE1
 70
     0
  9
$DIMSE2
 70
     0
  9
$DIMTAD
 70
     0
  9
$DIMZIN
 70
     0
  9
$DIMBLK
  1

  9
$DIMASO
 70
     1
  9
$DIMSHO
 70
     1
  9
$DIMPOST
  1

  9
$DIMAPOST
  1

  9
$DIMALT
 70
     0
  9
$DIMALTD
 70
     2
  9
$DIMALTF
 40
25.4
  9
$DIMLFAC
 40
1.0
  9
$DIMTOFL
 70
     0
  9
$DIMTVP
 40
0.0
  9
$DIMTIX
 70
     0
  9
$DIMSOXD
 70
     0
  9
$DIMSAH
 70
     0
  9
$DIMBLK1
  1

  9
$DIMBLK2
  1

  9
$DIMSTYLE
  2
STANDARD
  9
$DIMCLRD
 70
     0
  9
$DIMCLRE
 70
     0
  9
$DIMCLRT
 70
     0
  9
$DIMTFAC
 40
1.0
  9
$DIMGAP
 40
0.09
  9
$DIMJUST
 70
     0
  9
$DIMSD1
 70
     0
  9
$DIMSD2
 70
     0
  9
$DIMTOLJ
 70
     1
  9
$DIMTZIN
 70
     0
  9
$DIMALTZ
 70
     0
  9
$DIMALTTZ
 70
     0
  9
$DIMUPT
 70
     0
  9
$DIMDEC
 70
     4
  9
$DIMTDEC
 70
     4
  9
$DIMALTU
 70
     2
  9
$DIMALTTD
 70
     2
  9
$DIMTXSTY
  7
STANDARD
  9
$DIMAUNIT
 70
     0
  9
$DIMADEC
 70
     0
  9
$DIMALTRND
 40
0.0
  9
$DIMAZIN
 70
     0
  9
$DIMDSEP
 70
    46
  9
$DIMATFIT
 70
     3
  9
$DIMFRAC
 70
     0
  9
$DIMLDRBLK
  1

  9
$DIMLUNIT
 70
     2
  9
$DIMLWD
 70
    -2
  9
$DIMLWE
 70
    -2
  9
$DIMTMOVE
 70
     0
  9
$LUNITS
 70
     2
  9
$LUPREC
 70
     4
  9
$SKETCHINC
 40
0.1
  9
$FILLETRAD
 40
2.0
  9
$AUNITS
 70
     0
  9
$AUPREC
 70
     0
  9
$MENU
  1
ACAD
  9
$ELEVATION
 40
0.0
  9
$PELEVATION
 40
0.0
  9
$THICKNESS
 40
0.0
  9
$LIMCHECK
 70
     0
  9
$CHAMFERA
 40
0.0
  9
$CHAMFERB
 40
0.0
  9
$CHAMFERC
 40
0.0
  9
$CHAMFERD
 40
0.0
  9
$SKPOLY
 70
     0
  9
$TDCREATE
 40
2452095.338548264
  9
$TDUCREATE
 40
2452095.505214931
  9
$TDUPDATE
 40
2453209.448481320
  9
$TDUUPDATE
 40
2453209.615147986
  9
$TDINDWG
 40
0.0005786806
  9
$TDUSRTIMER
 40
0.0005786806
  9
$USRTIMER
 70
     1
  9
$ANGBASE
 50
0.0
  9
$ANGDIR
 70
     0
  9
$PDMODE
 70
     0
  9
$PDSIZE
 40
0.0
  9
$PLINEWID
 40
0.0
  9
$SPLFRAME
 70
     0
  9
$SPLINETYPE
 70
     6
  9
$SPLINESEGS
 70
     8
  9
$HANDSEED
  5
26D
  9
$SURFTAB1
 70
     6
  9
$SURFTAB2
 70
     6
  9
$SURFTYPE
 70
     6
  9
$SURFU
 70
     6
  9
$SURFV
 70
     6
  9
$UCSBASE
  2

  9
$UCSNAME
  2

  9
$UCSORG
 10
0.0
 20
0.0
 30
0.0
  9
$UCSXDIR
 10
1.0
 20
0.0
 30
0.0
  9
$UCSYDIR
 10
0.0
 20
1.0
 30
0.0
  9
$UCSORTHOREF
  2

  9
$UCSORTHOVIEW
 70
     0
  9
$UCSORGTOP
 10
0.0
 20
0.0
 30
0.0
  9
$UCSORGBOTTOM
 10
0.0
 20
0.0
 30
0.0
  9
$UCSORGLEFT
 10
0.0
 20
0.0
 30
0.0
  9
$UCSORGRIGHT
 10
0.0
 20
0.0
 30
0.0
  9
$UCSORGFRONT
 10
0.0
 20
0.0
 30
0.0
  9
$UCSORGBACK
 10
0.0
 20
0.0
 30
0.0
  9
$PUCSBASE
  2

  9
$PUCSNAME
  2

  9
$PUCSORG
 10
0.0
 20
0.0
 30
0.0
  9
$PUCSXDIR
 10
1.0
 20
0.0
 30
0.0
  9
$PUCSYDIR
 10
0.0
 20
1.0
 30
0.0
  9
$PUCSORTHOREF
  2

  9
$PUCSORTHOVIEW
 70
     0
  9
$PUCSORGTOP
 10
0.0
 20
0.0
 30
0.0
  9
$PUCSORGBOTTOM
 10
0.0
 20
0.0
 30
0.0
  9
$PUCSORGLEFT
 10
0.0
 20
0.0
 30
0.0
  9
$PUCSORGRIGHT
 10
0.0
 20
0.0
 30
0.0
  9
$PUCSORGFRONT
 10
0.0
 20
0.0
 30
0.0
  9
$PUCSORGBACK
 10
0.0
 20
0.0
 30
0.0
  9
$USERI1
 70
     0
  9
$USERI2
 70
     0
  9
$USERI3
 70
     0
  9
$USERI4
 70
     0
  9
$USERI5
 70
     0
  9
$USERR1
 40
0.0
  9
$USERR2
 40
0.0
  9
$USERR3
 40
0.0
  9
$USERR4
 40
0.0
  9
$USERR5
 40
0.0
  9
$WORLDVIEW
 70
     1
  9
$SHADEDGE
 70
     3
  9
$SHADEDIF
 70
    70
  9
$TILEMODE
 70
     1
  9
$MAXACTVP
 70
    64
  9
$PINSBASE
 10
0.0
 20
0.0
 30
0.0
  9
$PLIMCHECK
 70
     0
  9
$PEXTMIN
 10
1.000000000000000E+20
 20
1.000000000000000E+20
 30
1.000000000000000E+20
  9
$PEXTMAX
 10
-1.000000000000000E+20
 20
-1.000000000000000E+20
 30
-1.000000000000000E+20
  9
$PLIMMIN
 10
0.0
 20
0.0
  9
$PLIMMAX
 10
12.0
 20
9.0
  9
$UNITMODE
 70
     0
  9
$VISRETAIN
 70
     1
  9
$PLINEGEN
 70
     0
  9
$PSLTSCALE
 70
     1
  9
$TREEDEPTH
 70
  3020
  9
$CMLSTYLE
  2
Standard
  9
$CMLJUST
 70
     0
  9
$CMLSCALE
 40
1.0
  9
$PROXYGRAPHICS
 70
     1
  9
$MEASUREMENT
 70
     0
  9
$CELWEIGHT
370
    -1
  9
$ENDCAPS
280
     0
  9
$JOINSTYLE
280
     0
  9
$LWDISPLAY
290
     0
  9
$INSUNITS
 70
     0
  9
$HYPERLINKBASE
  1

  9
$STYLESHEET
  1

  9
$XEDIT
290
     1
  9
$CEPSNTYPE
380
     0
  9
$PSTYLEMODE
290
     1
  9
$FINGERPRINTGUID
  2
{0A76929A-35A5-44FD-98EA-EF5688923AD4}
  9
$VERSIONGUID
  2
{D9CCB139-8290-4A73-A496-65EFF5B52657}
  9
$EXTNAMES
290
     1
  9
$PSVPSCALE
 40
0.0
  9
$OLESTARTUP
290
     0
  9
$SORTENTS
280
   127
  9
$INDEXCTL
280
     0
  9
$HIDETEXT
280
     0
  9
$XCLIPFRAME
290
     0
  9
$HALOGAP
280
     0
  9
$OBSCOLOR
 70
   257
  9
$OBSLTYPE
280
     0
  9
$INTERSECTIONDISPLAY
280
     0
  9
$INTERSECTIONCOLOR
 70
   257
  9
$DIMASSOC
280
     1
  9
$PROJECTNAME
  1

  0
ENDSEC
  0
SECTION
  2
CLASSES
  0
CLASS
  1
ACDBDICTIONARYWDFLT
  2
AcDbDictionaryWithDefault
  3
ObjectDBX Classes
 90
        0
 91
        1
280
     0
281
     0
  0
ENDSEC
  0
SECTION
  2
TABLES
  0
TABLE
  2
VPORT
  5
23A
330
0
100
AcDbSymbolTable
 70
     2
  0
VPORT
  5
26C
330
23A
100
AcDbSymbolTableRecord
100
AcDbViewportTableRecord
  2
*Active
 70
     0
 10
0.0
 20
0.0
 11
1.0
 21
1.0
 12
18.9260380421512
 22
14.70339803005792
 13
0.0
 23
0.0
 14
1.0
 24
1.0
 15
0.0
 25
0.0
 16
0.0
 26
0.0
 36
1.0
 17
0.0
 27
0.0
 37
0.0
 40
144.0416877917878
 41
1.625
 42
50.0
 43
0.0
 44
0.0
 50
0.0
 51
0.0
 71
     0
 72
   100
 73
     1
 74
     1
 75
     0
 76
     0
 77
     0
 78
     0
281
     0
 65
     1
110
0.0
120
0.0
130
0.0
111
1.0
121
0.0
131
0.0
112
0.0
122
1.0
132
0.0
 79
     0
146
0.0
  0
ENDTAB
  0
TABLE
  2
LTYPE
  5
237
330
0
100
AcDbSymbolTable
 70
     9
  0
LTYPE
  5
245
330
237
100
AcDbSymbolTableRecord
100
AcDbLinetypeTableRecord
  2
ByBlock
 70
     0
  3

 72
    65
 73
     0
 40
0.0
  0
LTYPE
  5
246
330
237
100
AcDbSymbolTableRecord
100
AcDbLinetypeTableRecord
  2
ByLayer
 70
     0
  3

 72
    65
 73
     0
 40
0.0
  0
LTYPE
  5
247
330
237
100
AcDbSymbolTableRecord
100
AcDbLinetypeTableRecord
  2
CONTINUOUS
 70
     0
  3
Solid line
 72
    65
 73
     0
 40
0.0
  0
LTYPE
  5
257
330
237
100
AcDbSymbolTableRecord
100
AcDbLinetypeTableRecord
  2
BORDER
 70
     0
  3
__ __ . __ __ .
 72
    65
 73
     6
 40
10.73072157539803
 49
3.065920450113722
 74
     0
 49
-1.532960225056859
 74
     0
 49
3.065920450113722
 74
     0
 49
-1.532960225056859
 74
     0
 49
0.0
 74
     0
 49
-1.532960225056859
 74
     0
  0
LTYPE
  5
258
330
237
100
AcDbSymbolTableRecord
100
AcDbLinetypeTableRecord
  2
CENTER
 70
     0
  3
____ _ ____ _
 72
    65
 73
     4
 40
12.26368180045489
 49
7.664801125284307
 74
     0
 49
-1.532960225056859
 74
     0
 49
1.532960225056859
 74
     0
 49
-1.532960225056859
 74
     0
  0
LTYPE
  5
259
330
237
100
AcDbSymbolTableRecord
100
AcDbLinetypeTableRecord
  2
DASHDOT
 70
     0
  3
__ . __ . __ .
 72
    65
 73
     4
 40
6.131840900227444
 49
3.065920450113722
 74
     0
 49
-1.532960225056859
 74
     0
 49
0.0
 74
     0
 49
-1.532960225056859
 74
     0
  0
LTYPE
  5
25A
330
237
100
AcDbSymbolTableRecord
100
AcDbLinetypeTableRecord
  2
DASHED
 70
     0
  3
__ __ __ __ __
 72
    65
 73
     2
 40
4.598880675170582
 49
3.065920450113722
 74
     0
 49
-1.532960225056859
 74
     0
  0
LTYPE
  5
25B
330
237
100
AcDbSymbolTableRecord
100
AcDbLinetypeTableRecord
  2
DIVIDE
 70
     0
  3
__ . . __ . . 
 72
    65
 73
     6
 40
7.664801125284307
 49
3.065920450113722
 74
     0
 49
-1.532960225056859
 74
     0
 49
0.0
 74
     0
 49
-1.532960225056859
 74
     0
 49
0.0
 74
     0
 49
-1.532960225056859
 74
     0
  0
LTYPE
  5
25C
330
237
100
AcDbSymbolTableRecord
100
AcDbLinetypeTableRecord
  2
DOT
 70
     0
  3
..............
 72
    65
 73
     4
 40
3.065920450113722
 49
0.0
 74
     0
 49
-1.532960225056859
 74
     0
 49
0.0
 74
     0
 49
-1.532960225056859
 74
     0
  0
LTYPE
  5
25D
330
237
100
AcDbSymbolTableRecord
100
AcDbLinetypeTableRecord
  2
HIDDEN
 70
     0
  3
_ _ _ _ _ _ _
 72
    65
 73
     2
 40
2.29944033758529
 49
1.532960225056859
 74
     0
 49
-0.7664801125284308
 74
     0
  0
LTYPE
  5
25E
330
237
100
AcDbSymbolTableRecord
100
AcDbLinetypeTableRecord
  2
PHANTOM
 70
     0
  3
_____ _ _ _____ _ _ 
 72
    65
 73
     6
 40
15.32960225056861
 49
7.664801125284307
 74
     0
 49
-1.532960225056859
 74
     0
 49
1.532960225056859
 74
     0
 49
-1.532960225056859
 74
     0
 49
1.532960225056859
 74
     0
 49
-1.532960225056859
 74
     0
  0
ENDTAB
  0
TABLE
  2
LAYER
  5
234
330
0
100
AcDbSymbolTable
 70
     2
  0
LAYER
  5
242
330
234
100
AcDbSymbolTableRecord
100
AcDbLayerTableRecord
  2
0
 70
     0
 62
     7
  6
CONTINUOUS
370
    -3
390
241
  0
LAYER
  5
25F
330
234
100
AcDbSymbolTableRecord
100
AcDbLayerTableRecord
  2
1
 70
     0
 62
     7
  6
CONTINUOUS
370
    -3
390
241
  0
ENDTAB
  0
TABLE
  2
STYLE
  5
235
330
0
100
AcDbSymbolTable
 70
     4
  0
STYLE
  5
243
330
235
100
AcDbSymbolTableRecord
100
AcDbTextStyleTableRecord
  2
STANDARD
 70
     0
 40
0.0
 41
1.0
 50
0.0
 71
     0
 42
3.5
  3
txt
  4

  0
STYLE
  5
260
330
235
100
AcDbSymbolTableRecord
100
AcDbTextStyleTableRecord
  2
SIMPLEX
 70
     0
 40
0.0
 41
1.0
 50
0.0
 71
     0
 42
3.5
  3
simplex
  4

  0
STYLE
  5
261
330
235
100
AcDbSymbolTableRecord
100
AcDbTextStyleTableRecord
  2
COMPLEX
 70
     0
 40
0.0
 41
1.0
 50
0.0
 71
     0
 42
3.5
  3
complex
  4

  0
STYLE
  5
262
330
235
100
AcDbSymbolTableRecord
100
AcDbTextStyleTableRecord
  2
ITALIC
 70
     0
 40
0.0
 41
1.0
 50
0.0
 71
     0
 42
3.5
  3
italic
  4

  0
ENDTAB
  0
TABLE
  2
VIEW
  5
238
330
0
100
AcDbSymbolTable
 70
     0
  0
ENDTAB
  0
TABLE
  2
UCS
  5
239
330
0
100
AcDbSymbolTable
 70
     0
  0
ENDTAB
  0
TABLE
  2
APPID
  5
23B
330
0
100
AcDbSymbolTable
 70
     1
  0
APPID
  5
244
330
23B
100
AcDbSymbolTableRecord
100
AcDbRegAppTableRecord
  2
ACAD
 70
     0
  0
ENDTAB
  0
TABLE
  2
DIMSTYLE
  5
23C
330
0
100
AcDbSymbolTable
 70
     1
100
AcDbDimStyleTable
 71
     0
  0
DIMSTYLE
105
263
330
23C
100
AcDbSymbolTableRecord
100
AcDbDimStyleTableRecord
  2
STANDARD
 70
     0
279
     2
340
243
  0
ENDTAB
  0
TABLE
  2
BLOCK_RECORD
  5
233
330
0
100
AcDbSymbolTable
 70
     2
  0
BLOCK_RECORD
  5
252
330
233
100
AcDbSymbolTableRecord
100
AcDbBlockTableRecord
  2
*Model_Space
340
255
  0
BLOCK_RECORD
  5
24E
330
233
100
AcDbSymbolTableRecord
100
AcDbBlockTableRecord
  2
*Paper_Space
340
251
  0
BLOCK_RECORD
  5
268
330
233
100
AcDbSymbolTableRecord
100
AcDbBlockTableRecord
  2
$MODEL_SPACE
340
0
  0
BLOCK_RECORD
  5
26A
330
233
100
AcDbSymbolTableRecord
100
AcDbBlockTableRecord
  2
$PAPER_SPACE
340
0
  0
ENDTAB
  0
ENDSEC
  0
SECTION
  2
BLOCKS
  0
BLOCK
  5
253
330
252
100
AcDbEntity
  8
0
100
AcDbBlockBegin
  2
*Model_Space
 70
     0
 10
0.0
 20
0.0
 30
0.0
  3
*Model_Space
  1

  0
ENDBLK
  5
254
330
252
100
AcDbEntity
  8
0
100
AcDbBlockEnd
  0
BLOCK
  5
24F
330
24E
100
AcDbEntity
 67
     1
  8
0
100
AcDbBlockBegin
  2
*Paper_Space
 70
     0
 10
0.0
 20
0.0
 30
0.0
  3
*Paper_Space
  1

  0
ENDBLK
  5
250
330
24E
100
AcDbEntity
 67
     1
  8
0
100
AcDbBlockEnd
  0
BLOCK
  5
269
330
268
100
AcDbEntity
  8
0
100
AcDbBlockBegin
  2
$MODEL_SPACE
 70
     0
 10
0.0
 20
0.0
 30
0.0
  3
$MODEL_SPACE
  1

  0
ENDBLK
  5
20
330
268
100
AcDbEntity
  8
0
100
AcDbBlockEnd
  0
BLOCK
  5
26B
330
26A
100
AcDbEntity
  8
0
100
AcDbBlockBegin
  2
$PAPER_SPACE
 70
     0
 10
0.0
 20
0.0
 30
0.0
  3
$PAPER_SPACE
  1

  0
ENDBLK
  5
1C
330
26A
100
AcDbEntity
  8
0
100
AcDbBlockEnd
  0
ENDSEC
  0
SECTION
  2
ENTITIES
  0
LINE
  5
33
330
252
100
AcDbEntity
  8
1
 62
     7
100
AcDbLine
 10
-68.70951675783442
 20
5.809475019311076
 30
0.0
 11
-68.70951675783453
 21
6.699999999999969
 31
0.0
  0
LINE
  5
34
330
252
100
AcDbEntity
  8
1
 62
     3
100
AcDbLine
 10
-68.10951675783428
 20
6.999999999999968
 30
0.0
 11
-68.10951675783428
 21
5.932115979985507
 31
0.0
  0
LINE
  5
35
330
252
100
AcDbEntity
  8
1
 62
     3
100
AcDbLine
 10
-66.30951675783439
 20
6.999999999999968
 30
0.0
 11
-66.30951675783439
 21
5.932115979985507
 31
0.0
  0
LINE
  5
36
330
252
100
AcDbEntity
  8
1
  6
DASHED
 62
     3
100
AcDbLine
 10
-65.70951675783454
 20
3.599999999999969
 30
0.0
 11
-68.70951675783453
 21
3.599999999999969
 31
0.0
  0
LINE
  5
37
330
252
100
AcDbEntity
  8
1
  6
DASHED
 62
     3
100
AcDbLine
 10
-68.10951675783428
 20
2.999999999999968
 30
0.0
 11
-68.70951675783453
 21
3.599999999999969
 31
0.0
  0
LINE
  5
38
330
252
100
AcDbEntity
  8
1
  6
DASHED
 62
     3
100
AcDbLine
 10
-66.30951675783439
 20
2.999999999999968
 30
0.0
 11
-68.10951675783428
 21
2.999999999999968
 31
0.0
  0
LINE
  5
39
330
252
100
AcDbEntity
  8
1
  6
DASHED
 62
     3
100
AcDbLine
 10
-65.70951675783454
 20
3.599999999999969
 30
0.0
 11
-66.30951675783439
 21
2.999999999999968
 31
0.0
  0
LINE
  5
3A
330
252
100
AcDbEntity
  8
1
 62
     7
100
AcDbLine
 10
-65.70951675783454
 20
6.699999999999969
 30
0.0
 11
-65.70951675783442
 21
5.809475019311076
 31
0.0
  0
LINE
  5
3B
330
252
100
AcDbEntity
  8
1
 62
     7
100
AcDbLine
 10
-68.18990151556369
 20
6.999999999999968
 30
0.0
 11
-66.22913200010498
 21
6.999999999999968
 31
0.0
  0
LINE
  5
3C
330
252
100
AcDbEntity
  8
1
 62
     7
100
AcDbLine
 10
-68.70951675783453
 20
6.699999999999969
 30
0.0
 11
-68.18990151556369
 21
6.999999999999968
 31
0.0
  0
LINE
  5
3D
330
252
100
AcDbEntity
  8
1
 62
     7
100
AcDbLine
 10
-65.70951675783454
 20
6.699999999999969
 30
0.0
 11
-68.70951675783453
 21
6.699999999999969
 31
0.0
  0
LINE
  5
3E
330
252
100
AcDbEntity
  8
1
 62
     7
100
AcDbLine
 10
-66.22913200010498
 20
6.999999999999968
 30
0.0
 11
-65.70951675783454
 21
6.699999999999969
 31
0.0
  0
LINE
  5
3F
330
252
100
AcDbEntity
  8
1
 62
     3
100
AcDbLine
 10
1.5
 20
2.999999999999968
 30
0.0
 11
1.500000000000113
 21
3.599999999999969
 31
0.0
  0
LINE
  5
40
330
252
100
AcDbEntity
  8
1
 62
     7
100
AcDbLine
 10
4.500000000000112
 20
3.599999999999969
 30
0.0
 11
4.500000000000112
 21
6.699999999999969
 31
0.0
  0
LINE
  5
41
330
252
100
AcDbEntity
  8
1
 62
     7
100
AcDbLine
 10
18.0
 20
5.999999999999968
 30
0.0
 11
4.5
 21
5.999999999999968
 31
0.0
  0
LINE
  5
42
330
252
100
AcDbEntity
  8
1
 62
     3
100
AcDbLine
 10
3.899999999999863
 20
2.999999999999968
 30
0.0
 11
3.899999999999863
 21
6.999999999999968
 31
0.0
  0
LINE
  5
43
330
252
100
AcDbEntity
  8
1
 62
     3
100
AcDbLine
 10
2.099999999999965
 20
2.999999999999968
 30
0.0
 11
2.099999999999965
 21
6.999999999999968
 31
0.0
  0
LINE
  5
44
330
252
100
AcDbEntity
  8
1
 62
     7
100
AcDbLine
 10
4.500000000000112
 20
3.599999999999969
 30
0.0
 11
1.500000000000113
 21
3.599999999999969
 31
0.0
  0
LINE
  5
45
330
252
100
AcDbEntity
  8
1
 62
     7
100
AcDbLine
 10
4.500000000000112
 20
3.599999999999969
 30
0.0
 11
3.899999999999863
 21
2.999999999999968
 31
0.0
  0
LINE
  5
46
330
252
100
AcDbEntity
  8
1
 62
     7
100
AcDbLine
 10
2.099999999999965
 20
2.999999999999968
 30
0.0
 11
1.500000000000113
 21
3.599999999999969
 31
0.0
  0
LINE
  5
47
330
252
100
AcDbEntity
  8
1
 62
     7
100
AcDbLine
 10
1.500000000000113
 20
3.599999999999969
 30
0.0
 11
1.500000000000113
 21
6.699999999999969
 31
0.0
  0
LINE
  5
48
330
252
100
AcDbEntity
  8
1
 62
     7
100
AcDbLine
 10
2.019615242270618
 20
6.999999999999968
 30
0.0
 11
3.980384757729268
 21
6.999999999999968
 31
0.0
  0
LINE
  5
49
330
252
100
AcDbEntity
  8
1
 62
     7
100
AcDbLine
 10
3.980384757729268
 20
6.999999999999968
 30
0.0
 11
4.500000000000112
 21
6.699999999999969
 31
0.0
  0
LINE
  5
4A
330
252
100
AcDbEntity
  8
1
 62
     7
100
AcDbLine
 10
4.500000000000112
 20
6.699999999999969
 30
0.0
 11
1.500000000000113
 21
6.699999999999969
 31
0.0
  0
LINE
  5
4B
330
252
100
AcDbEntity
  8
1
 62
     7
100
AcDbLine
 10
1.500000000000113
 20
6.699999999999969
 30
0.0
 11
2.019615242270618
 21
6.999999999999968
 31
0.0
  0
LINE
  5
4C
330
252
100
AcDbEntity
  8
1
 62
     7
100
AcDbLine
 10
42.0
 20
29.99999999999996
 30
0.0
 11
35.70720214646839
 21
29.99999999999996
 31
0.0
  0
LINE
  5
4D
330
252
100
AcDbEntity
  8
1
 62
     7
100
AcDbLine
 10
35.5
 20
26.46076951545861
 30
0.0
 11
32.5
 21
26.46076951545861
 31
0.0
  0
LINE
  5
4E
330
252
100
AcDbEntity
  8
1
 62
     7
100
AcDbLine
 10
35.5
 20
20.59999999999996
 30
0.0
 11
32.5
 21
20.59999999999996
 31
0.0
  0
LINE
  5
4F
330
252
100
AcDbEntity
  8
1
 62
     7
100
AcDbLine
 10
35.5
 20
20.59999999999996
 30
0.0
 11
34.89999999999986
 21
19.99999999999996
 31
0.0
  0
LINE
  5
50
330
252
100
AcDbEntity
  8
1
 62
     7
100
AcDbLine
 10
34.89999999999986
 20
19.99999999999996
 30
0.0
 11
33.09999999999996
 21
19.99999999999996
 31
0.0
  0
LINE
  5
51
330
252
100
AcDbEntity
  8
1
 62
     7
100
AcDbLine
 10
33.09999999999996
 20
19.99999999999996
 30
0.0
 11
32.5
 21
20.59999999999996
 31
0.0
  0
LINE
  5
52
330
252
100
AcDbEntity
  8
1
 62
     7
100
AcDbLine
 10
31.0
 20
27.99999999999996
 30
0.0
 11
31.0
 21
29.99999999999996
 31
0.0
  0
LINE
  5
53
330
252
100
AcDbEntity
  8
1
 62
     7
100
AcDbLine
 10
31.0
 20
27.99999999999996
 30
0.0
 11
37.0
 21
27.99999999999996
 31
0.0
  0
LINE
  5
54
330
252
100
AcDbEntity
  8
1
 62
     7
100
AcDbLine
 10
37.0
 20
27.99999999999996
 30
0.0
 11
37.0
 21
29.99999999999996
 31
0.0
  0
LINE
  5
55
330
252
100
AcDbEntity
  8
1
 62
     3
100
AcDbLine
 10
35.5
 20
26.46076951545861
 30
0.0
 11
32.5
 21
26.46076951545861
 31
0.0
  0
LINE
  5
56
330
252
100
AcDbEntity
  8
1
 62
     3
100
AcDbLine
 10
35.5
 20
27.49999999999996
 30
0.0
 11
34.89999999999986
 21
26.46076951545861
 31
0.0
  0
LINE
  5
57
330
252
100
AcDbEntity
  8
1
 62
     3
100
AcDbLine
 10
32.5
 20
27.49999999999996
 30
0.0
 11
33.09999999999996
 21
26.46076951545861
 31
0.0
  0
LINE
  5
58
330
252
100
AcDbEntity
  8
1
 62
     7
100
AcDbLine
 10
35.5
 20
20.59999999999996
 30
0.0
 11
32.5
 21
20.59999999999996
 31
0.0
  0
LINE
  5
59
330
252
100
AcDbEntity
  8
1
 62
     7
100
AcDbLine
 10
35.5
 20
27.99999999999996
 30
0.0
 11
35.5
 21
20.59999999999996
 31
0.0
  0
LINE
  5
5A
330
252
100
AcDbEntity
  8
1
 62
     7
100
AcDbLine
 10
35.5
 20
20.59999999999996
 30
0.0
 11
34.89999999999986
 21
19.99999999999996
 31
0.0
  0
LINE
  5
5B
330
252
100
AcDbEntity
  8
1
 62
     7
100
AcDbLine
 10
34.89999999999986
 20
19.99999999999996
 30
0.0
 11
33.09999999999996
 21
19.99999999999996
 31
0.0
  0
LINE
  5
5C
330
252
100
AcDbEntity
  8
1
 62
     7
100
AcDbLine
 10
33.09999999999996
 20
19.99999999999996
 30
0.0
 11
32.5
 21
20.59999999999996
 31
0.0
  0
LINE
  5
5D
330
252
100
AcDbEntity
  8
1
 62
     7
100
AcDbLine
 10
32.5
 20
20.59999999999996
 30
0.0
 11
32.5
 21
27.99999999999996
 31
0.0
  0
LINE
  5
5E
330
252
100
AcDbEntity
  8
1
 62
     7
100
AcDbLine
 10
35.5
 20
30.14999999999995
 30
0.0
 11
32.5
 21
30.14999999999995
 31
0.0
  0
LINE
  5
5F
330
252
100
AcDbEntity
  8
1
 62
     7
100
AcDbLine
 10
36.75
 20
27.99999999999996
 30
0.0
 11
36.75
 21
28.39999999999995
 31
0.0
  0
LINE
  5
60
330
252
100
AcDbEntity
  8
1
 62
     7
100
AcDbLine
 10
36.75
 20
28.39999999999995
 30
0.0
 11
31.25
 21
28.39999999999995
 31
0.0
  0
LINE
  5
61
330
252
100
AcDbEntity
  8
1
 62
     7
100
AcDbLine
 10
31.25
 20
28.39999999999995
 30
0.0
 11
31.25
 21
27.99999999999996
 31
0.0
  0
LINE
  5
62
330
252
100
AcDbEntity
  8
1
 62
     7
100
AcDbLine
 10
35.5
 20
26.49999999999996
 30
0.0
 11
39.0
 21
26.49999999999996
 31
0.0
  0
LINE
  5
63
330
252
100
AcDbEntity
  8
1
 62
     7
100
AcDbLine
 10
99.30657386288363
 20
0.0
 30
0.0
 11
101.3065738628835
 21
0.0
 31
0.0
  0
LINE
  5
64
330
252
100
AcDbEntity
  8
1
 62
     7
100
AcDbLine
 10
105.3065738628835
 20
3.999999999999987
 30
0.0
 11
99.30657386288363
 21
3.999999999999996
 31
0.0
  0
LINE
  5
65
330
252
100
AcDbEntity
  8
1
 62
     7
100
AcDbLine
 10
105.3065738628835
 20
-29.21480879580338
 30
0.0
 11
105.3065738628835
 21
3.999999999999987
 31
0.0
  0
LINE
  5
66
330
252
100
AcDbEntity
  8
1
 62
     7
100
AcDbLine
 10
99.30657386288363
 20
-29.21480879580338
 30
0.0
 11
105.3065738628835
 21
-29.21480879580338
 31
0.0
  0
LINE
  5
67
330
252
100
AcDbEntity
  8
1
 62
     7
100
AcDbLine
 10
99.30657386288363
 20
3.999999999999996
 30
0.0
 11
99.30657386288363
 21
-29.21480879580338
 31
0.0
  0
LINE
  5
68
330
252
100
AcDbEntity
  8
1
  6
DASHED
 62
     3
100
AcDbLine
 10
-94.77763665551792
 20
-12.45235982884175
 30
0.0
 11
-92.63394897203395
 21
-11.73022789998442
 31
0.0
  0
LINE
  5
69
330
252
100
AcDbEntity
  8
1
  6
DASHED
 62
     3
100
AcDbLine
 10
-64.20951675783442
 20
-28.00000000000004
 30
0.0
 11
-69.95951675783442
 21
-28.00000000000004
 31
0.0
  0
LINE
  5
6A
330
252
100
AcDbEntity
  8
1
  6
DASHED
 62
     3
100
AcDbLine
 10
-64.20951675783442
 20
-30.10087208039001
 30
0.0
 11
-64.20951675783442
 21
-28.00000000000004
 31
0.0
  0
LINE
  5
6B
330
252
100
AcDbEntity
  8
1
  6
DASHED
 62
     3
100
AcDbLine
 10
-68.10951675783428
 20
-26.46076951545871
 30
0.0
 11
-68.10951675783428
 21
-20.00000000000003
 31
0.0
  0
LINE
  5
6C
330
252
100
AcDbEntity
  8
1
  6
DASHED
 62
     3
100
AcDbLine
 10
-66.30951675783439
 20
-26.46076951545871
 30
0.0
 11
-66.30951675783439
 21
-20.00000000000003
 31
0.0
  0
LINE
  5
6D
330
252
100
AcDbEntity
  8
1
  6
DASHED
 62
     3
100
AcDbLine
 10
-68.70951675783442
 20
-20.60000000000003
 30
0.0
 11
-65.70951675783442
 21
-20.60000000000003
 31
0.0
  0
LINE
  5
6E
330
252
100
AcDbEntity
  8
1
  6
DASHED
 62
     3
100
AcDbLine
 10
-66.30951675783439
 20
-20.00000000000003
 30
0.0
 11
-65.70951675783442
 21
-20.60000000000003
 31
0.0
  0
LINE
  5
6F
330
252
100
AcDbEntity
  8
1
  6
DASHED
 62
     3
100
AcDbLine
 10
-68.10951675783428
 20
-20.00000000000003
 30
0.0
 11
-66.30951675783439
 21
-20.00000000000003
 31
0.0
  0
LINE
  5
70
330
252
100
AcDbEntity
  8
1
  6
DASHED
 62
     3
100
AcDbLine
 10
-68.70951675783442
 20
-20.60000000000003
 30
0.0
 11
-68.10951675783428
 21
-20.00000000000003
 31
0.0
  0
LINE
  5
71
330
252
100
AcDbEntity
  8
1
  6
DASHED
 62
     3
100
AcDbLine
 10
-69.95951675783442
 20
-28.40000000000003
 30
0.0
 11
-64.45951675783442
 21
-28.40000000000003
 31
0.0
  0
LINE
  5
72
330
252
100
AcDbEntity
  8
1
  6
DASHED
 62
     3
100
AcDbLine
 10
-64.45951675783442
 20
-28.40000000000003
 30
0.0
 11
-64.45951675783442
 21
-28.00000000000004
 31
0.0
  0
LINE
  5
73
330
252
100
AcDbEntity
  8
1
  6
DASHED
 62
     3
100
AcDbLine
 10
-68.70951675783442
 20
-26.46076951545871
 30
0.0
 11
-65.70951675783442
 21
-26.46076951545871
 31
0.0
  0
LINE
  5
74
330
252
100
AcDbEntity
  8
1
  6
DASHED
 62
     3
100
AcDbLine
 10
-66.30951675783439
 20
-26.46076951545871
 30
0.0
 11
-65.70951675783442
 21
-27.50000000000003
 31
0.0
  0
LINE
  5
75
330
252
100
AcDbEntity
  8
1
  6
DASHED
 62
     3
100
AcDbLine
 10
-68.10951675783428
 20
-26.46076951545871
 30
0.0
 11
-68.70951675783442
 21
-27.50000000000003
 31
0.0
  0
LINE
  5
76
330
252
100
AcDbEntity
  8
1
  6
DASHED
 62
     3
100
AcDbLine
 10
-65.70951675783442
 20
-20.60000000000003
 30
0.0
 11
-65.70951675783442
 21
-28.00000000000004
 31
0.0
  0
LINE
  5
77
330
252
100
AcDbEntity
  8
1
  6
DASHED
 62
     3
100
AcDbLine
 10
-68.70951675783442
 20
-28.00000000000004
 30
0.0
 11
-68.70951675783442
 21
-20.60000000000003
 31
0.0
  0
LINE
  5
78
330
252
100
AcDbEntity
  8
1
  6
DASHED
 62
     3
100
AcDbLine
 10
-68.70951675783442
 20
-30.15000000000004
 30
0.0
 11
-65.70951675783442
 21
-30.15000000000004
 31
0.0
  0
LINE
  5
79
330
252
100
AcDbEntity
  8
1
  6
DASHED
 62
     3
100
AcDbLine
 10
-69.95951675783442
 20
-28.00000000000004
 30
0.0
 11
-69.95951675783442
 21
-28.40000000000003
 31
0.0
  0
LINE
  5
7A
330
252
100
AcDbEntity
  8
1
 62
     7
100
AcDbLine
 10
95.30657386288362
 20
5.999999999999995
 30
0.0
 11
88.30657386288363
 21
5.999999999999995
 31
0.0
  0
LINE
  5
7B
330
252
100
AcDbEntity
  8
1
 62
     7
100
AcDbLine
 10
130.3065738628836
 20
29.99999999999999
 30
0.0
 11
105.0137760093521
 21
29.99999999999999
 31
0.0
  0
LINE
  5
7C
330
252
100
AcDbEntity
  8
1
 62
     7
100
AcDbLine
 10
95.30657386288362
 20
30.24999999999999
 30
0.0
 11
98.30657386288363
 21
30.24999999999999
 31
0.0
  0
LINE
  5
7D
330
252
100
AcDbEntity
  8
1
 62
     7
100
AcDbLine
 10
98.30657386288363
 20
-30.25
 30
0.0
 11
95.30657386288362
 21
-30.25
 31
0.0
  0
LINE
  5
7E
330
252
100
AcDbEntity
  8
1
 62
     7
100
AcDbLine
 10
88.30657386288363
 20
-6.0
 30
0.0
 11
88.30657386288363
 21
5.999999999999995
 31
0.0
  0
LINE
  5
7F
330
252
100
AcDbEntity
  8
1
 62
     7
100
AcDbLine
 10
88.30657386288363
 20
-6.0
 30
0.0
 11
95.30657386288362
 21
-6.0
 31
0.0
  0
LINE
  5
80
330
252
100
AcDbEntity
  8
1
  6
DASHED
 62
     3
100
AcDbLine
 10
-39.64139686015079
 20
12.45235982884165
 30
0.0
 11
-41.78508454363485
 21
11.7302278999843
 31
0.0
  0
LINE
  5
81
330
252
100
AcDbEntity
  8
1
  6
DASHED
 62
     3
100
AcDbLine
 10
-70.20951675783442
 20
30.10087208038993
 30
0.0
 11
-70.20951675783442
 21
27.99999999999996
 31
0.0
  0
LINE
  5
82
330
252
100
AcDbEntity
  8
1
  6
DASHED
 62
     3
100
AcDbLine
 10
-66.30951675783439
 20
26.46076951545861
 30
0.0
 11
-66.30951675783439
 21
19.99999999999996
 31
0.0
  0
LINE
  5
83
330
252
100
AcDbEntity
  8
1
  6
DASHED
 62
     3
100
AcDbLine
 10
-68.10951675783428
 20
26.46076951545861
 30
0.0
 11
-68.10951675783428
 21
19.99999999999996
 31
0.0
  0
LINE
  5
84
330
252
100
AcDbEntity
  8
1
  6
DASHED
 62
     3
100
AcDbLine
 10
-65.70951675783442
 20
20.59999999999996
 30
0.0
 11
-68.70951675783442
 21
20.59999999999996
 31
0.0
  0
LINE
  5
85
330
252
100
AcDbEntity
  8
1
  6
DASHED
 62
     3
100
AcDbLine
 10
-68.10951675783428
 20
19.99999999999996
 30
0.0
 11
-68.70951675783442
 21
20.59999999999996
 31
0.0
  0
LINE
  5
86
330
252
100
AcDbEntity
  8
1
  6
DASHED
 62
     3
100
AcDbLine
 10
-66.30951675783439
 20
19.99999999999996
 30
0.0
 11
-68.10951675783428
 21
19.99999999999996
 31
0.0
  0
LINE
  5
87
330
252
100
AcDbEntity
  8
1
  6
DASHED
 62
     3
100
AcDbLine
 10
-65.70951675783442
 20
20.59999999999996
 30
0.0
 11
-66.30951675783439
 21
19.99999999999996
 31
0.0
  0
LINE
  5
88
330
252
100
AcDbEntity
  8
1
  6
DASHED
 62
     3
100
AcDbLine
 10
-64.45951675783442
 20
28.39999999999995
 30
0.0
 11
-69.95951675783442
 21
28.39999999999995
 31
0.0
  0
LINE
  5
89
330
252
100
AcDbEntity
  8
1
  6
DASHED
 62
     3
100
AcDbLine
 10
-69.95951675783442
 20
28.39999999999995
 30
0.0
 11
-69.95951675783442
 21
27.99999999999996
 31
0.0
  0
LINE
  5
8A
330
252
100
AcDbEntity
  8
1
  6
DASHED
 62
     3
100
AcDbLine
 10
-65.70951675783442
 20
26.46076951545861
 30
0.0
 11
-68.70951675783442
 21
26.46076951545861
 31
0.0
  0
LINE
  5
8B
330
252
100
AcDbEntity
  8
1
  6
DASHED
 62
     3
100
AcDbLine
 10
-68.10951675783428
 20
26.46076951545861
 30
0.0
 11
-68.70951675783442
 21
27.49999999999996
 31
0.0
  0
LINE
  5
8C
330
252
100
AcDbEntity
  8
1
  6
DASHED
 62
     3
100
AcDbLine
 10
-66.30951675783439
 20
26.46076951545861
 30
0.0
 11
-65.70951675783442
 21
27.49999999999996
 31
0.0
  0
LINE
  5
8D
330
252
100
AcDbEntity
  8
1
  6
DASHED
 62
     3
100
AcDbLine
 10
-68.70951675783442
 20
20.59999999999996
 30
0.0
 11
-68.70951675783442
 21
27.99999999999996
 31
0.0
  0
LINE
  5
8E
330
252
100
AcDbEntity
  8
1
  6
DASHED
 62
     3
100
AcDbLine
 10
-65.70951675783442
 20
27.99999999999996
 30
0.0
 11
-65.70951675783442
 21
20.59999999999996
 31
0.0
  0
LINE
  5
8F
330
252
100
AcDbEntity
  8
1
  6
DASHED
 62
     3
100
AcDbLine
 10
-65.70951675783442
 20
30.14999999999995
 30
0.0
 11
-68.70951675783442
 21
30.14999999999995
 31
0.0
  0
LINE
  5
90
330
252
100
AcDbEntity
  8
1
  6
DASHED
 62
     3
100
AcDbLine
 10
-64.45951675783442
 20
27.99999999999996
 30
0.0
 11
-64.45951675783442
 21
28.39999999999995
 31
0.0
  0
LINE
  5
91
330
252
100
AcDbEntity
  8
1
 62
     7
100
AcDbLine
 10
12.0
 20
-30.00000000000001
 30
0.0
 11
12.0
 21
-28.00000000000001
 31
0.0
  0
LINE
  5
92
330
252
100
AcDbEntity
  8
1
 62
     7
100
AcDbLine
 10
18.0
 20
-28.00000000000001
 30
0.0
 11
12.0
 21
-28.00000000000001
 31
0.0
  0
LINE
  5
93
330
252
100
AcDbEntity
  8
1
 62
     7
100
AcDbLine
 10
18.0
 20
-30.00000000000001
 30
0.0
 11
18.0
 21
-28.00000000000001
 31
0.0
  0
LINE
  5
94
330
252
100
AcDbEntity
  8
1
 62
     7
100
AcDbLine
 10
13.5
 20
-26.50000000000001
 30
0.0
 11
10.0
 21
-26.50000000000002
 31
0.0
  0
LINE
  5
95
330
252
100
AcDbEntity
  8
1
 62
     7
100
AcDbLine
 10
13.5
 20
-26.46076951545868
 30
0.0
 11
16.5
 21
-26.46076951545868
 31
0.0
  0
LINE
  5
96
330
252
100
AcDbEntity
  8
1
 62
     3
100
AcDbLine
 10
15.89999999999986
 20
-26.46076951545868
 30
0.0
 11
16.5
 21
-27.50000000000001
 31
0.0
  0
LINE
  5
97
330
252
100
AcDbEntity
  8
1
 62
     3
100
AcDbLine
 10
14.09999999999996
 20
-26.46076951545868
 30
0.0
 11
13.5
 21
-27.50000000000001
 31
0.0
  0
LINE
  5
98
330
252
100
AcDbEntity
  8
1
 62
     7
100
AcDbLine
 10
13.5
 20
-20.60000000000001
 30
0.0
 11
16.5
 21
-20.60000000000001
 31
0.0
  0
LINE
  5
99
330
252
100
AcDbEntity
  8
1
 62
     7
100
AcDbLine
 10
16.5
 20
-20.60000000000001
 30
0.0
 11
16.5
 21
-28.00000000000001
 31
0.0
  0
LINE
  5
9A
330
252
100
AcDbEntity
  8
1
 62
     7
100
AcDbLine
 10
15.89999999999986
 20
-20.00000000000001
 30
0.0
 11
16.5
 21
-20.60000000000001
 31
0.0
  0
LINE
  5
9B
330
252
100
AcDbEntity
  8
1
 62
     7
100
AcDbLine
 10
14.09999999999996
 20
-20.00000000000001
 30
0.0
 11
15.89999999999986
 21
-20.00000000000001
 31
0.0
  0
LINE
  5
9C
330
252
100
AcDbEntity
  8
1
 62
     7
100
AcDbLine
 10
13.5
 20
-20.60000000000001
 30
0.0
 11
14.09999999999996
 21
-20.00000000000001
 31
0.0
  0
LINE
  5
9D
330
252
100
AcDbEntity
  8
1
 62
     7
100
AcDbLine
 10
13.5
 20
-28.00000000000001
 30
0.0
 11
13.5
 21
-20.60000000000001
 31
0.0
  0
LINE
  5
9E
330
252
100
AcDbEntity
  8
1
 62
     7
100
AcDbLine
 10
13.5
 20
-30.15000000000001
 30
0.0
 11
16.5
 21
-30.15000000000001
 31
0.0
  0
LINE
  5
9F
330
252
100
AcDbEntity
  8
1
 62
     7
100
AcDbLine
 10
17.75
 20
-28.40000000000001
 30
0.0
 11
17.75
 21
-28.00000000000001
 31
0.0
  0
LINE
  5
A0
330
252
100
AcDbEntity
  8
1
 62
     7
100
AcDbLine
 10
12.25
 20
-28.40000000000001
 30
0.0
 11
17.75
 21
-28.40000000000001
 31
0.0
  0
LINE
  5
A1
330
252
100
AcDbEntity
  8
1
 62
     7
100
AcDbLine
 10
12.25
 20
-28.00000000000001
 30
0.0
 11
12.25
 21
-28.40000000000001
 31
0.0
  0
LINE
  5
A2
330
252
100
AcDbEntity
  8
1
  6
DASHDOT
 62
     3
100
AcDbLine
 10
15.0
 20
-18.44954875113694
 30
0.0
 11
15.0
 21
-31.40645620695967
 31
0.0
  0
LINE
  5
A3
330
252
100
AcDbEntity
  8
1
 62
     7
100
AcDbLine
 10
15.89999999999986
 20
-20.00000000000001
 30
0.0
 11
15.89999999999986
 21
-26.46076951545868
 31
0.0
  0
LINE
  5
A4
330
252
100
AcDbEntity
  8
1
 62
     7
100
AcDbLine
 10
42.0
 20
-30.00000000000001
 30
0.0
 11
16.70720214646838
 21
-30.00000000000001
 31
0.0
  0
LINE
  5
A5
330
252
100
AcDbEntity
  8
1
 62
     7
100
AcDbLine
 10
27.14999999999998
 20
-13.00000000000002
 30
0.0
 11
27.14999999999998
 21
-25.70000000000001
 31
0.0
  0
LINE
  5
A6
330
252
100
AcDbEntity
  8
1
 62
     7
100
AcDbLine
 10
27.14999999999998
 20
-25.70000000000001
 30
0.0
 11
31.0
 21
-25.70000000000001
 31
0.0
  0
LINE
  5
A7
330
252
100
AcDbEntity
  8
1
 62
     7
100
AcDbLine
 10
42.00000000000009
 20
-14.00000000000001
 30
0.0
 11
40.19999999999987
 21
-14.00000000000001
 31
0.0
  0
LINE
  5
A8
330
252
100
AcDbEntity
  8
1
 62
     7
100
AcDbLine
 10
40.19999999999987
 20
-14.70000000000002
 30
0.0
 11
39.0
 21
-14.70000000000002
 31
0.0
  0
LINE
  5
A9
330
252
100
AcDbEntity
  8
1
 62
     7
100
AcDbLine
 10
31.0
 20
-25.70000000000001
 30
0.0
 11
31.0
 21
-26.50000000000001
 31
0.0
  0
LINE
  5
AA
330
252
100
AcDbEntity
  8
1
 62
     7
100
AcDbLine
 10
42.0
 20
29.99999999999996
 30
0.0
 11
42.0
 21
-30.00000000000001
 31
0.0
  0
LINE
  5
AB
330
252
100
AcDbEntity
  8
1
 62
     7
100
AcDbLine
 10
30.5
 20
-14.0
 30
0.0
 11
39.0
 21
-14.00000000000001
 31
0.0
  0
LINE
  5
AC
330
252
100
AcDbEntity
  8
1
 62
     7
100
AcDbLine
 10
39.0
 20
-30.00000000000001
 30
0.0
 11
39.0
 21
-26.50000000000001
 31
0.0
  0
LINE
  5
AD
330
252
100
AcDbEntity
  8
1
 62
     7
100
AcDbLine
 10
39.0
 20
-14.70000000000002
 30
0.0
 11
39.0
 21
-6.000000000000031
 31
0.0
  0
LINE
  5
AE
330
252
100
AcDbEntity
  8
1
 62
     7
100
AcDbLine
 10
39.0
 20
-11.70000000000002
 30
0.0
 11
40.19999999999987
 21
-11.70000000000002
 31
0.0
  0
LINE
  5
AF
330
252
100
AcDbEntity
  8
1
 62
     7
100
AcDbLine
 10
31.0
 20
-12.07846096908267
 30
0.0
 11
33.80000000000001
 21
-12.07846096908268
 31
0.0
  0
LINE
  5
B0
330
252
100
AcDbEntity
  8
1
 62
     7
100
AcDbLine
 10
39.0
 20
-12.07846096908267
 30
0.0
 11
36.19999999999985
 21
-12.07846096908268
 31
0.0
  0
LINE
  5
B1
330
252
100
AcDbEntity
  8
1
 62
     7
100
AcDbLine
 10
39.0
 20
-7.921539030917378
 30
0.0
 11
36.19999999999985
 21
-7.921539030917361
 31
0.0
  0
LINE
  5
B2
330
252
100
AcDbEntity
  8
1
 62
     7
100
AcDbLine
 10
31.0
 20
-7.921539030917378
 30
0.0
 11
33.80000000000001
 21
-7.921539030917361
 31
0.0
  0
LINE
  5
B3
330
252
100
AcDbEntity
  8
1
 62
     7
100
AcDbLine
 10
10.0
 20
-6.000000000000031
 30
0.0
 11
10.0
 21
-14.70000000000002
 31
0.0
  0
LINE
  5
B4
330
252
100
AcDbEntity
  8
1
 62
     7
100
AcDbLine
 10
18.5
 20
-14.70000000000001
 30
0.0
 11
21.84999999999996
 21
-14.70000000000001
 31
0.0
  0
LINE
  5
B5
330
252
100
AcDbEntity
  8
1
 62
     7
100
AcDbLine
 10
18.0
 20
-25.70000000000001
 30
0.0
 11
21.84999999999996
 21
-25.70000000000001
 31
0.0
  0
LINE
  5
B6
330
252
100
AcDbEntity
  8
1
 62
     7
100
AcDbLine
 10
21.84999999999996
 20
-25.70000000000001
 30
0.0
 11
21.84999999999996
 21
-13.00000000000002
 31
0.0
  0
LINE
  5
B7
330
252
100
AcDbEntity
  8
1
 62
     7
100
AcDbLine
 10
8.800000000000066
 20
-14.00000000000001
 30
0.0
 11
7.0
 21
-14.00000000000001
 31
0.0
  0
LINE
  5
B8
330
252
100
AcDbEntity
  8
1
 62
     7
100
AcDbLine
 10
10.0
 20
-14.70000000000002
 30
0.0
 11
8.800000000000066
 21
-14.70000000000002
 31
0.0
  0
LINE
  5
B9
330
252
100
AcDbEntity
  8
1
 62
     7
100
AcDbLine
 10
7.0
 20
-6.000000000000031
 30
0.0
 11
7.0
 21
-30.25000000000002
 31
0.0
  0
LINE
  5
BA
330
252
100
AcDbEntity
  8
1
 62
     7
100
AcDbLine
 10
18.0
 20
-13.04000000000002
 30
0.0
 11
18.0
 21
-6.000000000000031
 31
0.0
  0
LINE
  5
BB
330
252
100
AcDbEntity
  8
1
 62
     7
100
AcDbLine
 10
8.800000000000066
 20
-14.70000000000002
 30
0.0
 11
8.800000000000066
 21
-6.00000000000001
 31
0.0
  0
LINE
  5
BC
330
252
100
AcDbEntity
  8
1
 62
     7
100
AcDbLine
 10
10.0
 20
-30.25000000000002
 30
0.0
 11
7.0
 21
-30.25000000000002
 31
0.0
  0
LINE
  5
BD
330
252
100
AcDbEntity
  8
1
 62
     7
100
AcDbLine
 10
10.0
 20
-26.50000000000002
 30
0.0
 11
10.0
 21
-30.25000000000002
 31
0.0
  0
LINE
  5
BE
330
252
100
AcDbEntity
  8
1
 62
     7
100
AcDbLine
 10
8.800000000000066
 20
-11.70000000000002
 30
0.0
 11
10.0
 21
-11.70000000000002
 31
0.0
  0
LINE
  5
BF
330
252
100
AcDbEntity
  8
1
 62
     7
100
AcDbLine
 10
15.19999999999987
 20
-12.07846096908268
 30
0.0
 11
18.0
 21
-12.07846096908267
 31
0.0
  0
LINE
  5
C0
330
252
100
AcDbEntity
  8
1
 62
     7
100
AcDbLine
 10
12.80000000000007
 20
-12.07846096908268
 30
0.0
 11
10.0
 21
-12.07846096908267
 31
0.0
  0
LINE
  5
C1
330
252
100
AcDbEntity
  8
1
 62
     7
100
AcDbLine
 10
12.80000000000007
 20
-7.921539030917361
 30
0.0
 11
10.0
 21
-7.921539030917378
 31
0.0
  0
LINE
  5
C2
330
252
100
AcDbEntity
  8
1
 62
     7
100
AcDbLine
 10
15.19999999999987
 20
-7.921539030917361
 30
0.0
 11
18.0
 21
-7.921539030917378
 31
0.0
  0
LINE
  5
C3
330
252
100
AcDbEntity
  8
1
 62
     7
100
AcDbLine
 10
40.0
 20
-3.000000000000031
 30
0.0
 11
0.0
 21
-3.000000000000031
 31
0.0
  0
LINE
  5
C4
330
252
100
AcDbEntity
  8
1
 62
     7
100
AcDbLine
 10
31.0
 20
-6.000000000000031
 30
0.0
 11
40.0
 21
-6.000000000000031
 31
0.0
  0
LINE
  5
C5
330
252
100
AcDbEntity
  8
1
 62
     7
100
AcDbLine
 10
19.0
 20
-12.00000000000002
 30
0.0
 11
20.0
 21
-13.00000000000002
 31
0.0
  0
LINE
  5
C6
330
252
100
AcDbEntity
  8
1
 62
     7
100
AcDbLine
 10
19.0
 20
-10.00000000000003
 30
0.0
 11
18.0
 21
-10.00000000000003
 31
0.0
  0
LINE
  5
C7
330
252
100
AcDbEntity
  8
1
 62
     7
100
AcDbLine
 10
19.0
 20
-12.00000000000002
 30
0.0
 11
19.0
 21
-10.00000000000003
 31
0.0
  0
LINE
  5
C8
330
252
100
AcDbEntity
  8
1
 62
     7
100
AcDbLine
 10
22.59999999999996
 20
-13.00000000000002
 30
0.0
 11
20.0
 21
-13.00000000000002
 31
0.0
  0
LINE
  5
C9
330
252
100
AcDbEntity
  8
1
 62
     7
100
AcDbLine
 10
22.59999999999996
 20
-13.00000000000002
 30
0.0
 11
22.59999999999996
 21
-25.70000000000004
 31
0.0
  0
LINE
  5
CA
330
252
100
AcDbEntity
  8
1
 62
     7
100
AcDbLine
 10
22.59999999999996
 20
-25.70000000000004
 30
0.0
 11
26.39999999999986
 21
-25.70000000000004
 31
0.0
  0
LINE
  5
CB
330
252
100
AcDbEntity
  8
1
 62
     7
100
AcDbLine
 10
29.0
 20
-13.00000000000002
 30
0.0
 11
26.39999999999986
 21
-13.00000000000002
 31
0.0
  0
LINE
  5
CC
330
252
100
AcDbEntity
  8
1
 62
     7
100
AcDbLine
 10
30.0
 20
-10.00000000000003
 30
0.0
 11
30.0
 21
-12.00000000000002
 31
0.0
  0
LINE
  5
CD
330
252
100
AcDbEntity
  8
1
 62
     7
100
AcDbLine
 10
31.0
 20
-10.00000000000003
 30
0.0
 11
30.0
 21
-10.00000000000003
 31
0.0
  0
LINE
  5
CE
330
252
100
AcDbEntity
  8
1
 62
     7
100
AcDbLine
 10
29.0
 20
-13.00000000000002
 30
0.0
 11
30.0
 21
-12.00000000000002
 31
0.0
  0
LINE
  5
CF
330
252
100
AcDbEntity
  8
1
 62
     7
100
AcDbLine
 10
12.0
 20
27.99999999999996
 30
0.0
 11
12.0
 21
29.99999999999996
 31
0.0
  0
LINE
  5
D0
330
252
100
AcDbEntity
  8
1
 62
     7
100
AcDbLine
 10
12.0
 20
27.99999999999996
 30
0.0
 11
18.0
 21
27.99999999999996
 31
0.0
  0
LINE
  5
D1
330
252
100
AcDbEntity
  8
1
 62
     7
100
AcDbLine
 10
18.0
 20
27.99999999999996
 30
0.0
 11
18.0
 21
29.99999999999996
 31
0.0
  0
LINE
  5
D2
330
252
100
AcDbEntity
  8
1
 62
     7
100
AcDbLine
 10
10.0
 20
26.49999999999996
 30
0.0
 11
13.5
 21
26.49999999999996
 31
0.0
  0
LINE
  5
D3
330
252
100
AcDbEntity
  8
1
 62
     7
100
AcDbLine
 10
10.0
 20
29.99999999999996
 30
0.0
 11
13.29279785353151
 21
29.99999999999996
 31
0.0
  0
LINE
  5
D4
330
252
100
AcDbEntity
  8
1
 62
     7
100
AcDbLine
 10
16.5
 20
26.46076951545861
 30
0.0
 11
13.5
 21
26.46076951545861
 31
0.0
  0
LINE
  5
D5
330
252
100
AcDbEntity
  8
1
 62
     3
100
AcDbLine
 10
16.5
 20
27.49999999999996
 30
0.0
 11
15.89999999999986
 21
26.46076951545861
 31
0.0
  0
LINE
  5
D6
330
252
100
AcDbEntity
  8
1
 62
     3
100
AcDbLine
 10
13.5
 20
27.49999999999996
 30
0.0
 11
14.09999999999996
 21
26.46076951545861
 31
0.0
  0
LINE
  5
D7
330
252
100
AcDbEntity
  8
1
 62
     7
100
AcDbLine
 10
16.5
 20
20.59999999999996
 30
0.0
 11
13.5
 21
20.59999999999996
 31
0.0
  0
LINE
  5
D8
330
252
100
AcDbEntity
  8
1
 62
     7
100
AcDbLine
 10
16.5
 20
20.59999999999996
 30
0.0
 11
15.89999999999986
 21
19.99999999999996
 31
0.0
  0
LINE
  5
D9
330
252
100
AcDbEntity
  8
1
 62
     7
100
AcDbLine
 10
15.89999999999986
 20
19.99999999999996
 30
0.0
 11
14.09999999999996
 21
19.99999999999996
 31
0.0
  0
LINE
  5
DA
330
252
100
AcDbEntity
  8
1
 62
     7
100
AcDbLine
 10
14.09999999999996
 20
19.99999999999996
 30
0.0
 11
13.5
 21
20.59999999999996
 31
0.0
  0
LINE
  5
DB
330
252
100
AcDbEntity
  8
1
 62
     7
100
AcDbLine
 10
13.5
 20
20.59999999999996
 30
0.0
 11
13.5
 21
27.99999999999996
 31
0.0
  0
LINE
  5
DC
330
252
100
AcDbEntity
  8
1
 62
     7
100
AcDbLine
 10
16.5
 20
30.14999999999995
 30
0.0
 11
13.5
 21
30.14999999999995
 31
0.0
  0
LINE
  5
DD
330
252
100
AcDbEntity
  8
1
 62
     7
100
AcDbLine
 10
17.75
 20
27.99999999999996
 30
0.0
 11
17.75
 21
28.39999999999995
 31
0.0
  0
LINE
  5
DE
330
252
100
AcDbEntity
  8
1
 62
     7
100
AcDbLine
 10
17.75
 20
28.39999999999995
 30
0.0
 11
12.25
 21
28.39999999999995
 31
0.0
  0
LINE
  5
DF
330
252
100
AcDbEntity
  8
1
 62
     7
100
AcDbLine
 10
12.25
 20
28.39999999999995
 30
0.0
 11
12.25
 21
27.99999999999996
 31
0.0
  0
LINE
  5
E0
330
252
100
AcDbEntity
  8
1
 62
     7
100
AcDbLine
 10
32.5
 20
26.49999999999996
 30
0.0
 11
16.5
 21
26.49999999999996
 31
0.0
  0
LINE
  5
E1
330
252
100
AcDbEntity
  8
1
 62
     7
100
AcDbLine
 10
32.29279785353151
 20
29.99999999999996
 30
0.0
 11
16.70720214646838
 21
29.99999999999996
 31
0.0
  0
LINE
  5
E2
330
252
100
AcDbEntity
  8
1
 62
     7
100
AcDbLine
 10
31.0
 20
13.03999999999994
 30
0.0
 11
31.0
 21
5.999999999999968
 31
0.0
  0
LINE
  5
E3
330
252
100
AcDbEntity
  8
1
 62
     7
100
AcDbLine
 10
27.14999999999998
 20
25.69999999999996
 30
0.0
 11
27.14999999999998
 21
12.99999999999996
 31
0.0
  0
LINE
  5
E4
330
252
100
AcDbEntity
  8
1
 62
     7
100
AcDbLine
 10
40.19999999999987
 20
-14.70000000000002
 30
0.0
 11
40.19999999999987
 21
14.69999999999998
 31
0.0
  0
LINE
  5
E5
330
252
100
AcDbEntity
  8
1
 62
     7
100
AcDbLine
 10
30.5
 20
14.69999999999996
 30
0.0
 11
27.14999999999998
 21
14.69999999999996
 31
0.0
  0
LINE
  5
E6
330
252
100
AcDbEntity
  8
1
 62
     7
100
AcDbLine
 10
31.0
 20
25.69999999999996
 30
0.0
 11
27.14999999999998
 21
25.69999999999996
 31
0.0
  0
LINE
  5
E7
330
252
100
AcDbEntity
  8
1
 62
     7
100
AcDbLine
 10
40.19999999999987
 20
13.99999999999997
 30
0.0
 11
42.00000000000009
 21
13.99999999999996
 31
0.0
  0
LINE
  5
E8
330
252
100
AcDbEntity
  8
1
 62
     7
100
AcDbLine
 10
39.0
 20
14.69999999999998
 30
0.0
 11
40.19999999999987
 21
14.69999999999998
 31
0.0
  0
LINE
  5
E9
330
252
100
AcDbEntity
  8
1
 62
     7
100
AcDbLine
 10
39.0
 20
26.49999999999996
 30
0.0
 11
39.0
 21
29.99999999999996
 31
0.0
  0
LINE
  5
EA
330
252
100
AcDbEntity
  8
1
 62
     7
100
AcDbLine
 10
39.0
 20
5.999999999999968
 30
0.0
 11
39.0
 21
14.69999999999998
 31
0.0
  0
LINE
  5
EB
330
252
100
AcDbEntity
  8
1
 62
     7
100
AcDbLine
 10
40.19999999999987
 20
11.69999999999998
 30
0.0
 11
39.0
 21
11.69999999999998
 31
0.0
  0
LINE
  5
EC
330
252
100
AcDbEntity
  8
1
 62
     7
100
AcDbLine
 10
33.80000000000001
 20
12.07846096908262
 30
0.0
 11
31.0
 21
12.0784609690826
 31
0.0
  0
LINE
  5
ED
330
252
100
AcDbEntity
  8
1
 62
     7
100
AcDbLine
 10
36.19999999999985
 20
12.07846096908262
 30
0.0
 11
39.0
 21
12.0784609690826
 31
0.0
  0
LINE
  5
EE
330
252
100
AcDbEntity
  8
1
 62
     7
100
AcDbLine
 10
36.19999999999985
 20
7.921539030917297
 30
0.0
 11
39.0
 21
7.921539030917326
 31
0.0
  0
LINE
  5
EF
330
252
100
AcDbEntity
  8
1
 62
     7
100
AcDbLine
 10
33.80000000000001
 20
7.921539030917297
 30
0.0
 11
31.0
 21
7.921539030917326
 31
0.0
  0
LINE
  5
F0
330
252
100
AcDbEntity
  8
1
 62
     7
100
AcDbLine
 10
10.0
 20
14.69999999999998
 30
0.0
 11
10.0
 21
5.999999999999968
 31
0.0
  0
LINE
  5
F1
330
252
100
AcDbEntity
  8
1
 62
     7
100
AcDbLine
 10
7.0
 20
30.24999999999996
 30
0.0
 11
7.0
 21
5.999999999999968
 31
0.0
  0
LINE
  5
F2
330
252
100
AcDbEntity
  8
1
 62
     7
100
AcDbLine
 10
40.0
 20
-6.000000000000031
 30
0.0
 11
40.0
 21
5.999999999999968
 31
0.0
  0
LINE
  5
F3
330
252
100
AcDbEntity
  8
1
 62
     7
100
AcDbLine
 10
21.84999999999996
 20
25.69999999999996
 30
0.0
 11
18.0
 21
25.69999999999996
 31
0.0
  0
LINE
  5
F4
330
252
100
AcDbEntity
  8
1
 62
     7
100
AcDbLine
 10
21.84999999999996
 20
12.99999999999996
 30
0.0
 11
21.84999999999996
 21
25.69999999999996
 31
0.0
  0
LINE
  5
F5
330
252
100
AcDbEntity
  8
1
 62
     7
100
AcDbLine
 10
7.0
 20
13.99999999999996
 30
0.0
 11
8.800000000000066
 21
13.99999999999997
 31
0.0
  0
LINE
  5
F6
330
252
100
AcDbEntity
  8
1
 62
     7
100
AcDbLine
 10
8.800000000000066
 20
14.69999999999998
 30
0.0
 11
10.0
 21
14.69999999999998
 31
0.0
  0
LINE
  5
F7
330
252
100
AcDbEntity
  8
1
 62
     7
100
AcDbLine
 10
18.0
 20
25.69999999999996
 30
0.0
 11
18.0
 21
26.49999999999996
 31
0.0
  0
LINE
  5
F8
330
252
100
AcDbEntity
  8
1
 62
     7
100
AcDbLine
 10
7.0
 20
30.24999999999996
 30
0.0
 11
10.0
 21
30.24999999999996
 31
0.0
  0
LINE
  5
F9
330
252
100
AcDbEntity
  8
1
 62
     7
100
AcDbLine
 10
10.0
 20
30.24999999999996
 30
0.0
 11
10.0
 21
26.49999999999996
 31
0.0
  0
LINE
  5
FA
330
252
100
AcDbEntity
  8
1
 62
     7
100
AcDbLine
 10
8.800000000000066
 20
5.999999999999968
 30
0.0
 11
8.800000000000066
 21
14.69999999999998
 31
0.0
  0
LINE
  5
FB
330
252
100
AcDbEntity
  8
1
 62
     7
100
AcDbLine
 10
10.0
 20
11.69999999999998
 30
0.0
 11
8.800000000000066
 21
11.69999999999998
 31
0.0
  0
LINE
  5
FC
330
252
100
AcDbEntity
  8
1
 62
     7
100
AcDbLine
 10
18.0
 20
12.0784609690826
 30
0.0
 11
15.19999999999987
 21
12.07846096908262
 31
0.0
  0
LINE
  5
FD
330
252
100
AcDbEntity
  8
1
 62
     7
100
AcDbLine
 10
10.0
 20
12.0784609690826
 30
0.0
 11
12.80000000000007
 21
12.07846096908262
 31
0.0
  0
LINE
  5
FE
330
252
100
AcDbEntity
  8
1
 62
     7
100
AcDbLine
 10
10.0
 20
7.921539030917326
 30
0.0
 11
12.80000000000007
 21
7.921539030917297
 31
0.0
  0
LINE
  5
FF
330
252
100
AcDbEntity
  8
1
 62
     7
100
AcDbLine
 10
18.0
 20
7.921539030917326
 30
0.0
 11
15.19999999999987
 21
7.921539030917297
 31
0.0
  0
LINE
  5
100
330
252
100
AcDbEntity
  8
1
  6
DASHDOT
 62
     3
100
AcDbLine
 10
-58.48261204679852
 20
15.11544235232641
 30
0.0
 11
-55.92858930914809
 21
19.53913949762246
 31
0.0
  0
LINE
  5
101
330
252
100
AcDbEntity
  8
1
 62
     3
100
AcDbLine
 10
4.500000000000112
 20
3.599999999999969
 30
0.0
 11
4.5
 21
2.999999999999968
 31
0.0
  0
LINE
  5
102
330
252
100
AcDbEntity
  8
1
 62
     7
100
AcDbLine
 10
0.0
 20
-6.000000000000031
 30
0.0
 11
0.0
 21
5.999999999999968
 31
0.0
  0
LINE
  5
103
330
252
100
AcDbEntity
  8
1
 62
     7
100
AcDbLine
 10
0.0
 20
2.999999999999968
 30
0.0
 11
40.0
 21
2.999999999999968
 31
0.0
  0
LINE
  5
104
330
252
100
AcDbEntity
  8
1
 62
     7
100
AcDbLine
 10
1.5
 20
5.999999999999968
 30
0.0
 11
0.0
 21
5.999999999999968
 31
0.0
  0
LINE
  5
105
330
252
100
AcDbEntity
  8
1
 62
     7
100
AcDbLine
 10
20.0
 20
12.99999999999996
 30
0.0
 11
19.0
 21
11.99999999999997
 31
0.0
  0
LINE
  5
106
330
252
100
AcDbEntity
  8
1
 62
     7
100
AcDbLine
 10
18.0
 20
9.999999999999966
 30
0.0
 11
19.0
 21
9.999999999999966
 31
0.0
  0
LINE
  5
107
330
252
100
AcDbEntity
  8
1
 62
     7
100
AcDbLine
 10
19.0
 20
9.999999999999966
 30
0.0
 11
19.0
 21
11.99999999999997
 31
0.0
  0
LINE
  5
108
330
252
100
AcDbEntity
  8
1
 62
     7
100
AcDbLine
 10
20.0
 20
12.99999999999996
 30
0.0
 11
22.59999999999996
 21
12.99999999999996
 31
0.0
  0
LINE
  5
109
330
252
100
AcDbEntity
  8
1
 62
     7
100
AcDbLine
 10
22.59999999999996
 20
25.69999999999996
 30
0.0
 11
22.59999999999996
 21
12.99999999999996
 31
0.0
  0
LINE
  5
10A
330
252
100
AcDbEntity
  8
1
 62
     7
100
AcDbLine
 10
26.39999999999986
 20
25.69999999999996
 30
0.0
 11
22.59999999999996
 21
25.69999999999996
 31
0.0
  0
LINE
  5
10B
330
252
100
AcDbEntity
  8
1
 62
     7
100
AcDbLine
 10
26.39999999999986
 20
12.99999999999996
 30
0.0
 11
26.39999999999986
 21
25.69999999999996
 31
0.0
  0
LINE
  5
10C
330
252
100
AcDbEntity
  8
1
 62
     7
100
AcDbLine
 10
26.39999999999986
 20
12.99999999999996
 30
0.0
 11
29.0
 21
12.99999999999996
 31
0.0
  0
LINE
  5
10D
330
252
100
AcDbEntity
  8
1
 62
     7
100
AcDbLine
 10
30.0
 20
11.99999999999997
 30
0.0
 11
30.0
 21
9.999999999999966
 31
0.0
  0
LINE
  5
10E
330
252
100
AcDbEntity
  8
1
 62
     7
100
AcDbLine
 10
30.0
 20
9.999999999999966
 30
0.0
 11
31.0
 21
9.999999999999966
 31
0.0
  0
LINE
  5
10F
330
252
100
AcDbEntity
  8
1
 62
     7
100
AcDbLine
 10
30.0
 20
11.99999999999997
 30
0.0
 11
29.0
 21
12.99999999999996
 31
0.0
  0
LINE
  5
110
330
252
100
AcDbEntity
  8
1
  6
DASHED
 62
     3
100
AcDbLine
 10
-68.70951675783442
 20
5.809475019311076
 30
0.0
 11
-68.70951675783442
 21
2.598076211353291
 31
0.0
  0
LINE
  5
111
330
252
100
AcDbEntity
  8
1
  6
DASHED
 62
     3
100
AcDbLine
 10
-68.10951675783428
 20
5.932115979985507
 30
0.0
 11
-68.10951675783428
 21
2.861817604250818
 31
0.0
  0
LINE
  5
112
330
252
100
AcDbEntity
  8
1
  6
DASHED
 62
     3
100
AcDbLine
 10
-66.30951675783439
 20
5.932115979985507
 30
0.0
 11
-66.30951675783439
 21
2.861817604250818
 31
0.0
  0
LINE
  5
113
330
252
100
AcDbEntity
  8
1
  6
DASHED
 62
     3
100
AcDbLine
 10
-65.70951675783442
 20
5.809475019311076
 30
0.0
 11
-65.70951675783442
 21
2.598076211353291
 31
0.0
  0
LINE
  5
114
330
252
100
AcDbEntity
  8
1
 62
     7
100
AcDbLine
 10
39.0
 20
-26.50000000000001
 30
0.0
 11
16.5
 21
-26.50000000000001
 31
0.0
  0
LINE
  5
115
330
252
100
AcDbEntity
  8
1
 62
     7
100
AcDbLine
 10
130.3065738628836
 20
-30.0
 30
0.0
 11
98.30657386288363
 21
-30.0
 31
0.0
  0
LINE
  5
116
330
252
100
AcDbEntity
  8
1
 62
     7
100
AcDbLine
 10
130.3065738628836
 20
29.99999999999999
 30
0.0
 11
130.3065738628836
 21
-30.0
 31
0.0
  0
LINE
  5
117
330
252
100
AcDbEntity
  8
1
 62
     7
100
AcDbLine
 10
127.3065738628835
 20
-30.0
 30
0.0
 11
127.3065738628835
 21
29.99999999999999
 31
0.0
  0
LINE
  5
118
330
252
100
AcDbEntity
  8
1
 62
     7
100
AcDbLine
 10
106.3065738628835
 20
15.32673534524603
 30
0.0
 11
106.3065738628835
 21
29.99999999999999
 31
0.0
  0
LINE
  5
119
330
252
100
AcDbEntity
  8
1
 62
     7
100
AcDbLine
 10
100.3065738628835
 20
15.32673534524603
 30
0.0
 11
100.3065738628835
 21
29.99999999999999
 31
0.0
  0
LINE
  5
11A
330
252
100
AcDbEntity
  8
1
 62
     7
100
AcDbLine
 10
105.0065738628837
 20
14.22775681356649
 30
0.0
 11
105.0065738628837
 21
27.99999999999998
 31
0.0
  0
LINE
  5
11B
330
252
100
AcDbEntity
  8
1
 62
     7
100
AcDbLine
 10
101.6065738628836
 20
14.22775681356649
 30
0.0
 11
101.6065738628836
 21
27.99999999999998
 31
0.0
  0
LINE
  5
11C
330
252
100
AcDbEntity
  8
1
 62
     7
100
AcDbLine
 10
105.0065738628837
 20
26.49999999999999
 30
0.0
 11
101.6065738628836
 21
26.49999999999999
 31
0.0
  0
LINE
  5
11D
330
252
100
AcDbEntity
  8
1
 62
     7
100
AcDbLine
 10
106.3065738628835
 20
27.99999999999998
 30
0.0
 11
100.3065738628835
 21
27.99999999999998
 31
0.0
  0
LINE
  5
11E
330
252
100
AcDbEntity
  8
1
 62
     7
100
AcDbLine
 10
104.8065738628835
 20
27.99999999999998
 30
0.0
 11
104.8065738628835
 21
26.49999999999999
 31
0.0
  0
LINE
  5
11F
330
252
100
AcDbEntity
  8
1
 62
     7
100
AcDbLine
 10
104.8065738628835
 20
30.14999999999997
 30
0.0
 11
101.8065738628835
 21
30.14999999999997
 31
0.0
  0
LINE
  5
120
330
252
100
AcDbEntity
  8
1
 62
     7
100
AcDbLine
 10
100.5565738628835
 20
28.39999999999996
 30
0.0
 11
100.5565738628835
 21
27.99999999999998
 31
0.0
  0
LINE
  5
121
330
252
100
AcDbEntity
  8
1
 62
     7
100
AcDbLine
 10
106.0565738628835
 20
28.39999999999996
 30
0.0
 11
100.5565738628835
 21
28.39999999999996
 31
0.0
  0
LINE
  5
122
330
252
100
AcDbEntity
  8
1
 62
     7
100
AcDbLine
 10
106.0565738628835
 20
27.99999999999998
 30
0.0
 11
106.0565738628835
 21
28.39999999999996
 31
0.0
  0
LINE
  5
123
330
252
100
AcDbEntity
  8
1
  6
DASHDOT
 62
     3
100
AcDbLine
 10
103.3065738628835
 20
32.84088955316877
 30
0.0
 11
103.3065738628835
 21
9.912190051232368
 31
0.0
  0
LINE
  5
124
330
252
100
AcDbEntity
  8
1
 62
     7
100
AcDbLine
 10
101.5993717164151
 20
29.99999999999999
 30
0.0
 11
98.30657386288363
 21
29.99999999999999
 31
0.0
  0
LINE
  5
125
330
252
100
AcDbEntity
  8
1
 62
     7
100
AcDbLine
 10
101.8065738628835
 20
26.49999999999999
 30
0.0
 11
101.8065738628835
 21
27.99999999999998
 31
0.0
  0
LINE
  5
126
330
252
100
AcDbEntity
  8
1
 62
     3
100
AcDbLine
 10
104.2292235936939
 20
26.49999999999999
 30
0.0
 11
104.8065738628835
 21
27.49999999999999
 31
0.0
  0
LINE
  5
127
330
252
100
AcDbEntity
  8
1
 62
     3
100
AcDbLine
 10
102.3839241320732
 20
26.49999999999999
 30
0.0
 11
101.8065738628835
 21
27.49999999999999
 31
0.0
  0
LINE
  5
128
330
252
100
AcDbEntity
  8
1
 62
     7
100
AcDbLine
 10
99.30657386288363
 20
-5.252857374424682
 30
0.0
 11
101.3065738628835
 21
-5.252857374424682
 31
0.0
  0
LINE
  5
129
330
252
100
AcDbEntity
  8
1
 62
     7
100
AcDbLine
 10
99.30657386288363
 20
-10.34610933560152
 30
0.0
 11
101.3065738628835
 21
-10.34610933560152
 31
0.0
  0
LINE
  5
12A
330
252
100
AcDbEntity
  8
1
 62
     7
100
AcDbLine
 10
99.30657386288363
 20
-15.12500000000003
 30
0.0
 11
101.3065738628835
 21
-15.12500000000003
 31
0.0
  0
LINE
  5
12B
330
252
100
AcDbEntity
  8
1
 62
     7
100
AcDbLine
 10
99.30657386288363
 20
-19.44432519301785
 30
0.0
 11
101.3065738628835
 21
-19.44432519301785
 31
0.0
  0
LINE
  5
12C
330
252
100
AcDbEntity
  8
1
 62
     7
100
AcDbLine
 10
99.30657386288363
 20
-23.17284440434911
 30
0.0
 11
101.3065738628835
 21
-23.17284440434911
 31
0.0
  0
LINE
  5
12D
330
252
100
AcDbEntity
  8
1
 62
     7
100
AcDbLine
 10
99.30657386288363
 20
-26.1972684644793
 30
0.0
 11
101.3065738628835
 21
-26.1972684644793
 31
0.0
  0
LINE
  5
12E
330
252
100
AcDbEntity
  8
1
 62
     7
100
AcDbLine
 10
13.29279785353151
 20
-30.00000000000001
 30
0.0
 11
10.0
 21
-30.00000000000001
 31
0.0
  0
LINE
  5
12F
330
252
100
AcDbEntity
  8
1
 62
     7
100
AcDbLine
 10
95.30657386288362
 20
0.4999999999999964
 30
0.0
 11
98.30657386288363
 21
0.4999999999999964
 31
0.0
  0
LINE
  5
130
330
252
100
AcDbEntity
  8
1
 62
     7
100
AcDbLine
 10
95.30657386288362
 20
-0.5
 30
0.0
 11
98.30657386288363
 21
-0.5
 31
0.0
  0
LINE
  5
131
330
252
100
AcDbEntity
  8
1
 62
     7
100
AcDbLine
 10
95.30657386288362
 20
-30.25
 30
0.0
 11
95.30657386288362
 21
30.24999999999999
 31
0.0
  0
LINE
  5
132
330
252
100
AcDbEntity
  8
1
 62
     7
100
AcDbLine
 10
98.30657386288363
 20
30.24999999999999
 30
0.0
 11
98.30657386288363
 21
-30.25
 31
0.0
  0
LINE
  5
133
330
252
100
AcDbEntity
  8
1
 62
     7
100
AcDbLine
 10
-36.96364927151478
 20
0.499999999999968
 30
0.0
 11
-37.45951675783441
 21
0.499999999999968
 31
0.0
  0
LINE
  5
134
330
252
100
AcDbEntity
  8
1
 62
     7
100
AcDbLine
 10
-37.45951675783441
 20
0.499999999999968
 30
0.0
 11
-37.45951675783441
 21
-0.5000000000000321
 31
0.0
  0
LINE
  5
135
330
252
100
AcDbEntity
  8
1
 62
     7
100
AcDbLine
 10
-37.45951675783441
 20
-0.5000000000000321
 30
0.0
 11
-36.96364927151478
 21
-0.5000000000000321
 31
0.0
  0
LINE
  5
136
330
252
100
AcDbEntity
  8
1
 62
     7
100
AcDbLine
 10
18.5
 20
9.999999999999966
 30
0.0
 11
18.5
 21
14.69999999999996
 31
0.0
  0
LINE
  5
137
330
252
100
AcDbEntity
  8
1
 62
     7
100
AcDbLine
 10
10.0
 20
13.99999999999997
 30
0.0
 11
18.5
 21
13.99999999999997
 31
0.0
  0
LINE
  5
138
330
252
100
AcDbEntity
  8
1
 62
     7
100
AcDbLine
 10
18.0
 20
5.999999999999968
 30
0.0
 11
18.0
 21
13.03999999999997
 31
0.0
  0
LINE
  5
139
330
252
100
AcDbEntity
  8
1
 62
     7
100
AcDbLine
 10
18.5
 20
-14.70000000000001
 30
0.0
 11
18.5
 21
-10.00000000000003
 31
0.0
  0
LINE
  5
13A
330
252
100
AcDbEntity
  8
1
 62
     7
100
AcDbLine
 10
10.0
 20
-14.0
 30
0.0
 11
18.5
 21
-14.00000000000001
 31
0.0
  0
LINE
  5
13B
330
252
100
AcDbEntity
  8
1
 62
     7
100
AcDbLine
 10
30.5
 20
-14.70000000000001
 30
0.0
 11
30.5
 21
-10.00000000000003
 31
0.0
  0
LINE
  5
13C
330
252
100
AcDbEntity
  8
1
 62
     7
100
AcDbLine
 10
31.0
 20
-6.000000000000031
 30
0.0
 11
31.0
 21
-13.04000000000002
 31
0.0
  0
LINE
  5
13D
330
252
100
AcDbEntity
  8
1
 62
     7
100
AcDbLine
 10
30.5
 20
9.999999999999966
 30
0.0
 11
30.5
 21
14.69999999999996
 31
0.0
  0
LINE
  5
13E
330
252
100
AcDbEntity
  8
1
 62
     7
100
AcDbLine
 10
30.5
 20
13.99999999999997
 30
0.0
 11
39.0
 21
13.99999999999996
 31
0.0
  0
LINE
  5
13F
330
252
100
AcDbEntity
  8
1
 62
     7
100
AcDbLine
 10
34.89999999999986
 20
26.46076951545861
 30
0.0
 11
34.89999999999986
 21
19.99999999999996
 31
0.0
  0
LINE
  5
140
330
252
100
AcDbEntity
  8
1
 62
     7
100
AcDbLine
 10
33.09999999999996
 20
19.99999999999996
 30
0.0
 11
33.09999999999996
 21
26.46076951545861
 31
0.0
  0
LINE
  5
141
330
252
100
AcDbEntity
  8
1
 62
     7
100
AcDbLine
 10
14.09999999999996
 20
19.99999999999996
 30
0.0
 11
14.09999999999996
 21
26.46076951545861
 31
0.0
  0
LINE
  5
142
330
252
100
AcDbEntity
  8
1
 62
     7
100
AcDbLine
 10
16.5
 20
27.99999999999996
 30
0.0
 11
16.5
 21
20.59999999999996
 31
0.0
  0
LINE
  5
143
330
252
100
AcDbEntity
  8
1
 62
     7
100
AcDbLine
 10
15.89999999999986
 20
26.46076951545861
 30
0.0
 11
15.89999999999986
 21
19.99999999999996
 31
0.0
  0
LINE
  5
144
330
252
100
AcDbEntity
  8
1
  6
DASHDOT
 62
     3
100
AcDbLine
 10
34.0
 20
31.40645620695961
 30
0.0
 11
34.0
 21
18.34890057727965
 31
0.0
  0
LINE
  5
145
330
252
100
AcDbEntity
  8
1
  6
DASHDOT
 62
     3
100
AcDbLine
 10
15.0
 20
31.40645620695961
 30
0.0
 11
15.0
 21
18.34890057727965
 31
0.0
  0
LINE
  5
146
330
252
100
AcDbEntity
  8
1
  6
DASHDOT
 62
     3
100
AcDbLine
 10
-58.48261204679829
 20
-15.11544235232647
 30
0.0
 11
-55.92858930914843
 21
-19.53913949762279
 31
0.0
  0
LINE
  5
147
330
252
100
AcDbEntity
  8
1
  6
DASHDOT
 62
     3
100
AcDbLine
 10
-67.20951675783442
 20
1.828582322325148
 30
0.0
 11
-67.20951675783442
 21
-1.828582322325232
 31
0.0
  0
LINE
  5
148
330
252
100
AcDbEntity
  8
1
  6
DASHDOT
 62
     3
100
AcDbLine
 10
-69.0380990801595
 20
-0.0000000000000391
 30
0.0
 11
-65.38093443550922
 21
-0.0000000000000391
 31
0.0
  0
LINE
  5
149
330
252
100
AcDbEntity
  8
1
  6
DASHDOT
 62
     3
100
AcDbLine
 10
-84.66332617990621
 20
-0.0000000000000711
 30
0.0
 11
-89.7713716552065
 21
0.0000000000001492
 31
0.0
  0
LINE
  5
14A
330
252
100
AcDbEntity
  8
1
  6
DASHDOT
 62
     3
100
AcDbLine
 10
-67.20951675783442
 20
31.85115210240575
 30
0.0
 11
-67.20951675783442
 21
18.51620510735275
 31
0.0
  0
LINE
  5
14B
330
252
100
AcDbEntity
  8
1
  6
DASHDOT
 62
     3
100
AcDbLine
 10
-67.20951675783442
 20
-31.85115210240581
 30
0.0
 11
-67.20951675783442
 21
-18.51620510735282
 31
0.0
  0
LINE
  5
14C
330
252
100
AcDbEntity
  8
1
 62
     7
100
AcDbLine
 10
40.0
 20
5.999999999999968
 30
0.0
 11
31.0
 21
5.999999999999968
 31
0.0
  0
LINE
  5
14D
330
252
100
AcDbEntity
  8
1
 62
     7
100
AcDbLine
 10
0.0
 20
-6.000000000000031
 30
0.0
 11
18.0
 21
-6.000000000000031
 31
0.0
  0
LINE
  5
14E
330
252
100
AcDbEntity
  8
1
 62
     7
100
AcDbLine
 10
26.39999999999986
 20
-25.70000000000004
 30
0.0
 11
26.39999999999986
 21
-13.00000000000002
 31
0.0
  0
LINE
  5
14F
330
252
100
AcDbEntity
  8
1
 62
     7
100
AcDbLine
 10
18.0
 20
-26.50000000000002
 30
0.0
 11
18.0
 21
-25.70000000000001
 31
0.0
  0
LINE
  5
150
330
252
100
AcDbEntity
  8
1
 62
     7
100
AcDbLine
 10
27.14999999999998
 20
-14.70000000000001
 30
0.0
 11
30.5
 21
-14.70000000000001
 31
0.0
  0
LINE
  5
151
330
252
100
AcDbEntity
  8
1
 62
     7
100
AcDbLine
 10
31.0
 20
26.49999999999996
 30
0.0
 11
31.0
 21
25.69999999999996
 31
0.0
  0
LINE
  5
152
330
252
100
AcDbEntity
  8
1
 62
     7
100
AcDbLine
 10
21.84999999999996
 20
14.69999999999996
 30
0.0
 11
18.5
 21
14.69999999999996
 31
0.0
  0
LINE
  5
153
330
252
100
AcDbEntity
  8
1
  6
DASHDOT
 62
     3
100
AcDbLine
 10
3.0
 20
2.198633985570348
 30
0.0
 11
3.0
 21
8.02855517118915
 31
0.0
  0
LINE
  5
154
330
252
100
AcDbEntity
  8
1
 62
     7
100
AcDbLine
 10
14.09999999999996
 20
-26.46076951545868
 30
0.0
 11
14.09999999999996
 21
-20.00000000000001
 31
0.0
  0
LINE
  5
155
330
252
100
AcDbEntity
  8
1
  6
DASHDOT
 62
     3
100
AcDbLine
 10
-5.0
 20
0.0
 30
0.0
 11
0.0
 21
0.0
 31
0.0
  0
LINE
  5
156
330
252
100
AcDbEntity
  8
1
  6
DASHDOT
 62
     3
100
AcDbLine
 10
42.0
 20
0.0
 30
0.0
 11
47.0
 21
0.0
 31
0.0
  0
LINE
  5
157
330
252
100
AcDbEntity
  8
1
  6
DASHDOT
 62
     3
100
AcDbLine
 10
83.30657386288363
 20
0.0
 30
0.0
 11
88.30657386288363
 21
0.0
 31
0.0
  0
LINE
  5
158
330
252
100
AcDbEntity
  8
1
  6
DASHDOT
 62
     3
100
AcDbLine
 10
130.3065738628836
 20
0.0
 30
0.0
 11
135.3065738628836
 21
0.0
 31
0.0
  0
LINE
  5
159
330
252
100
AcDbEntity
  8
1
  6
DASHED
 62
     3
100
AcDbLine
 10
-70.20951675783442
 20
27.99999999999996
 30
0.0
 11
-64.45951675783442
 21
27.99999999999996
 31
0.0
  0
LINE
  5
15A
330
252
100
AcDbEntity
  8
1
 62
     7
100
AcDbLine
 10
-61.40004173852343
 20
1.499999999999968
 30
0.0
 11
-60.50951675783455
 21
1.500000000000039
 31
0.0
  0
LINE
  5
15B
330
252
100
AcDbEntity
  8
1
 62
     3
100
AcDbLine
 10
-60.20951675783442
 20
0.9000000000000163
 30
0.0
 11
-61.27740077784892
 21
0.8999999999999593
 31
0.0
  0
LINE
  5
15C
330
252
100
AcDbEntity
  8
1
 62
     3
100
AcDbLine
 10
-60.20951675783442
 20
-0.8999999999999308
 30
0.0
 11
-61.27740077784892
 21
-0.8999999999999912
 31
0.0
  0
LINE
  5
15D
330
252
100
AcDbEntity
  8
1
  6
DASHED
 62
     3
100
AcDbLine
 10
-63.60951675783447
 20
-1.49999999999996
 30
0.0
 11
-63.60951675783447
 21
1.500000000000039
 31
0.0
  0
LINE
  5
15E
330
252
100
AcDbEntity
  8
1
  6
DASHED
 62
     3
100
AcDbLine
 10
-64.20951675783442
 20
0.9000000000000163
 30
0.0
 11
-63.60951675783447
 21
1.500000000000039
 31
0.0
  0
LINE
  5
15F
330
252
100
AcDbEntity
  8
1
  6
DASHED
 62
     3
100
AcDbLine
 10
-64.20951675783442
 20
-0.8999999999999308
 30
0.0
 11
-64.20951675783442
 21
0.9000000000000163
 31
0.0
  0
LINE
  5
160
330
252
100
AcDbEntity
  8
1
  6
DASHED
 62
     3
100
AcDbLine
 10
-63.60951675783447
 20
-1.49999999999996
 30
0.0
 11
-64.20951675783442
 21
-0.8999999999999308
 31
0.0
  0
LINE
  5
161
330
252
100
AcDbEntity
  8
1
 62
     7
100
AcDbLine
 10
-60.50951675783455
 20
-1.49999999999996
 30
0.0
 11
-61.40004173852343
 21
-1.500000000000011
 31
0.0
  0
LINE
  5
162
330
252
100
AcDbEntity
  8
1
 62
     7
100
AcDbLine
 10
-60.20951675783442
 20
0.9803847577293716
 30
0.0
 11
-60.20951675783442
 21
-0.9803847577292792
 31
0.0
  0
LINE
  5
163
330
252
100
AcDbEntity
  8
1
 62
     7
100
AcDbLine
 10
-60.50951675783455
 20
1.500000000000039
 30
0.0
 11
-60.20951675783442
 21
0.9803847577293716
 31
0.0
  0
LINE
  5
164
330
252
100
AcDbEntity
  8
1
 62
     7
100
AcDbLine
 10
-60.50951675783455
 20
-1.49999999999996
 30
0.0
 11
-60.50951675783455
 21
1.500000000000039
 31
0.0
  0
LINE
  5
165
330
252
100
AcDbEntity
  8
1
 62
     7
100
AcDbLine
 10
-60.20951675783442
 20
-0.9803847577292792
 30
0.0
 11
-60.50951675783455
 21
-1.49999999999996
 31
0.0
  0
LINE
  5
166
330
252
100
AcDbEntity
  8
1
  6
DASHED
 62
     3
100
AcDbLine
 10
-61.40004173852343
 20
1.499999999999968
 30
0.0
 11
-64.61144054648112
 21
1.49999999999998
 31
0.0
  0
LINE
  5
167
330
252
100
AcDbEntity
  8
1
  6
DASHED
 62
     3
100
AcDbLine
 10
-61.27740077784892
 20
0.8999999999999593
 30
0.0
 11
-64.34769915358351
 21
0.8999999999999593
 31
0.0
  0
LINE
  5
168
330
252
100
AcDbEntity
  8
1
  6
DASHED
 62
     3
100
AcDbLine
 10
-61.27740077784892
 20
-0.8999999999999912
 30
0.0
 11
-64.34769915358351
 21
-0.8999999999999912
 31
0.0
  0
LINE
  5
169
330
252
100
AcDbEntity
  8
1
  6
DASHED
 62
     3
100
AcDbLine
 10
-61.40004173852343
 20
-1.500000000000011
 30
0.0
 11
-64.61144054648112
 21
-1.500000000000011
 31
0.0
  0
LINE
  5
16A
330
252
100
AcDbEntity
  8
1
 62
     7
100
AcDbLine
 10
90.32618910515422
 20
6.999999999999968
 30
0.0
 11
92.28695862061284
 21
6.999999999999968
 31
0.0
  0
LINE
  5
16B
330
252
100
AcDbEntity
  8
1
 62
     7
100
AcDbLine
 10
92.28695862061284
 20
6.999999999999968
 30
0.0
 11
92.80657386288373
 21
6.699999999999969
 31
0.0
  0
LINE
  5
16C
330
252
100
AcDbEntity
  8
1
 62
     7
100
AcDbLine
 10
92.80657386288373
 20
6.699999999999969
 30
0.0
 11
89.80657386288374
 21
6.699999999999969
 31
0.0
  0
LINE
  5
16D
330
252
100
AcDbEntity
  8
1
 62
     7
100
AcDbLine
 10
89.80657386288374
 20
6.699999999999969
 30
0.0
 11
90.32618910515422
 21
6.999999999999968
 31
0.0
  0
LINE
  5
16E
330
252
100
AcDbEntity
  8
1
 62
     7
100
AcDbLine
 10
92.80657386288373
 20
5.999999999999995
 30
0.0
 11
92.80657386288373
 21
6.699999999999969
 31
0.0
  0
LINE
  5
16F
330
252
100
AcDbEntity
  8
1
 62
     3
100
AcDbLine
 10
92.20657386288349
 20
5.999999999999995
 30
0.0
 11
92.20657386288349
 21
6.999999999999968
 31
0.0
  0
LINE
  5
170
330
252
100
AcDbEntity
  8
1
 62
     3
100
AcDbLine
 10
90.40657386288359
 20
5.999999999999995
 30
0.0
 11
90.40657386288359
 21
6.999999999999968
 31
0.0
  0
LINE
  5
171
330
252
100
AcDbEntity
  8
1
 62
     7
100
AcDbLine
 10
89.80657386288374
 20
5.999999999999995
 30
0.0
 11
89.80657386288374
 21
6.699999999999969
 31
0.0
  0
LINE
  5
172
330
252
100
AcDbEntity
  8
1
  6
DASHDOT
 62
     3
100
AcDbLine
 10
93.24745822651779
 20
0.0
 30
0.0
 11
89.36568949924945
 21
0.0
 31
0.0
  0
LINE
  5
173
330
252
100
AcDbEntity
  8
1
  6
DASHDOT
 62
     3
100
AcDbLine
 10
91.30657386288362
 20
1.940884363634167
 30
0.0
 11
91.30657386288362
 21
-1.940884363634167
 31
0.0
  0
LINE
  5
174
330
252
100
AcDbEntity
  8
1
  6
DASHDOT
 62
     3
100
AcDbLine
 10
91.30657386288362
 20
7.511677884492268
 30
0.0
 11
91.30657386288362
 21
5.511677884492268
 31
0.0
  0
LINE
  5
175
330
252
100
AcDbEntity
  8
1
 62
     3
100
AcDbLine
 10
95.30657386288362
 20
-30.17243730613214
 30
0.0
 11
98.30657386288363
 21
-30.17243730613214
 31
0.0
  0
LINE
  5
176
330
252
100
AcDbEntity
  8
1
 62
     3
100
AcDbLine
 10
95.30657386288362
 20
-29.67243730613215
 30
0.0
 11
98.30657386288363
 21
-29.67243730613215
 31
0.0
  0
LINE
  5
177
330
252
100
AcDbEntity
  8
1
 62
     3
100
AcDbLine
 10
95.30657386288362
 20
-29.17243730613215
 30
0.0
 11
98.30657386288363
 21
-29.17243730613215
 31
0.0
  0
LINE
  5
178
330
252
100
AcDbEntity
  8
1
 62
     3
100
AcDbLine
 10
95.30657386288362
 20
-28.67243730613214
 30
0.0
 11
98.30657386288363
 21
-28.67243730613214
 31
0.0
  0
LINE
  5
179
330
252
100
AcDbEntity
  8
1
 62
     3
100
AcDbLine
 10
95.30657386288362
 20
-28.17243730613215
 30
0.0
 11
98.30657386288363
 21
-28.17243730613215
 31
0.0
  0
LINE
  5
17A
330
252
100
AcDbEntity
  8
1
 62
     3
100
AcDbLine
 10
95.30657386288362
 20
-27.67243730613214
 30
0.0
 11
98.30657386288363
 21
-27.67243730613214
 31
0.0
  0
LINE
  5
17B
330
252
100
AcDbEntity
  8
1
 62
     3
100
AcDbLine
 10
95.30657386288362
 20
-27.17243730613215
 30
0.0
 11
98.30657386288363
 21
-27.17243730613215
 31
0.0
  0
LINE
  5
17C
330
252
100
AcDbEntity
  8
1
 62
     3
100
AcDbLine
 10
95.30657386288362
 20
-26.67243730613215
 30
0.0
 11
98.30657386288363
 21
-26.67243730613215
 31
0.0
  0
LINE
  5
17D
330
252
100
AcDbEntity
  8
1
 62
     3
100
AcDbLine
 10
95.30657386288362
 20
-26.17243730613215
 30
0.0
 11
98.30657386288363
 21
-26.17243730613215
 31
0.0
  0
LINE
  5
17E
330
252
100
AcDbEntity
  8
1
 62
     3
100
AcDbLine
 10
95.30657386288362
 20
-25.67243730613215
 30
0.0
 11
98.30657386288363
 21
-25.67243730613215
 31
0.0
  0
LINE
  5
17F
330
252
100
AcDbEntity
  8
1
 62
     3
100
AcDbLine
 10
95.30657386288362
 20
-25.17243730613214
 30
0.0
 11
98.30657386288363
 21
-25.17243730613214
 31
0.0
  0
LINE
  5
180
330
252
100
AcDbEntity
  8
1
 62
     3
100
AcDbLine
 10
95.30657386288362
 20
-24.67243730613215
 30
0.0
 11
98.30657386288363
 21
-24.67243730613215
 31
0.0
  0
LINE
  5
181
330
252
100
AcDbEntity
  8
1
 62
     3
100
AcDbLine
 10
95.30657386288362
 20
-24.17243730613215
 30
0.0
 11
98.30657386288363
 21
-24.17243730613215
 31
0.0
  0
LINE
  5
182
330
252
100
AcDbEntity
  8
1
 62
     3
100
AcDbLine
 10
95.30657386288362
 20
-23.67243730613215
 30
0.0
 11
98.30657386288363
 21
-23.67243730613215
 31
0.0
  0
LINE
  5
183
330
252
100
AcDbEntity
  8
1
 62
     3
100
AcDbLine
 10
95.30657386288362
 20
-23.17243730613215
 30
0.0
 11
98.30657386288363
 21
-23.17243730613215
 31
0.0
  0
LINE
  5
184
330
252
100
AcDbEntity
  8
1
 62
     3
100
AcDbLine
 10
95.30657386288362
 20
-22.67243730613214
 30
0.0
 11
98.30657386288363
 21
-22.67243730613214
 31
0.0
  0
LINE
  5
185
330
252
100
AcDbEntity
  8
1
 62
     3
100
AcDbLine
 10
95.30657386288362
 20
-22.17243730613215
 30
0.0
 11
98.30657386288363
 21
-22.17243730613215
 31
0.0
  0
LINE
  5
186
330
252
100
AcDbEntity
  8
1
 62
     3
100
AcDbLine
 10
95.30657386288362
 20
-21.67243730613213
 30
0.0
 11
98.30657386288363
 21
-21.67243730613213
 31
0.0
  0
LINE
  5
187
330
252
100
AcDbEntity
  8
1
 62
     3
100
AcDbLine
 10
95.30657386288362
 20
-21.17243730613214
 30
0.0
 11
98.30657386288363
 21
-21.17243730613214
 31
0.0
  0
LINE
  5
188
330
252
100
AcDbEntity
  8
1
 62
     3
100
AcDbLine
 10
95.30657386288362
 20
-20.67243730613214
 30
0.0
 11
98.30657386288363
 21
-20.67243730613214
 31
0.0
  0
LINE
  5
189
330
252
100
AcDbEntity
  8
1
 62
     3
100
AcDbLine
 10
95.30657386288362
 20
-20.17243730613214
 30
0.0
 11
98.30657386288363
 21
-20.17243730613214
 31
0.0
  0
LINE
  5
18A
330
252
100
AcDbEntity
  8
1
 62
     3
100
AcDbLine
 10
95.30657386288362
 20
-19.67243730613214
 30
0.0
 11
98.30657386288363
 21
-19.67243730613214
 31
0.0
  0
LINE
  5
18B
330
252
100
AcDbEntity
  8
1
 62
     3
100
AcDbLine
 10
95.30657386288362
 20
-19.17243730613214
 30
0.0
 11
98.30657386288363
 21
-19.17243730613214
 31
0.0
  0
LINE
  5
18C
330
252
100
AcDbEntity
  8
1
 62
     3
100
AcDbLine
 10
95.30657386288362
 20
-18.67243730613214
 30
0.0
 11
98.30657386288363
 21
-18.67243730613214
 31
0.0
  0
LINE
  5
18D
330
252
100
AcDbEntity
  8
1
 62
     3
100
AcDbLine
 10
95.30657386288362
 20
-18.17243730613214
 30
0.0
 11
98.30657386288363
 21
-18.17243730613214
 31
0.0
  0
LINE
  5
18E
330
252
100
AcDbEntity
  8
1
 62
     3
100
AcDbLine
 10
95.30657386288362
 20
-17.67243730613214
 30
0.0
 11
98.30657386288363
 21
-17.67243730613214
 31
0.0
  0
LINE
  5
18F
330
252
100
AcDbEntity
  8
1
 62
     3
100
AcDbLine
 10
95.30657386288362
 20
-17.17243730613214
 30
0.0
 11
98.30657386288363
 21
-17.17243730613214
 31
0.0
  0
LINE
  5
190
330
252
100
AcDbEntity
  8
1
 62
     3
100
AcDbLine
 10
95.30657386288362
 20
-16.67243730613214
 30
0.0
 11
98.30657386288363
 21
-16.67243730613214
 31
0.0
  0
LINE
  5
191
330
252
100
AcDbEntity
  8
1
 62
     3
100
AcDbLine
 10
95.30657386288362
 20
-16.17243730613214
 30
0.0
 11
98.30657386288363
 21
-16.17243730613214
 31
0.0
  0
LINE
  5
192
330
252
100
AcDbEntity
  8
1
 62
     3
100
AcDbLine
 10
95.30657386288362
 20
-15.67243730613214
 30
0.0
 11
98.30657386288363
 21
-15.67243730613214
 31
0.0
  0
LINE
  5
193
330
252
100
AcDbEntity
  8
1
 62
     3
100
AcDbLine
 10
95.30657386288362
 20
-15.17243730613214
 30
0.0
 11
98.30657386288363
 21
-15.17243730613214
 31
0.0
  0
LINE
  5
194
330
252
100
AcDbEntity
  8
1
 62
     3
100
AcDbLine
 10
95.30657386288362
 20
-14.67243730613215
 30
0.0
 11
98.30657386288363
 21
-14.67243730613215
 31
0.0
  0
LINE
  5
195
330
252
100
AcDbEntity
  8
1
 62
     3
100
AcDbLine
 10
95.30657386288362
 20
-14.17243730613215
 30
0.0
 11
98.30657386288363
 21
-14.17243730613215
 31
0.0
  0
LINE
  5
196
330
252
100
AcDbEntity
  8
1
 62
     3
100
AcDbLine
 10
95.30657386288362
 20
-13.67243730613215
 30
0.0
 11
98.30657386288363
 21
-13.67243730613215
 31
0.0
  0
LINE
  5
197
330
252
100
AcDbEntity
  8
1
 62
     3
100
AcDbLine
 10
95.30657386288362
 20
-13.17243730613214
 30
0.0
 11
98.30657386288363
 21
-13.17243730613214
 31
0.0
  0
LINE
  5
198
330
252
100
AcDbEntity
  8
1
 62
     3
100
AcDbLine
 10
95.30657386288362
 20
-12.67243730613214
 30
0.0
 11
98.30657386288363
 21
-12.67243730613214
 31
0.0
  0
LINE
  5
199
330
252
100
AcDbEntity
  8
1
 62
     3
100
AcDbLine
 10
95.30657386288362
 20
-12.17243730613215
 30
0.0
 11
98.30657386288363
 21
-12.17243730613215
 31
0.0
  0
LINE
  5
19A
330
252
100
AcDbEntity
  8
1
 62
     3
100
AcDbLine
 10
95.30657386288362
 20
-11.67243730613215
 30
0.0
 11
98.30657386288363
 21
-11.67243730613215
 31
0.0
  0
LINE
  5
19B
330
252
100
AcDbEntity
  8
1
 62
     3
100
AcDbLine
 10
95.30657386288362
 20
-11.17243730613215
 30
0.0
 11
98.30657386288363
 21
-11.17243730613215
 31
0.0
  0
LINE
  5
19C
330
252
100
AcDbEntity
  8
1
 62
     3
100
AcDbLine
 10
95.30657386288362
 20
-10.67243730613215
 30
0.0
 11
98.30657386288363
 21
-10.67243730613215
 31
0.0
  0
LINE
  5
19D
330
252
100
AcDbEntity
  8
1
 62
     3
100
AcDbLine
 10
95.30657386288362
 20
-10.17243730613215
 30
0.0
 11
98.30657386288363
 21
-10.17243730613215
 31
0.0
  0
LINE
  5
19E
330
252
100
AcDbEntity
  8
1
 62
     3
100
AcDbLine
 10
95.30657386288362
 20
-9.672437306132147
 30
0.0
 11
98.30657386288363
 21
-9.672437306132147
 31
0.0
  0
LINE
  5
19F
330
252
100
AcDbEntity
  8
1
 62
     3
100
AcDbLine
 10
95.30657386288362
 20
-9.172437306132147
 30
0.0
 11
98.30657386288363
 21
-9.172437306132147
 31
0.0
  0
LINE
  5
1A0
330
252
100
AcDbEntity
  8
1
 62
     3
100
AcDbLine
 10
95.30657386288362
 20
-8.672437306132149
 30
0.0
 11
98.30657386288363
 21
-8.672437306132149
 31
0.0
  0
LINE
  5
1A1
330
252
100
AcDbEntity
  8
1
 62
     3
100
AcDbLine
 10
95.30657386288362
 20
-8.172437306132149
 30
0.0
 11
98.30657386288363
 21
-8.172437306132149
 31
0.0
  0
LINE
  5
1A2
330
252
100
AcDbEntity
  8
1
 62
     3
100
AcDbLine
 10
95.30657386288362
 20
-7.672437306132147
 30
0.0
 11
98.30657386288363
 21
-7.672437306132147
 31
0.0
  0
LINE
  5
1A3
330
252
100
AcDbEntity
  8
1
 62
     3
100
AcDbLine
 10
95.30657386288362
 20
-7.172437306132147
 30
0.0
 11
98.30657386288363
 21
-7.172437306132147
 31
0.0
  0
LINE
  5
1A4
330
252
100
AcDbEntity
  8
1
 62
     3
100
AcDbLine
 10
95.30657386288362
 20
-6.672437306132147
 30
0.0
 11
98.30657386288363
 21
-6.672437306132147
 31
0.0
  0
LINE
  5
1A5
330
252
100
AcDbEntity
  8
1
 62
     3
100
AcDbLine
 10
95.30657386288362
 20
-6.172437306132147
 30
0.0
 11
98.30657386288363
 21
-6.172437306132147
 31
0.0
  0
LINE
  5
1A6
330
252
100
AcDbEntity
  8
1
 62
     3
100
AcDbLine
 10
95.30657386288362
 20
-5.672437306132147
 30
0.0
 11
98.30657386288363
 21
-5.672437306132147
 31
0.0
  0
LINE
  5
1A7
330
252
100
AcDbEntity
  8
1
 62
     3
100
AcDbLine
 10
95.30657386288362
 20
-5.172437306132147
 30
0.0
 11
98.30657386288363
 21
-5.172437306132147
 31
0.0
  0
LINE
  5
1A8
330
252
100
AcDbEntity
  8
1
 62
     3
100
AcDbLine
 10
95.30657386288362
 20
-4.672437306132147
 30
0.0
 11
98.30657386288363
 21
-4.672437306132147
 31
0.0
  0
LINE
  5
1A9
330
252
100
AcDbEntity
  8
1
 62
     3
100
AcDbLine
 10
95.30657386288362
 20
-4.172437306132148
 30
0.0
 11
98.30657386288363
 21
-4.172437306132148
 31
0.0
  0
LINE
  5
1AA
330
252
100
AcDbEntity
  8
1
 62
     3
100
AcDbLine
 10
95.30657386288362
 20
-3.672437306132148
 30
0.0
 11
98.30657386288363
 21
-3.672437306132148
 31
0.0
  0
LINE
  5
1AB
330
252
100
AcDbEntity
  8
1
 62
     3
100
AcDbLine
 10
95.30657386288362
 20
-3.172437306132148
 30
0.0
 11
98.30657386288363
 21
-3.172437306132148
 31
0.0
  0
LINE
  5
1AC
330
252
100
AcDbEntity
  8
1
 62
     3
100
AcDbLine
 10
95.30657386288362
 20
-2.672437306132148
 30
0.0
 11
98.30657386288363
 21
-2.672437306132148
 31
0.0
  0
LINE
  5
1AD
330
252
100
AcDbEntity
  8
1
 62
     3
100
AcDbLine
 10
95.30657386288362
 20
-2.172437306132148
 30
0.0
 11
98.30657386288363
 21
-2.172437306132148
 31
0.0
  0
LINE
  5
1AE
330
252
100
AcDbEntity
  8
1
 62
     3
100
AcDbLine
 10
95.30657386288362
 20
-1.672437306132148
 30
0.0
 11
98.30657386288363
 21
-1.672437306132148
 31
0.0
  0
LINE
  5
1AF
330
252
100
AcDbEntity
  8
1
 62
     3
100
AcDbLine
 10
95.30657386288362
 20
-1.172437306132148
 30
0.0
 11
98.30657386288363
 21
-1.172437306132148
 31
0.0
  0
LINE
  5
1B0
330
252
100
AcDbEntity
  8
1
 62
     3
100
AcDbLine
 10
95.30657386288362
 20
-0.6724373061321494
 30
0.0
 11
98.30657386288363
 21
-0.6724373061321494
 31
0.0
  0
LINE
  5
1B1
330
252
100
AcDbEntity
  8
1
 62
     3
100
AcDbLine
 10
95.30657386288362
 20
0.8275626938678469
 30
0.0
 11
98.30657386288363
 21
0.8275626938678469
 31
0.0
  0
LINE
  5
1B2
330
252
100
AcDbEntity
  8
1
 62
     3
100
AcDbLine
 10
95.30657386288362
 20
1.327562693867845
 30
0.0
 11
98.30657386288363
 21
1.327562693867845
 31
0.0
  0
LINE
  5
1B3
330
252
100
AcDbEntity
  8
1
 62
     3
100
AcDbLine
 10
95.30657386288362
 20
1.827562693867847
 30
0.0
 11
98.30657386288363
 21
1.827562693867847
 31
0.0
  0
LINE
  5
1B4
330
252
100
AcDbEntity
  8
1
 62
     3
100
AcDbLine
 10
95.30657386288362
 20
2.327562693867846
 30
0.0
 11
98.30657386288363
 21
2.327562693867846
 31
0.0
  0
LINE
  5
1B5
330
252
100
AcDbEntity
  8
1
 62
     3
100
AcDbLine
 10
95.30657386288362
 20
2.827562693867846
 30
0.0
 11
98.30657386288363
 21
2.827562693867846
 31
0.0
  0
LINE
  5
1B6
330
252
100
AcDbEntity
  8
1
 62
     3
100
AcDbLine
 10
95.30657386288362
 20
3.327562693867846
 30
0.0
 11
98.30657386288363
 21
3.327562693867846
 31
0.0
  0
LINE
  5
1B7
330
252
100
AcDbEntity
  8
1
 62
     3
100
AcDbLine
 10
95.30657386288362
 20
3.827562693867846
 30
0.0
 11
98.30657386288363
 21
3.827562693867846
 31
0.0
  0
LINE
  5
1B8
330
252
100
AcDbEntity
  8
1
 62
     3
100
AcDbLine
 10
95.30657386288362
 20
4.327562693867847
 30
0.0
 11
98.30657386288363
 21
4.327562693867847
 31
0.0
  0
LINE
  5
1B9
330
252
100
AcDbEntity
  8
1
 62
     3
100
AcDbLine
 10
95.30657386288362
 20
4.827562693867847
 30
0.0
 11
98.30657386288363
 21
4.827562693867847
 31
0.0
  0
LINE
  5
1BA
330
252
100
AcDbEntity
  8
1
 62
     3
100
AcDbLine
 10
95.30657386288362
 20
5.327562693867847
 30
0.0
 11
98.30657386288363
 21
5.327562693867847
 31
0.0
  0
LINE
  5
1BB
330
252
100
AcDbEntity
  8
1
 62
     3
100
AcDbLine
 10
95.30657386288362
 20
5.827562693867847
 30
0.0
 11
98.30657386288363
 21
5.827562693867847
 31
0.0
  0
LINE
  5
1BC
330
252
100
AcDbEntity
  8
1
 62
     3
100
AcDbLine
 10
95.30657386288362
 20
6.327562693867847
 30
0.0
 11
98.30657386288363
 21
6.327562693867847
 31
0.0
  0
LINE
  5
1BD
330
252
100
AcDbEntity
  8
1
 62
     3
100
AcDbLine
 10
95.30657386288362
 20
6.827562693867847
 30
0.0
 11
98.30657386288363
 21
6.827562693867847
 31
0.0
  0
LINE
  5
1BE
330
252
100
AcDbEntity
  8
1
 62
     3
100
AcDbLine
 10
95.30657386288362
 20
7.327562693867846
 30
0.0
 11
98.30657386288363
 21
7.327562693867846
 31
0.0
  0
LINE
  5
1BF
330
252
100
AcDbEntity
  8
1
 62
     3
100
AcDbLine
 10
95.30657386288362
 20
7.827562693867846
 30
0.0
 11
98.30657386288363
 21
7.827562693867846
 31
0.0
  0
LINE
  5
1C0
330
252
100
AcDbEntity
  8
1
 62
     3
100
AcDbLine
 10
95.30657386288362
 20
8.327562693867847
 30
0.0
 11
98.30657386288363
 21
8.327562693867847
 31
0.0
  0
LINE
  5
1C1
330
252
100
AcDbEntity
  8
1
 62
     3
100
AcDbLine
 10
95.30657386288362
 20
8.827562693867847
 30
0.0
 11
98.30657386288363
 21
8.827562693867847
 31
0.0
  0
LINE
  5
1C2
330
252
100
AcDbEntity
  8
1
 62
     3
100
AcDbLine
 10
95.30657386288362
 20
9.327562693867848
 30
0.0
 11
98.30657386288363
 21
9.327562693867848
 31
0.0
  0
LINE
  5
1C3
330
252
100
AcDbEntity
  8
1
 62
     3
100
AcDbLine
 10
95.30657386288362
 20
9.827562693867848
 30
0.0
 11
98.30657386288363
 21
9.827562693867848
 31
0.0
  0
LINE
  5
1C4
330
252
100
AcDbEntity
  8
1
 62
     3
100
AcDbLine
 10
95.30657386288362
 20
10.32756269386784
 30
0.0
 11
98.30657386288363
 21
10.32756269386784
 31
0.0
  0
LINE
  5
1C5
330
252
100
AcDbEntity
  8
1
 62
     3
100
AcDbLine
 10
95.30657386288362
 20
10.82756269386785
 30
0.0
 11
98.30657386288363
 21
10.82756269386785
 31
0.0
  0
LINE
  5
1C6
330
252
100
AcDbEntity
  8
1
 62
     3
100
AcDbLine
 10
95.30657386288362
 20
11.32756269386785
 30
0.0
 11
98.30657386288363
 21
11.32756269386785
 31
0.0
  0
LINE
  5
1C7
330
252
100
AcDbEntity
  8
1
 62
     3
100
AcDbLine
 10
95.30657386288362
 20
11.82756269386785
 30
0.0
 11
98.30657386288363
 21
11.82756269386785
 31
0.0
  0
LINE
  5
1C8
330
252
100
AcDbEntity
  8
1
 62
     3
100
AcDbLine
 10
95.30657386288362
 20
12.32756269386785
 30
0.0
 11
98.30657386288363
 21
12.32756269386785
 31
0.0
  0
LINE
  5
1C9
330
252
100
AcDbEntity
  8
1
 62
     3
100
AcDbLine
 10
95.30657386288362
 20
12.82756269386785
 30
0.0
 11
98.30657386288363
 21
12.82756269386785
 31
0.0
  0
LINE
  5
1CA
330
252
100
AcDbEntity
  8
1
 62
     3
100
AcDbLine
 10
95.30657386288362
 20
13.32756269386785
 30
0.0
 11
98.30657386288363
 21
13.32756269386785
 31
0.0
  0
LINE
  5
1CB
330
252
100
AcDbEntity
  8
1
 62
     3
100
AcDbLine
 10
95.30657386288362
 20
13.82756269386785
 30
0.0
 11
98.30657386288363
 21
13.82756269386785
 31
0.0
  0
LINE
  5
1CC
330
252
100
AcDbEntity
  8
1
 62
     3
100
AcDbLine
 10
95.30657386288362
 20
14.32756269386785
 30
0.0
 11
98.30657386288363
 21
14.32756269386785
 31
0.0
  0
LINE
  5
1CD
330
252
100
AcDbEntity
  8
1
 62
     3
100
AcDbLine
 10
95.30657386288362
 20
14.82756269386785
 30
0.0
 11
98.30657386288363
 21
14.82756269386785
 31
0.0
  0
LINE
  5
1CE
330
252
100
AcDbEntity
  8
1
 62
     3
100
AcDbLine
 10
95.30657386288362
 20
15.32756269386785
 30
0.0
 11
98.30657386288363
 21
15.32756269386785
 31
0.0
  0
LINE
  5
1CF
330
252
100
AcDbEntity
  8
1
 62
     3
100
AcDbLine
 10
95.30657386288362
 20
15.82756269386785
 30
0.0
 11
98.30657386288363
 21
15.82756269386785
 31
0.0
  0
LINE
  5
1D0
330
252
100
AcDbEntity
  8
1
 62
     3
100
AcDbLine
 10
95.30657386288362
 20
16.32756269386785
 30
0.0
 11
98.30657386288363
 21
16.32756269386785
 31
0.0
  0
LINE
  5
1D1
330
252
100
AcDbEntity
  8
1
 62
     3
100
AcDbLine
 10
95.30657386288362
 20
16.82756269386785
 30
0.0
 11
98.30657386288363
 21
16.82756269386785
 31
0.0
  0
LINE
  5
1D2
330
252
100
AcDbEntity
  8
1
 62
     3
100
AcDbLine
 10
95.30657386288362
 20
17.32756269386785
 30
0.0
 11
98.30657386288363
 21
17.32756269386785
 31
0.0
  0
LINE
  5
1D3
330
252
100
AcDbEntity
  8
1
 62
     3
100
AcDbLine
 10
95.30657386288362
 20
17.82756269386785
 30
0.0
 11
98.30657386288363
 21
17.82756269386785
 31
0.0
  0
LINE
  5
1D4
330
252
100
AcDbEntity
  8
1
 62
     3
100
AcDbLine
 10
95.30657386288362
 20
18.32756269386784
 30
0.0
 11
98.30657386288363
 21
18.32756269386784
 31
0.0
  0
LINE
  5
1D5
330
252
100
AcDbEntity
  8
1
 62
     3
100
AcDbLine
 10
95.30657386288362
 20
18.82756269386785
 30
0.0
 11
98.30657386288363
 21
18.82756269386785
 31
0.0
  0
LINE
  5
1D6
330
252
100
AcDbEntity
  8
1
 62
     3
100
AcDbLine
 10
95.30657386288362
 20
19.32756269386785
 30
0.0
 11
98.30657386288363
 21
19.32756269386785
 31
0.0
  0
LINE
  5
1D7
330
252
100
AcDbEntity
  8
1
 62
     3
100
AcDbLine
 10
95.30657386288362
 20
19.82756269386785
 30
0.0
 11
98.30657386288363
 21
19.82756269386785
 31
0.0
  0
LINE
  5
1D8
330
252
100
AcDbEntity
  8
1
 62
     3
100
AcDbLine
 10
95.30657386288362
 20
20.32756269386785
 30
0.0
 11
98.30657386288363
 21
20.32756269386785
 31
0.0
  0
LINE
  5
1D9
330
252
100
AcDbEntity
  8
1
 62
     3
100
AcDbLine
 10
95.30657386288362
 20
20.82756269386785
 30
0.0
 11
98.30657386288363
 21
20.82756269386785
 31
0.0
  0
LINE
  5
1DA
330
252
100
AcDbEntity
  8
1
 62
     3
100
AcDbLine
 10
95.30657386288362
 20
21.32756269386785
 30
0.0
 11
98.30657386288363
 21
21.32756269386785
 31
0.0
  0
LINE
  5
1DB
330
252
100
AcDbEntity
  8
1
 62
     3
100
AcDbLine
 10
95.30657386288362
 20
21.82756269386785
 30
0.0
 11
98.30657386288363
 21
21.82756269386785
 31
0.0
  0
LINE
  5
1DC
330
252
100
AcDbEntity
  8
1
 62
     3
100
AcDbLine
 10
95.30657386288362
 20
22.32756269386785
 30
0.0
 11
98.30657386288363
 21
22.32756269386785
 31
0.0
  0
LINE
  5
1DD
330
252
100
AcDbEntity
  8
1
 62
     3
100
AcDbLine
 10
95.30657386288362
 20
22.82756269386785
 30
0.0
 11
98.30657386288363
 21
22.82756269386785
 31
0.0
  0
LINE
  5
1DE
330
252
100
AcDbEntity
  8
1
 62
     3
100
AcDbLine
 10
95.30657386288362
 20
23.32756269386785
 30
0.0
 11
98.30657386288363
 21
23.32756269386785
 31
0.0
  0
LINE
  5
1DF
330
252
100
AcDbEntity
  8
1
 62
     3
100
AcDbLine
 10
95.30657386288362
 20
23.82756269386784
 30
0.0
 11
98.30657386288363
 21
23.82756269386784
 31
0.0
  0
LINE
  5
1E0
330
252
100
AcDbEntity
  8
1
 62
     3
100
AcDbLine
 10
95.30657386288362
 20
24.32756269386785
 30
0.0
 11
98.30657386288363
 21
24.32756269386785
 31
0.0
  0
LINE
  5
1E1
330
252
100
AcDbEntity
  8
1
 62
     3
100
AcDbLine
 10
95.30657386288362
 20
24.82756269386785
 30
0.0
 11
98.30657386288363
 21
24.82756269386785
 31
0.0
  0
LINE
  5
1E2
330
252
100
AcDbEntity
  8
1
 62
     3
100
AcDbLine
 10
95.30657386288362
 20
25.32756269386785
 30
0.0
 11
98.30657386288363
 21
25.32756269386785
 31
0.0
  0
LINE
  5
1E3
330
252
100
AcDbEntity
  8
1
 62
     3
100
AcDbLine
 10
95.30657386288362
 20
25.82756269386785
 30
0.0
 11
98.30657386288363
 21
25.82756269386785
 31
0.0
  0
LINE
  5
1E4
330
252
100
AcDbEntity
  8
1
 62
     3
100
AcDbLine
 10
95.30657386288362
 20
26.32756269386785
 30
0.0
 11
98.30657386288363
 21
26.32756269386785
 31
0.0
  0
LINE
  5
1E5
330
252
100
AcDbEntity
  8
1
 62
     3
100
AcDbLine
 10
95.30657386288362
 20
26.82756269386785
 30
0.0
 11
98.30657386288363
 21
26.82756269386785
 31
0.0
  0
LINE
  5
1E6
330
252
100
AcDbEntity
  8
1
 62
     3
100
AcDbLine
 10
95.30657386288362
 20
27.32756269386785
 30
0.0
 11
98.30657386288363
 21
27.32756269386785
 31
0.0
  0
LINE
  5
1E7
330
252
100
AcDbEntity
  8
1
 62
     3
100
AcDbLine
 10
95.30657386288362
 20
27.82756269386785
 30
0.0
 11
98.30657386288363
 21
27.82756269386785
 31
0.0
  0
LINE
  5
1E8
330
252
100
AcDbEntity
  8
1
 62
     3
100
AcDbLine
 10
95.30657386288362
 20
28.32756269386785
 30
0.0
 11
98.30657386288363
 21
28.32756269386785
 31
0.0
  0
LINE
  5
1E9
330
252
100
AcDbEntity
  8
1
 62
     3
100
AcDbLine
 10
95.30657386288362
 20
28.82756269386785
 30
0.0
 11
98.30657386288363
 21
28.82756269386785
 31
0.0
  0
LINE
  5
1EA
330
252
100
AcDbEntity
  8
1
 62
     3
100
AcDbLine
 10
95.30657386288362
 20
29.32756269386785
 30
0.0
 11
98.30657386288363
 21
29.32756269386785
 31
0.0
  0
LINE
  5
1EB
330
252
100
AcDbEntity
  8
1
 62
     3
100
AcDbLine
 10
95.30657386288362
 20
29.82756269386785
 30
0.0
 11
98.30657386288363
 21
29.82756269386785
 31
0.0
  0
ARC
  5
1EC
330
252
100
AcDbEntity
  8
1
 62
     7
100
AcDbCircle
 10
33.84600143495891
 20
27.64714388211344
 30
0.0
 40
2.999999999999976
100
AcDbArc
 50
14.53385610839318
 51
56.5414994755558
  0
ARC
  5
1ED
330
252
100
AcDbEntity
  8
1
 62
     7
100
AcDbCircle
 10
34.15399856504097
 20
27.64714388211344
 30
0.0
 40
2.999999999999916
100
AcDbArc
 50
123.4585005244424
 51
165.4661438916062
  0
ARC
  5
1EE
330
252
100
AcDbEntity
  8
1
  6
DASHED
 62
     3
100
AcDbCircle
 10
-67.36351532287561
 20
-27.64714388211353
 30
0.0
 40
3.000000000000051
100
AcDbArc
 50
303.4585005244458
 51
345.4661438916072
  0
ARC
  5
1EF
330
252
100
AcDbEntity
  8
1
 62
     7
100
AcDbCircle
 10
-75.46445608951149
 20
-11.52892477860327
 30
0.0
 40
6.343676533042232
100
AcDbArc
 50
338.9817040500531
 51
0.0
  0
ARC
  5
1F0
330
252
100
AcDbEntity
  8
1
 62
     7
100
AcDbCircle
 10
-58.95457742615754
 20
-11.52892477860327
 30
0.0
 40
6.343676533042012
100
AcDbArc
 50
180.0
 51
201.018295949948
  0
ARC
  5
1F1
330
252
100
AcDbEntity
  8
1
 62
     7
100
AcDbCircle
 10
-67.20951675783442
 20
-0.825000000000031
 30
0.0
 40
12.52500000000014
100
AcDbArc
 50
306.6859416250185
 51
233.3140583749821
  0
ARC
  5
1F2
330
252
100
AcDbEntity
  8
1
 62
     7
100
AcDbCircle
 10
-70.68077955646917
 20
-13.83451416111631
 30
0.0
 40
3.865589382512969
100
AcDbArc
 50
90.0
 51
129.123260047015
  0
ARC
  5
1F3
330
252
100
AcDbEntity
  8
1
 62
     7
100
AcDbCircle
 10
-63.73825395919945
 20
-13.83451416111631
 30
0.0
 40
3.865589382513098
100
AcDbArc
 50
50.87673995298423
 51
90.0
  0
ARC
  5
1F4
330
252
100
AcDbEntity
  8
1
 62
     7
100
AcDbCircle
 10
-70.68077955646917
 20
-11.52892477860327
 30
0.0
 40
1.55999999999993
100
AcDbArc
 50
0.0
 51
90.0
  0
ARC
  5
1F5
330
252
100
AcDbEntity
  8
1
 62
     7
100
AcDbCircle
 10
-63.73825395919945
 20
-11.52892477860327
 30
0.0
 40
1.560000000000058
100
AcDbArc
 50
90.0
 51
180.0
  0
ARC
  5
1F6
330
252
100
AcDbEntity
  8
1
  6
DASHED
 62
     3
100
AcDbCircle
 10
-67.36351532287561
 20
27.64714388211344
 30
0.0
 40
3.000000000000087
100
AcDbArc
 50
14.53385610839263
 51
56.54149947555399
  0
ARC
  5
1F7
330
252
100
AcDbEntity
  8
1
 62
     7
100
AcDbCircle
 10
14.84600143495891
 20
-27.6471438821135
 30
0.0
 40
2.999999999999984
100
AcDbArc
 50
303.4585005244441
 51
345.4661438916066
  0
ARC
  5
1F8
330
252
100
AcDbEntity
  8
1
 62
     7
100
AcDbCircle
 10
15.15399856504098
 20
-27.6471438821135
 30
0.0
 40
2.999999999999868
100
AcDbArc
 50
194.5338561083939
 51
236.5414994755576
  0
ARC
  5
1F9
330
252
100
AcDbEntity
  8
1
 62
     7
100
AcDbCircle
 10
14.84600143495891
 20
27.64714388211344
 30
0.0
 40
2.999999999999975
100
AcDbArc
 50
14.53385610839318
 51
56.54149947555584
  0
ARC
  5
1FA
330
252
100
AcDbEntity
  8
1
 62
     7
100
AcDbCircle
 10
15.15399856504098
 20
27.64714388211344
 30
0.0
 40
2.999999999999917
100
AcDbArc
 50
123.4585005244424
 51
165.4661438916062
  0
ARC
  5
1FB
330
252
100
AcDbEntity
  8
1
 62
     7
100
AcDbCircle
 10
103.3065738628835
 20
15.32673534524603
 30
0.0
 40
3.0
100
AcDbArc
 50
180.0
 51
0.0
  0
ARC
  5
1FC
330
252
100
AcDbEntity
  8
1
 62
     7
100
AcDbCircle
 10
103.3065738628835
 20
14.22775681356649
 30
0.0
 40
1.699999999999888
100
AcDbArc
 50
180.0
 51
0.0
  0
ARC
  5
1FD
330
252
100
AcDbEntity
  8
1
 62
     7
100
AcDbCircle
 10
103.4605724279247
 20
27.64714388211347
 30
0.0
 40
2.999999999999987
100
AcDbArc
 50
123.4585005244444
 51
165.4661438916068
  0
ARC
  5
1FE
330
252
100
AcDbEntity
  8
1
 62
     7
100
AcDbCircle
 10
103.1525752978424
 20
27.64714388211347
 30
0.0
 40
2.999999999999976
100
AcDbArc
 50
14.53385610839318
 51
56.5414994755558
  0
ARC
  5
1FF
330
252
100
AcDbEntity
  8
1
 62
     7
100
AcDbCircle
 10
-67.20951675783442
 20
-0.0000000000000391
 30
0.0
 40
30.25000000000012
100
AcDbArc
 50
0.9470808058364427
 51
359.0529191941635
  0
ARC
  5
200
330
252
100
AcDbEntity
  8
1
  6
DASHDOT
 62
     3
100
AcDbCircle
 10
-67.20951675783442
 20
-0.0000000000000391
 30
0.0
 40
20.00000000000004
100
AcDbArc
 50
52.65579957615217
 51
67.34420042384638
  0
ARC
  5
201
330
252
100
AcDbEntity
  8
1
  6
DASHDOT
 62
     3
100
AcDbCircle
 10
-67.20951675783442
 20
-0.0000000000000391
 30
0.0
 40
20.00000000000008
100
AcDbArc
 50
292.6557995761525
 51
307.3442004238468
  0
ARC
  5
202
330
252
100
AcDbEntity
  8
1
  6
DASHDOT
 62
     3
100
AcDbCircle
 10
-67.20951675783442
 20
-0.0000000000000391
 30
0.0
 40
19.99999999999992
100
AcDbArc
 50
172.6557995761524
 51
187.3442004238468
  0
ARC
  5
203
330
252
100
AcDbEntity
  8
1
 62
     7
100
AcDbCircle
 10
-73.92759913115293
 20
-9.84261577276993
 30
0.0
 40
1.279999999999984
100
AcDbArc
 50
233.3140583749898
 51
309.1232600470208
  0
ARC
  5
204
330
252
100
AcDbEntity
  8
1
 62
     7
100
AcDbCircle
 10
-60.49143438451579
 20
-9.84261577276993
 30
0.0
 40
1.280000000000002
100
AcDbArc
 50
230.8767399529831
 51
306.6859416250125
  0
ARC
  5
205
330
252
100
AcDbEntity
  8
1
 62
     7
100
AcDbCircle
 10
38.03999999999997
 20
-13.04000000000002
 30
0.0
 40
0.9600000000000095
100
AcDbArc
 50
270.0
 51
0.0
  0
ARC
  5
206
330
252
100
AcDbEntity
  8
1
 62
     7
100
AcDbCircle
 10
31.95999999999987
 20
-13.04000000000002
 30
0.0
 40
0.9599999999998694
100
AcDbArc
 50
180.0
 51
270.0
  0
ARC
  5
207
330
252
100
AcDbEntity
  8
1
 62
     7
100
AcDbCircle
 10
31.95999999999987
 20
-6.960000000000023
 30
0.0
 40
0.95999999999999
100
AcDbArc
 50
90.0
 51
180.0
  0
ARC
  5
208
330
252
100
AcDbEntity
  8
1
 62
     7
100
AcDbCircle
 10
38.03999999999997
 20
-6.960000000000023
 30
0.0
 40
0.9600000000000436
100
AcDbArc
 50
0.0
 51
90.0
  0
ARC
  5
209
330
252
100
AcDbEntity
  8
1
 62
     7
100
AcDbCircle
 10
10.95999999999986
 20
-13.04000000000002
 30
0.0
 40
0.9599999999998694
100
AcDbArc
 50
180.0
 51
270.0
  0
ARC
  5
20A
330
252
100
AcDbEntity
  8
1
 62
     7
100
AcDbCircle
 10
17.03999999999996
 20
-13.04000000000002
 30
0.0
 40
0.9600000000000095
100
AcDbArc
 50
270.0
 51
0.0
  0
ARC
  5
20B
330
252
100
AcDbEntity
  8
1
 62
     7
100
AcDbCircle
 10
17.03999999999996
 20
-6.960000000000023
 30
0.0
 40
0.9600000000000401
100
AcDbArc
 50
0.0
 51
90.0
  0
ARC
  5
20C
330
252
100
AcDbEntity
  8
1
 62
     7
100
AcDbCircle
 10
10.95999999999986
 20
-6.960000000000023
 30
0.0
 40
0.95999999999999
100
AcDbArc
 50
90.0
 51
180.0
  0
ARC
  5
20D
330
252
100
AcDbEntity
  8
1
 62
     7
100
AcDbCircle
 10
38.03999999999997
 20
13.03999999999994
 30
0.0
 40
0.9600000000000436
100
AcDbArc
 50
0.0
 51
90.0
  0
ARC
  5
20E
330
252
100
AcDbEntity
  8
1
 62
     7
100
AcDbCircle
 10
31.95999999999987
 20
13.03999999999994
 30
0.0
 40
0.9600000000000095
100
AcDbArc
 50
90.0
 51
180.0
  0
ARC
  5
20F
330
252
100
AcDbEntity
  8
1
 62
     7
100
AcDbCircle
 10
31.95999999999987
 20
6.959999999999946
 30
0.0
 40
0.9599999999998694
100
AcDbArc
 50
180.0
 51
270.0
  0
ARC
  5
210
330
252
100
AcDbEntity
  8
1
 62
     7
100
AcDbCircle
 10
38.03999999999997
 20
6.959999999999946
 30
0.0
 40
0.9599999999999797
100
AcDbArc
 50
270.0
 51
0.0
  0
ARC
  5
211
330
252
100
AcDbEntity
  8
1
 62
     7
100
AcDbCircle
 10
10.95999999999986
 20
13.03999999999997
 30
0.0
 40
0.9599999999999884
100
AcDbArc
 50
90.0
 51
180.0
  0
ARC
  5
212
330
252
100
AcDbEntity
  8
1
 62
     7
100
AcDbCircle
 10
17.03999999999996
 20
13.03999999999997
 30
0.0
 40
0.9600000000000401
100
AcDbArc
 50
0.0
 51
90.0
  0
ARC
  5
213
330
252
100
AcDbEntity
  8
1
 62
     7
100
AcDbCircle
 10
17.03999999999996
 20
6.959999999999946
 30
0.0
 40
0.9599999999999797
100
AcDbArc
 50
270.0
 51
0.0
  0
ARC
  5
214
330
252
100
AcDbEntity
  8
1
 62
     7
100
AcDbCircle
 10
10.95999999999986
 20
6.959999999999946
 30
0.0
 40
0.9599999999998694
100
AcDbArc
 50
180.0
 51
270.0
  0
ARC
  5
215
330
252
100
AcDbEntity
  8
1
  6
DASHED
 62
     3
100
AcDbCircle
 10
-67.05551819279333
 20
-27.64714388211353
 30
0.0
 40
2.999999999999979
100
AcDbArc
 50
194.5338561083933
 51
236.5414994755559
  0
ARC
  5
216
330
252
100
AcDbEntity
  8
1
  6
DASHED
 62
     3
100
AcDbCircle
 10
-67.05551819279333
 20
27.64714388211344
 30
0.0
 40
2.99999999999998
100
AcDbArc
 50
123.4585005244442
 51
165.4661438916068
  0
ARC
  5
217
330
252
100
AcDbEntity
  8
1
  6
DASHED
 62
     3
100
AcDbCircle
 10
-67.20951675783442
 20
-0.0000000000000391
 30
0.0
 40
28.0
100
AcDbArc
 50
204.7674757797357
 51
270.0
  0
ARC
  5
218
330
252
100
AcDbEntity
  8
1
  6
DASHED
 62
     3
100
AcDbCircle
 10
-67.20951675783442
 20
-0.0000000000000391
 30
0.0
 40
28.0
100
AcDbArc
 50
24.76747577973577
 51
90.0
  0
CIRCLE
  5
219
330
252
100
AcDbEntity
  8
1
 62
     7
100
AcDbCircle
 10
-67.20951675783442
 20
-0.0000000000000391
 30
0.0
 40
3.0
  0
CIRCLE
  5
21A
330
252
100
AcDbEntity
  8
1
 62
     7
100
AcDbCircle
 10
-71.01411288980263
 20
-11.86225811193659
 30
0.0
 40
1.0
  0
CIRCLE
  5
21B
330
252
100
AcDbEntity
  8
1
 62
     7
100
AcDbCircle
 10
-63.40492062586623
 20
-11.86225811193659
 30
0.0
 40
1.0
  0
CIRCLE
  5
21C
330
252
100
AcDbEntity
  8
1
 62
     7
100
AcDbCircle
 10
-67.20951675783442
 20
-0.0000000000000391
 30
0.0
 40
14.00000000000001
  0
CIRCLE
  5
21D
330
252
100
AcDbEntity
  8
1
 62
     7
100
AcDbCircle
 10
35.0
 20
-10.00000000000003
 30
0.0
 40
2.399999999999856
  0
CIRCLE
  5
21E
330
252
100
AcDbEntity
  8
1
 62
     7
100
AcDbCircle
 10
14.0
 20
-10.00000000000003
 30
0.0
 40
2.40000000000003
  0
CIRCLE
  5
21F
330
252
100
AcDbEntity
  8
1
 62
     7
100
AcDbCircle
 10
35.0
 20
9.999999999999966
 30
0.0
 40
2.399999999999856
  0
CIRCLE
  5
220
330
252
100
AcDbEntity
  8
1
 62
     7
100
AcDbCircle
 10
14.0
 20
9.999999999999966
 30
0.0
 40
2.40000000000003
  0
CIRCLE
  5
221
330
252
100
AcDbEntity
  8
1
 62
     7
100
AcDbCircle
 10
-57.20951675783418
 20
17.32050807568858
 30
0.0
 40
0.8999999999998067
  0
CIRCLE
  5
222
330
252
100
AcDbEntity
  8
1
 62
     3
100
AcDbCircle
 10
-57.20951675783418
 20
17.32050807568858
 30
0.0
 40
1.499999999999815
  0
CIRCLE
  5
223
330
252
100
AcDbEntity
  8
1
 62
     7
100
AcDbCircle
 10
-67.20951675783442
 20
-0.0000000000000391
 30
0.0
 40
5.999999999999992
  0
CIRCLE
  5
224
330
252
100
AcDbEntity
  8
1
 62
     7
100
AcDbCircle
 10
-57.20951675783454
 20
-17.32050807568892
 30
0.0
 40
0.8999999999997996
  0
CIRCLE
  5
225
330
252
100
AcDbEntity
  8
1
 62
     3
100
AcDbCircle
 10
-57.20951675783454
 20
-17.32050807568892
 30
0.0
 40
1.499999999999892
  0
CIRCLE
  5
226
330
252
100
AcDbEntity
  8
1
 62
     7
100
AcDbCircle
 10
-87.20951675783432
 20
0.0000000000001492
 30
0.0
 40
0.8999999999998067
  0
CIRCLE
  5
227
330
252
100
AcDbEntity
  8
1
 62
     3
100
AcDbCircle
 10
-87.20951675783432
 20
0.0000000000001492
 30
0.0
 40
1.499999999999884
  0
CIRCLE
  5
228
330
252
100
AcDbEntity
  8
1
 62
     7
100
AcDbCircle
 10
91.30657386288362
 20
0.0
 30
0.0
 40
1.5
  0
CIRCLE
  5
229
330
252
100
AcDbEntity
  8
1
 62
     3
100
AcDbCircle
 10
91.30657386288362
 20
0.0
 30
0.0
 40
0.8999999999998633
  0
TEXT
  5
22B
330
252
100
AcDbEntity
  8
1
 62
     7
100
AcDbText
 10
-96.90168566396611
 20
57.75794772894857
 30
0.0
 40
3.5
  1
PHT 2.5D
 41
0.9
  7
SIMPLEX
 72
     1
 11
-86.10168566396611
 21
57.75794772894857
 31
0.0
100
AcDbText
  0
ENDSEC
  0
SECTION
  2
OBJECTS
  0
DICTIONARY
  5
23E
330
0
100
AcDbDictionary
281
     1
  3
ACAD_COLOR
350
24D
  3
ACAD_GROUP
350
23F
  3
ACAD_LAYOUT
350
24B
  3
ACAD_MATERIAL
350
24C
  3
ACAD_MLINESTYLE
350
248
  3
ACAD_PLOTSETTINGS
350
24A
  3
ACAD_PLOTSTYLENAME
350
240
  0
DICTIONARY
  5
24D
102
{ACAD_REACTORS
330
23E
102
}
330
23E
100
AcDbDictionary
281
     1
  0
DICTIONARY
  5
23F
102
{ACAD_REACTORS
330
23E
102
}
330
23E
100
AcDbDictionary
281
     1
  0
DICTIONARY
  5
24B
102
{ACAD_REACTORS
330
23E
102
}
330
23E
100
AcDbDictionary
281
     1
  3
Layout1
350
251
  3
Model
350
255
  0
DICTIONARY
  5
24C
102
{ACAD_REACTORS
330
23E
102
}
330
23E
100
AcDbDictionary
281
     1
  0
DICTIONARY
  5
248
102
{ACAD_REACTORS
330
23E
102
}
330
23E
100
AcDbDictionary
281
     1
  3
Standard
350
249
  0
DICTIONARY
  5
24A
102
{ACAD_REACTORS
330
23E
102
}
330
23E
100
AcDbDictionary
281
     1
  0
ACDBDICTIONARYWDFLT
  5
240
102
{ACAD_REACTORS
330
23E
102
}
330
23E
100
AcDbDictionary
281
     1
  3
Normal
350
241
100
AcDbDictionaryWithDefault
340
241
  0
LAYOUT
  5
251
102
{ACAD_REACTORS
330
24B
102
}
330
24B
100
AcDbPlotSettings
  1

  2
\\Ogura1\HP Color LaserJet 4600 PCL 5c
  4

  6

 40
0.0
 41
0.0
 42
0.0
 43
0.0
 44
0.0
 45
0.0
 46
0.0
 47
0.0
 48
0.0
 49
0.0
140
0.0
141
0.0
142
1.0
143
1.0
 70
   688
 72
     0
 73
     0
 74
     5
  7

 75
    16
147
1.0
 76
     0
 77
     2
 78
   300
148
0.0
149
0.0
100
AcDbLayout
  1
Layout1
 70
     1
 71
     1
 10
0.0
 20
0.0
 11
12.0
 21
9.0
 12
0.0
 22
0.0
 32
0.0
 14
1.000000000000000E+20
 24
1.000000000000000E+20
 34
1.000000000000000E+20
 15
-1.000000000000000E+20
 25
-1.000000000000000E+20
 35
-1.000000000000000E+20
146
0.0
 13
0.0
 23
0.0
 33
0.0
 16
1.0
 26
0.0
 36
0.0
 17
0.0
 27
1.0
 37
0.0
 76
     0
330
24E
  0
LAYOUT
  5
255
102
{ACAD_REACTORS
330
24B
102
}
330
24B
100
AcDbPlotSettings
  1

  2
\\Ogura1\HP Color LaserJet 4600 PCL 5c
  4

  6

 40
0.0
 41
0.0
 42
0.0
 43
0.0
 44
0.0
 45
0.0
 46
0.0
 47
0.0
 48
0.0
 49
0.0
140
0.0
141
0.0
142
1.0
143
1.0
 70
  1712
 72
     0
 73
     0
 74
     0
  7

 75
     0
147
1.0
 76
     0
 77
     2
 78
   300
148
0.0
149
0.0
100
AcDbLayout
  1
Model
 70
     1
 71
     0
 10
0.0
 20
0.0
 11
12.0
 21
9.0
 12
0.0
 22
0.0
 32
0.0
 14
0.0
 24
0.0
 34
0.0
 15
0.0
 25
0.0
 35
0.0
146
0.0
 13
0.0
 23
0.0
 33
0.0
 16
1.0
 26
0.0
 36
0.0
 17
0.0
 27
1.0
 37
0.0
 76
     0
330
252
  0
MLINESTYLE
  5
249
102
{ACAD_REACTORS
330
248
102
}
330
248
100
AcDbMlineStyle
  2
STANDARD
 70
     0
  3

 62
   256
 51
90.0
 52
90.0
 71
     2
 49
0.5
 62
   256
  6
BYLAYER
 49
-0.5
 62
   256
  6
BYLAYER
  0
ACDBPLACEHOLDER
  5
241
102
{ACAD_REACTORS
330
240
102
}
330
240
  0
ENDSEC
  0
EOF
