  0
SECTION
  2
HEADER
  9
$ACADVER
  1
AC1018
  9
$ACADMAINTVER
 70
     0
  9
$DWGCODEPAGE
  3
ANSI_932
  9
$INSBASE
 10
0.0
 20
0.0
 30
0.0
  9
$EXTMIN
 10
-145.5203726203794
 20
-44.34329065264186
 30
-0.0015258207003583
  9
$EXTMAX
 10
193.706445820477
 20
66.31207330739783
 30
0.0000000349246037
  9
$LIMMIN
 10
-145.51002166103
 20
-43.43938094907211
  9
$LIMMAX
 10
193.6960932815758
 20
66.3086963221545
  9
$ORTHOMODE
 70
     0
  9
$REGENMODE
 70
     1
  9
$FILLMODE
 70
     1
  9
$QTEXTMODE
 70
     0
  9
$MIRRTEXT
 70
     1
  9
$LTSCALE
 40
1.0
  9
$ATTMODE
 70
     1
  9
$TEXTSIZE
 40
3.5
  9
$TRACEWID
 40
0.5
  9
$TEXTSTYLE
  7
STANDARD
  9
$CLAYER
  8
0
  9
$CELTYPE
  6
ByLayer
  9
$CECOLOR
 62
   256
  9
$CELTSCALE
 40
1.0
  9
$DISPSILH
 70
     0
  9
$DIMSCALE
 40
1.0
  9
$DIMASZ
 40
0.18
  9
$DIMEXO
 40
0.0625
  9
$DIMDLI
 40
0.38
  9
$DIMRND
 40
0.0
  9
$DIMDLE
 40
0.0
  9
$DIMEXE
 40
0.18
  9
$DIMTP
 40
0.0
  9
$DIMTM
 40
0.0
  9
$DIMTXT
 40
0.18
  9
$DIMCEN
 40
0.09
  9
$DIMTSZ
 40
0.0
  9
$DIMTOL
 70
     0
  9
$DIMLIM
 70
     0
  9
$DIMTIH
 70
     1
  9
$DIMTOH
 70
     1
  9
$DIMSE1
 70
     0
  9
$DIMSE2
 70
     0
  9
$DIMTAD
 70
     0
  9
$DIMZIN
 70
     0
  9
$DIMBLK
  1

  9
$DIMASO
 70
     1
  9
$DIMSHO
 70
     1
  9
$DIMPOST
  1

  9
$DIMAPOST
  1

  9
$DIMALT
 70
     0
  9
$DIMALTD
 70
     2
  9
$DIMALTF
 40
25.4
  9
$DIMLFAC
 40
1.0
  9
$DIMTOFL
 70
     0
  9
$DIMTVP
 40
0.0
  9
$DIMTIX
 70
     0
  9
$DIMSOXD
 70
     0
  9
$DIMSAH
 70
     0
  9
$DIMBLK1
  1

  9
$DIMBLK2
  1

  9
$DIMSTYLE
  2
STANDARD
  9
$DIMCLRD
 70
     0
  9
$DIMCLRE
 70
     0
  9
$DIMCLRT
 70
     0
  9
$DIMTFAC
 40
1.0
  9
$DIMGAP
 40
0.09
  9
$DIMJUST
 70
     0
  9
$DIMSD1
 70
     0
  9
$DIMSD2
 70
     0
  9
$DIMTOLJ
 70
     1
  9
$DIMTZIN
 70
     0
  9
$DIMALTZ
 70
     0
  9
$DIMALTTZ
 70
     0
  9
$DIMUPT
 70
     0
  9
$DIMDEC
 70
     4
  9
$DIMTDEC
 70
     4
  9
$DIMALTU
 70
     2
  9
$DIMALTTD
 70
     2
  9
$DIMTXSTY
  7
STANDARD
  9
$DIMAUNIT
 70
     0
  9
$DIMADEC
 70
     0
  9
$DIMALTRND
 40
0.0
  9
$DIMAZIN
 70
     0
  9
$DIMDSEP
 70
    46
  9
$DIMATFIT
 70
     3
  9
$DIMFRAC
 70
     0
  9
$DIMLDRBLK
  1

  9
$DIMLUNIT
 70
     2
  9
$DIMLWD
 70
    -2
  9
$DIMLWE
 70
    -2
  9
$DIMTMOVE
 70
     0
  9
$LUNITS
 70
     2
  9
$LUPREC
 70
     4
  9
$SKETCHINC
 40
0.1
  9
$FILLETRAD
 40
2.0
  9
$AUNITS
 70
     0
  9
$AUPREC
 70
     0
  9
$MENU
  1
ACAD
  9
$ELEVATION
 40
0.0
  9
$PELEVATION
 40
0.0
  9
$THICKNESS
 40
0.0
  9
$LIMCHECK
 70
     0
  9
$CHAMFERA
 40
0.0
  9
$CHAMFERB
 40
0.0
  9
$CHAMFERC
 40
0.0
  9
$CHAMFERD
 40
0.0
  9
$SKPOLY
 70
     0
  9
$TDCREATE
 40
2452095.340094907
  9
$TDUCREATE
 40
2452095.506761574
  9
$TDUPDATE
 40
2453209.448550579
  9
$TDUUPDATE
 40
2453209.615217245
  9
$TDINDWG
 40
0.0004905440
  9
$TDUSRTIMER
 40
0.0004905440
  9
$USRTIMER
 70
     1
  9
$ANGBASE
 50
0.0
  9
$ANGDIR
 70
     0
  9
$PDMODE
 70
     0
  9
$PDSIZE
 40
0.0
  9
$PLINEWID
 40
0.0
  9
$SPLFRAME
 70
     0
  9
$SPLINETYPE
 70
     6
  9
$SPLINESEGS
 70
     8
  9
$HANDSEED
  5
29D
  9
$SURFTAB1
 70
     6
  9
$SURFTAB2
 70
     6
  9
$SURFTYPE
 70
     6
  9
$SURFU
 70
     6
  9
$SURFV
 70
     6
  9
$UCSBASE
  2

  9
$UCSNAME
  2

  9
$UCSORG
 10
0.0
 20
0.0
 30
0.0
  9
$UCSXDIR
 10
1.0
 20
0.0
 30
0.0
  9
$UCSYDIR
 10
0.0
 20
1.0
 30
0.0
  9
$UCSORTHOREF
  2

  9
$UCSORTHOVIEW
 70
     0
  9
$UCSORGTOP
 10
0.0
 20
0.0
 30
0.0
  9
$UCSORGBOTTOM
 10
0.0
 20
0.0
 30
0.0
  9
$UCSORGLEFT
 10
0.0
 20
0.0
 30
0.0
  9
$UCSORGRIGHT
 10
0.0
 20
0.0
 30
0.0
  9
$UCSORGFRONT
 10
0.0
 20
0.0
 30
0.0
  9
$UCSORGBACK
 10
0.0
 20
0.0
 30
0.0
  9
$PUCSBASE
  2

  9
$PUCSNAME
  2

  9
$PUCSORG
 10
0.0
 20
0.0
 30
0.0
  9
$PUCSXDIR
 10
1.0
 20
0.0
 30
0.0
  9
$PUCSYDIR
 10
0.0
 20
1.0
 30
0.0
  9
$PUCSORTHOREF
  2

  9
$PUCSORTHOVIEW
 70
     0
  9
$PUCSORGTOP
 10
0.0
 20
0.0
 30
0.0
  9
$PUCSORGBOTTOM
 10
0.0
 20
0.0
 30
0.0
  9
$PUCSORGLEFT
 10
0.0
 20
0.0
 30
0.0
  9
$PUCSORGRIGHT
 10
0.0
 20
0.0
 30
0.0
  9
$PUCSORGFRONT
 10
0.0
 20
0.0
 30
0.0
  9
$PUCSORGBACK
 10
0.0
 20
0.0
 30
0.0
  9
$USERI1
 70
     0
  9
$USERI2
 70
     0
  9
$USERI3
 70
     0
  9
$USERI4
 70
     0
  9
$USERI5
 70
     0
  9
$USERR1
 40
0.0
  9
$USERR2
 40
0.0
  9
$USERR3
 40
0.0
  9
$USERR4
 40
0.0
  9
$USERR5
 40
0.0
  9
$WORLDVIEW
 70
     1
  9
$SHADEDGE
 70
     3
  9
$SHADEDIF
 70
    70
  9
$TILEMODE
 70
     1
  9
$MAXACTVP
 70
    64
  9
$PINSBASE
 10
0.0
 20
0.0
 30
0.0
  9
$PLIMCHECK
 70
     0
  9
$PEXTMIN
 10
1.000000000000000E+20
 20
1.000000000000000E+20
 30
1.000000000000000E+20
  9
$PEXTMAX
 10
-1.000000000000000E+20
 20
-1.000000000000000E+20
 30
-1.000000000000000E+20
  9
$PLIMMIN
 10
0.0
 20
0.0
  9
$PLIMMAX
 10
12.0
 20
9.0
  9
$UNITMODE
 70
     0
  9
$VISRETAIN
 70
     1
  9
$PLINEGEN
 70
     0
  9
$PSLTSCALE
 70
     1
  9
$TREEDEPTH
 70
  3020
  9
$CMLSTYLE
  2
Standard
  9
$CMLJUST
 70
     0
  9
$CMLSCALE
 40
1.0
  9
$PROXYGRAPHICS
 70
     1
  9
$MEASUREMENT
 70
     0
  9
$CELWEIGHT
370
    -1
  9
$ENDCAPS
280
     0
  9
$JOINSTYLE
280
     0
  9
$LWDISPLAY
290
     0
  9
$INSUNITS
 70
     0
  9
$HYPERLINKBASE
  1

  9
$STYLESHEET
  1

  9
$XEDIT
290
     1
  9
$CEPSNTYPE
380
     0
  9
$PSTYLEMODE
290
     1
  9
$FINGERPRINTGUID
  2
{7258DD65-B150-440F-9EE1-873FE39D11F5}
  9
$VERSIONGUID
  2
{A91C70A3-F31C-46C9-8C0E-9C3109313DCC}
  9
$EXTNAMES
290
     1
  9
$PSVPSCALE
 40
0.0
  9
$OLESTARTUP
290
     0
  9
$SORTENTS
280
   127
  9
$INDEXCTL
280
     0
  9
$HIDETEXT
280
     0
  9
$XCLIPFRAME
290
     0
  9
$HALOGAP
280
     0
  9
$OBSCOLOR
 70
   257
  9
$OBSLTYPE
280
     0
  9
$INTERSECTIONDISPLAY
280
     0
  9
$INTERSECTIONCOLOR
 70
   257
  9
$DIMASSOC
280
     1
  9
$PROJECTNAME
  1

  0
ENDSEC
  0
SECTION
  2
CLASSES
  0
CLASS
  1
ACDBDICTIONARYWDFLT
  2
AcDbDictionaryWithDefault
  3
ObjectDBX Classes
 90
        0
 91
        1
280
     0
281
     0
  0
ENDSEC
  0
SECTION
  2
TABLES
  0
TABLE
  2
VPORT
  5
26A
330
0
100
AcDbSymbolTable
 70
     2
  0
VPORT
  5
29C
330
26A
100
AcDbSymbolTableRecord
100
AcDbViewportTableRecord
  2
*Active
 70
     0
 10
0.0
 20
0.0
 11
1.0
 21
1.0
 12
24.09303660004878
 22
10.984391327378
 13
0.0
 23
0.0
 14
1.0
 24
1.0
 15
0.0
 25
0.0
 16
0.0
 26
0.0
 36
1.0
 17
0.0
 27
0.0
 37
0.0
 40
209.9140442376734
 41
1.625
 42
50.0
 43
0.0
 44
0.0
 50
0.0
 51
0.0
 71
     0
 72
   100
 73
     1
 74
     1
 75
     0
 76
     0
 77
     0
 78
     0
281
     0
 65
     1
110
0.0
120
0.0
130
0.0
111
1.0
121
0.0
131
0.0
112
0.0
122
1.0
132
0.0
 79
     0
146
0.0
  0
ENDTAB
  0
TABLE
  2
LTYPE
  5
267
330
0
100
AcDbSymbolTable
 70
     9
  0
LTYPE
  5
275
330
267
100
AcDbSymbolTableRecord
100
AcDbLinetypeTableRecord
  2
ByBlock
 70
     0
  3

 72
    65
 73
     0
 40
0.0
  0
LTYPE
  5
276
330
267
100
AcDbSymbolTableRecord
100
AcDbLinetypeTableRecord
  2
ByLayer
 70
     0
  3

 72
    65
 73
     0
 40
0.0
  0
LTYPE
  5
277
330
267
100
AcDbSymbolTableRecord
100
AcDbLinetypeTableRecord
  2
CONTINUOUS
 70
     0
  3
Solid line
 72
    65
 73
     0
 40
0.0
  0
LTYPE
  5
287
330
267
100
AcDbSymbolTableRecord
100
AcDbLinetypeTableRecord
  2
BORDER
 70
     0
  3
__ __ . __ __ .
 72
    65
 73
     6
 40
15.62133424077788
 49
4.463238354507971
 74
     0
 49
-2.231619177253984
 74
     0
 49
4.463238354507971
 74
     0
 49
-2.231619177253984
 74
     0
 49
0.0
 74
     0
 49
-2.231619177253984
 74
     0
  0
LTYPE
  5
288
330
267
100
AcDbSymbolTableRecord
100
AcDbLinetypeTableRecord
  2
CENTER
 70
     0
  3
____ _ ____ _
 72
    65
 73
     4
 40
17.85295341803189
 49
11.15809588626992
 74
     0
 49
-2.231619177253984
 74
     0
 49
2.231619177253984
 74
     0
 49
-2.231619177253984
 74
     0
  0
LTYPE
  5
289
330
267
100
AcDbSymbolTableRecord
100
AcDbLinetypeTableRecord
  2
DASHDOT
 70
     0
  3
__ . __ . __ .
 72
    65
 73
     4
 40
8.926476709015942
 49
4.463238354507971
 74
     0
 49
-2.231619177253984
 74
     0
 49
0.0
 74
     0
 49
-2.231619177253984
 74
     0
  0
LTYPE
  5
28A
330
267
100
AcDbSymbolTableRecord
100
AcDbLinetypeTableRecord
  2
DASHED
 70
     0
  3
__ __ __ __ __
 72
    65
 73
     2
 40
6.694857531761956
 49
4.463238354507971
 74
     0
 49
-2.231619177253984
 74
     0
  0
LTYPE
  5
28B
330
267
100
AcDbSymbolTableRecord
100
AcDbLinetypeTableRecord
  2
DIVIDE
 70
     0
  3
__ . . __ . . 
 72
    65
 73
     6
 40
11.15809588626992
 49
4.463238354507971
 74
     0
 49
-2.231619177253984
 74
     0
 49
0.0
 74
     0
 49
-2.231619177253984
 74
     0
 49
0.0
 74
     0
 49
-2.231619177253984
 74
     0
  0
LTYPE
  5
28C
330
267
100
AcDbSymbolTableRecord
100
AcDbLinetypeTableRecord
  2
DOT
 70
     0
  3
..............
 72
    65
 73
     4
 40
4.463238354507971
 49
0.0
 74
     0
 49
-2.231619177253984
 74
     0
 49
0.0
 74
     0
 49
-2.231619177253984
 74
     0
  0
LTYPE
  5
28D
330
267
100
AcDbSymbolTableRecord
100
AcDbLinetypeTableRecord
  2
HIDDEN
 70
     0
  3
_ _ _ _ _ _ _
 72
    65
 73
     2
 40
3.347428765880978
 49
2.231619177253984
 74
     0
 49
-1.115809588626992
 74
     0
  0
LTYPE
  5
28E
330
267
100
AcDbSymbolTableRecord
100
AcDbLinetypeTableRecord
  2
PHANTOM
 70
     0
  3
_____ _ _ _____ _ _ 
 72
    65
 73
     6
 40
22.31619177253985
 49
11.15809588626992
 74
     0
 49
-2.231619177253984
 74
     0
 49
2.231619177253984
 74
     0
 49
-2.231619177253984
 74
     0
 49
2.231619177253984
 74
     0
 49
-2.231619177253984
 74
     0
  0
ENDTAB
  0
TABLE
  2
LAYER
  5
264
330
0
100
AcDbSymbolTable
 70
     2
  0
LAYER
  5
272
330
264
100
AcDbSymbolTableRecord
100
AcDbLayerTableRecord
  2
0
 70
     0
 62
     7
  6
CONTINUOUS
370
    -3
390
271
  0
LAYER
  5
28F
330
264
100
AcDbSymbolTableRecord
100
AcDbLayerTableRecord
  2
1
 70
     0
 62
     7
  6
CONTINUOUS
370
    -3
390
271
  0
ENDTAB
  0
TABLE
  2
STYLE
  5
265
330
0
100
AcDbSymbolTable
 70
     4
  0
STYLE
  5
273
330
265
100
AcDbSymbolTableRecord
100
AcDbTextStyleTableRecord
  2
STANDARD
 70
     0
 40
0.0
 41
1.0
 50
0.0
 71
     0
 42
3.5
  3
txt
  4

  0
STYLE
  5
290
330
265
100
AcDbSymbolTableRecord
100
AcDbTextStyleTableRecord
  2
SIMPLEX
 70
     0
 40
0.0
 41
1.0
 50
0.0
 71
     0
 42
3.5
  3
simplex
  4

  0
STYLE
  5
291
330
265
100
AcDbSymbolTableRecord
100
AcDbTextStyleTableRecord
  2
COMPLEX
 70
     0
 40
0.0
 41
1.0
 50
0.0
 71
     0
 42
3.5
  3
complex
  4

  0
STYLE
  5
292
330
265
100
AcDbSymbolTableRecord
100
AcDbTextStyleTableRecord
  2
ITALIC
 70
     0
 40
0.0
 41
1.0
 50
0.0
 71
     0
 42
3.5
  3
italic
  4

  0
ENDTAB
  0
TABLE
  2
VIEW
  5
268
330
0
100
AcDbSymbolTable
 70
     0
  0
ENDTAB
  0
TABLE
  2
UCS
  5
269
330
0
100
AcDbSymbolTable
 70
     0
  0
ENDTAB
  0
TABLE
  2
APPID
  5
26B
330
0
100
AcDbSymbolTable
 70
     1
  0
APPID
  5
274
330
26B
100
AcDbSymbolTableRecord
100
AcDbRegAppTableRecord
  2
ACAD
 70
     0
  0
ENDTAB
  0
TABLE
  2
DIMSTYLE
  5
26C
330
0
100
AcDbSymbolTable
 70
     1
100
AcDbDimStyleTable
 71
     0
  0
DIMSTYLE
105
293
330
26C
100
AcDbSymbolTableRecord
100
AcDbDimStyleTableRecord
  2
STANDARD
 70
     0
279
     2
340
273
  0
ENDTAB
  0
TABLE
  2
BLOCK_RECORD
  5
263
330
0
100
AcDbSymbolTable
 70
     2
  0
BLOCK_RECORD
  5
282
330
263
100
AcDbSymbolTableRecord
100
AcDbBlockTableRecord
  2
*Model_Space
340
285
  0
BLOCK_RECORD
  5
27E
330
263
100
AcDbSymbolTableRecord
100
AcDbBlockTableRecord
  2
*Paper_Space
340
281
  0
BLOCK_RECORD
  5
298
330
263
100
AcDbSymbolTableRecord
100
AcDbBlockTableRecord
  2
$MODEL_SPACE
340
0
  0
BLOCK_RECORD
  5
29A
330
263
100
AcDbSymbolTableRecord
100
AcDbBlockTableRecord
  2
$PAPER_SPACE
340
0
  0
ENDTAB
  0
ENDSEC
  0
SECTION
  2
BLOCKS
  0
BLOCK
  5
283
330
282
100
AcDbEntity
  8
0
100
AcDbBlockBegin
  2
*Model_Space
 70
     0
 10
0.0
 20
0.0
 30
0.0
  3
*Model_Space
  1

  0
ENDBLK
  5
284
330
282
100
AcDbEntity
  8
0
100
AcDbBlockEnd
  0
BLOCK
  5
27F
330
27E
100
AcDbEntity
 67
     1
  8
0
100
AcDbBlockBegin
  2
*Paper_Space
 70
     0
 10
0.0
 20
0.0
 30
0.0
  3
*Paper_Space
  1

  0
ENDBLK
  5
280
330
27E
100
AcDbEntity
 67
     1
  8
0
100
AcDbBlockEnd
  0
BLOCK
  5
299
330
298
100
AcDbEntity
  8
0
100
AcDbBlockBegin
  2
$MODEL_SPACE
 70
     0
 10
0.0
 20
0.0
 30
0.0
  3
$MODEL_SPACE
  1

  0
ENDBLK
  5
20
330
298
100
AcDbEntity
  8
0
100
AcDbBlockEnd
  0
BLOCK
  5
29B
330
29A
100
AcDbEntity
  8
0
100
AcDbBlockBegin
  2
$PAPER_SPACE
 70
     0
 10
0.0
 20
0.0
 30
0.0
  3
$PAPER_SPACE
  1

  0
ENDBLK
  5
1C
330
29A
100
AcDbEntity
  8
0
100
AcDbBlockEnd
  0
ENDSEC
  0
SECTION
  2
ENTITIES
  0
LINE
  5
33
330
282
100
AcDbEntity
  8
1
 62
     7
100
AcDbLine
 10
22.60000000000002
 20
-12.5
 30
0.0
 11
0.0
 21
-12.5
 31
0.0
  0
LINE
  5
34
330
282
100
AcDbEntity
  8
1
  6
DASHDOT
 62
     3
100
AcDbLine
 10
188.6960932815758
 20
0.0
 30
0.0
 11
193.6960932815758
 21
0.0
 31
0.0
  0
LINE
  5
35
330
282
100
AcDbEntity
  8
1
  6
DASHDOT
 62
     3
100
AcDbLine
 10
126.4960932815758
 20
0.0
 30
0.0
 11
131.4960932815757
 21
0.0
 31
0.0
  0
LINE
  5
36
330
282
100
AcDbEntity
  8
1
  6
DASHDOT
 62
     3
100
AcDbLine
 10
134.9960932815757
 20
15.98045473267841
 30
0.0
 11
134.9960932815757
 21
11.23397480419519
 31
0.0
  0
LINE
  5
37
330
282
100
AcDbEntity
  8
1
 62
     7
100
AcDbLine
 10
132.9960932815757
 20
12.5
 30
0.0
 11
132.9960932815757
 21
14.5
 31
0.0
  0
LINE
  5
38
330
282
100
AcDbEntity
  8
1
 62
     3
100
AcDbLine
 10
133.5960932815758
 20
14.8
 30
0.0
 11
133.5960932815758
 21
12.5
 31
0.0
  0
LINE
  5
39
330
282
100
AcDbEntity
  8
1
 62
     3
100
AcDbLine
 10
136.3960932815757
 20
14.8
 30
0.0
 11
136.3960932815757
 21
12.5
 31
0.0
  0
LINE
  5
3A
330
282
100
AcDbEntity
  8
1
 62
     7
100
AcDbLine
 10
136.9960932815757
 20
14.5
 30
0.0
 11
136.9960932815757
 21
12.5
 31
0.0
  0
LINE
  5
3B
330
282
100
AcDbEntity
  8
1
 62
     7
100
AcDbLine
 10
133.5157085238464
 20
14.8
 30
0.0
 11
136.4764780393051
 21
14.8
 31
0.0
  0
LINE
  5
3C
330
282
100
AcDbEntity
  8
1
 62
     7
100
AcDbLine
 10
132.9960932815757
 20
14.5
 30
0.0
 11
133.5157085238464
 21
14.8
 31
0.0
  0
LINE
  5
3D
330
282
100
AcDbEntity
  8
1
 62
     7
100
AcDbLine
 10
136.9960932815757
 20
14.5
 30
0.0
 11
132.9960932815757
 21
14.5
 31
0.0
  0
LINE
  5
3E
330
282
100
AcDbEntity
  8
1
 62
     7
100
AcDbLine
 10
136.4764780393051
 20
14.8
 30
0.0
 11
136.9960932815757
 21
14.5
 31
0.0
  0
LINE
  5
3F
330
282
100
AcDbEntity
  8
1
 62
     3
100
AcDbLine
 10
149.5960932815758
 20
36.96076951545868
 30
0.0
 11
152.5960932815758
 21
36.96076951545868
 31
0.0
  0
LINE
  5
40
330
282
100
AcDbEntity
  8
1
 62
     3
100
AcDbLine
 10
151.9960932815756
 20
36.5
 30
0.0
 11
151.9960932815756
 21
36.96076951545868
 31
0.0
  0
LINE
  5
41
330
282
100
AcDbEntity
  8
1
 62
     3
100
AcDbLine
 10
150.1960932815759
 20
36.5
 30
0.0
 11
150.1960932815759
 21
36.96076951545868
 31
0.0
  0
LINE
  5
42
330
282
100
AcDbEntity
  8
1
 62
     7
100
AcDbLine
 10
149.5960932815758
 20
38.50000000000001
 30
0.0
 11
149.5960932815758
 21
36.5
 31
0.0
  0
LINE
  5
43
330
282
100
AcDbEntity
  8
1
 62
     7
100
AcDbLine
 10
149.3460932815757
 20
36.5
 30
0.0
 11
152.8460932815758
 21
36.5
 31
0.0
  0
LINE
  5
44
330
282
100
AcDbEntity
  8
1
 62
     7
100
AcDbLine
 10
152.5960932815758
 20
38.50000000000001
 30
0.0
 11
152.5960932815758
 21
36.5
 31
0.0
  0
LINE
  5
45
330
282
100
AcDbEntity
  8
1
 62
     7
100
AcDbLine
 10
147.8460932815758
 20
38.50000000000001
 30
0.0
 11
147.8460932815758
 21
41.0
 31
0.0
  0
LINE
  5
46
330
282
100
AcDbEntity
  8
1
 62
     7
100
AcDbLine
 10
154.3460932815758
 20
38.50000000000001
 30
0.0
 11
147.8460932815758
 21
38.50000000000001
 31
0.0
  0
LINE
  5
47
330
282
100
AcDbEntity
  8
1
 62
     7
100
AcDbLine
 10
154.3460932815758
 20
41.0
 30
0.0
 11
154.3460932815758
 21
38.50000000000001
 31
0.0
  0
LINE
  5
48
330
282
100
AcDbEntity
  8
1
 62
     7
100
AcDbLine
 10
152.8460932815758
 20
36.5
 30
0.0
 11
152.8460932815758
 21
38.50000000000001
 31
0.0
  0
LINE
  5
49
330
282
100
AcDbEntity
  8
1
 62
     7
100
AcDbLine
 10
149.3460932815757
 20
36.5
 30
0.0
 11
149.3460932815757
 21
38.50000000000001
 31
0.0
  0
LINE
  5
4A
330
282
100
AcDbEntity
  8
1
 62
     7
100
AcDbLine
 10
148.3460932815757
 20
38.89999999999999
 30
0.0
 11
148.3460932815757
 21
38.50000000000001
 31
0.0
  0
LINE
  5
4B
330
282
100
AcDbEntity
  8
1
 62
     7
100
AcDbLine
 10
153.8460932815758
 20
38.89999999999999
 30
0.0
 11
148.3460932815757
 21
38.89999999999999
 31
0.0
  0
LINE
  5
4C
330
282
100
AcDbEntity
  8
1
 62
     7
100
AcDbLine
 10
153.8460932815758
 20
38.50000000000001
 30
0.0
 11
153.8460932815758
 21
38.89999999999999
 31
0.0
  0
LINE
  5
4D
330
282
100
AcDbEntity
  8
1
 62
     7
100
AcDbLine
 10
152.5960932815758
 20
40.64999999999999
 30
0.0
 11
149.5960932815758
 21
40.64999999999999
 31
0.0
  0
LINE
  5
4E
330
282
100
AcDbEntity
  8
1
 62
     3
100
AcDbLine
 10
149.5960932815758
 20
38.0
 30
0.0
 11
150.1960932815759
 21
36.96076951545868
 31
0.0
  0
LINE
  5
4F
330
282
100
AcDbEntity
  8
1
 62
     3
100
AcDbLine
 10
152.5960932815758
 20
38.0
 30
0.0
 11
151.9960932815756
 21
36.96076951545868
 31
0.0
  0
LINE
  5
50
330
282
100
AcDbEntity
  8
1
  6
DASHDOT
 62
     3
100
AcDbLine
 10
151.0960932815758
 20
42.49032941450231
 30
0.0
 11
151.0960932815758
 21
14.665748440075
 31
0.0
  0
LINE
  5
51
330
282
100
AcDbEntity
  8
1
 62
     7
100
AcDbLine
 10
149.3460932815757
 20
19.25
 30
0.0
 11
149.3460932815757
 21
36.5
 31
0.0
  0
LINE
  5
52
330
282
100
AcDbEntity
  8
1
 62
     7
100
AcDbLine
 10
147.8460932815758
 20
19.25
 30
0.0
 11
147.8460932815758
 21
38.50000000000001
 31
0.0
  0
LINE
  5
53
330
282
100
AcDbEntity
  8
1
 62
     7
100
AcDbLine
 10
154.3460932815758
 20
38.50000000000001
 30
0.0
 11
154.3460932815758
 21
19.25
 31
0.0
  0
LINE
  5
54
330
282
100
AcDbEntity
  8
1
 62
     7
100
AcDbLine
 10
152.8460932815758
 20
36.5
 30
0.0
 11
152.8460932815758
 21
19.25
 31
0.0
  0
LINE
  5
55
330
282
100
AcDbEntity
  8
1
 62
     7
100
AcDbLine
 10
138.5960932815758
 20
40.0
 30
0.0
 11
138.5960932815758
 21
-40.0
 31
0.0
  0
LINE
  5
56
330
282
100
AcDbEntity
  8
1
 62
     7
100
AcDbLine
 10
138.5960932815758
 20
12.5
 30
0.0
 11
131.4960932815757
 21
12.5
 31
0.0
  0
LINE
  5
57
330
282
100
AcDbEntity
  8
1
 62
     7
100
AcDbLine
 10
131.4960932815757
 20
12.5
 30
0.0
 11
131.4960932815757
 21
-12.50000000000002
 31
0.0
  0
LINE
  5
58
330
282
100
AcDbEntity
  8
1
 62
     7
100
AcDbLine
 10
131.4960932815757
 20
-12.50000000000002
 30
0.0
 11
138.5960932815758
 21
-12.50000000000002
 31
0.0
  0
LINE
  5
59
330
282
100
AcDbEntity
  8
1
 62
     7
100
AcDbLine
 10
139.5960932815758
 20
-41.0
 30
0.0
 11
138.5960932815758
 21
-40.0
 31
0.0
  0
LINE
  5
5A
330
282
100
AcDbEntity
  8
1
 62
     7
100
AcDbLine
 10
138.5960932815758
 20
40.0
 30
0.0
 11
139.5960932815758
 21
41.0
 31
0.0
  0
LINE
  5
5B
330
282
100
AcDbEntity
  8
1
 62
     7
100
AcDbLine
 10
144.5960932815758
 20
0.5
 30
0.0
 11
139.5960932815758
 21
0.5
 31
0.0
  0
LINE
  5
5C
330
282
100
AcDbEntity
  8
1
 62
     7
100
AcDbLine
 10
144.5960932815758
 20
-0.5
 30
0.0
 11
139.5960932815758
 21
-0.5
 31
0.0
  0
LINE
  5
5D
330
282
100
AcDbEntity
  8
1
 62
     7
100
AcDbLine
 10
149.0960932815758
 20
0.0
 30
0.0
 11
146.0960932815758
 21
0.0
 31
0.0
  0
LINE
  5
5E
330
282
100
AcDbEntity
  8
1
 62
     7
100
AcDbLine
 10
149.0960932815758
 20
-7.119575284344222
 30
0.0
 11
146.0960932815758
 21
-7.119575284344222
 31
0.0
  0
LINE
  5
5F
330
282
100
AcDbEntity
  8
1
 62
     7
100
AcDbLine
 10
149.0960932815758
 20
-14.02282587635241
 30
0.0
 11
146.0960932815758
 21
-14.02282587635241
 31
0.0
  0
LINE
  5
60
330
282
100
AcDbEntity
  8
1
 62
     7
100
AcDbLine
 10
149.0960932815758
 20
-20.50000000000002
 30
0.0
 11
146.0960932815758
 21
-20.50000000000002
 31
0.0
  0
LINE
  5
61
330
282
100
AcDbEntity
  8
1
 62
     7
100
AcDbLine
 10
149.0960932815758
 20
-26.35429199714811
 30
0.0
 11
146.0960932815758
 21
-26.35429199714811
 31
0.0
  0
LINE
  5
62
330
282
100
AcDbEntity
  8
1
 62
     7
100
AcDbLine
 10
149.0960932815758
 20
-31.40782216787808
 30
0.0
 11
146.0960932815758
 21
-31.40782216787808
 31
0.0
  0
LINE
  5
63
330
282
100
AcDbEntity
  8
1
 62
     7
100
AcDbLine
 10
149.0960932815758
 20
-35.50704155516201
 30
0.0
 11
146.0960932815758
 21
-35.50704155516201
 31
0.0
  0
LINE
  5
64
330
282
100
AcDbEntity
  8
1
 62
     7
100
AcDbLine
 10
147.5960932815758
 20
-3.559787642172096
 30
0.0
 11
146.0960932815758
 21
-3.559787642172096
 31
0.0
  0
LINE
  5
65
330
282
100
AcDbEntity
  8
1
 62
     7
100
AcDbLine
 10
147.5960932815758
 20
-10.57120058034834
 30
0.0
 11
146.0960932815758
 21
-10.57120058034834
 31
0.0
  0
LINE
  5
66
330
282
100
AcDbEntity
  8
1
 62
     7
100
AcDbLine
 10
147.5960932815758
 20
-17.26141293817622
 30
0.0
 11
146.0960932815758
 21
-17.26141293817622
 31
0.0
  0
LINE
  5
67
330
282
100
AcDbEntity
  8
1
 62
     7
100
AcDbLine
 10
147.5960932815758
 20
-23.42714599857414
 30
0.0
 11
146.0960932815758
 21
-23.42714599857414
 31
0.0
  0
LINE
  5
68
330
282
100
AcDbEntity
  8
1
 62
     7
100
AcDbLine
 10
147.5960932815758
 20
-28.88105708251313
 30
0.0
 11
146.0960932815758
 21
-28.88105708251313
 31
0.0
  0
LINE
  5
69
330
282
100
AcDbEntity
  8
1
 62
     7
100
AcDbLine
 10
147.5960932815758
 20
-33.45743186152009
 30
0.0
 11
146.0960932815758
 21
-33.45743186152009
 31
0.0
  0
LINE
  5
6A
330
282
100
AcDbEntity
  8
1
 62
     7
100
AcDbLine
 10
152.0960932815758
 20
5.0
 30
0.0
 11
152.0960932815758
 21
-37.74202037341217
 31
0.0
  0
LINE
  5
6B
330
282
100
AcDbEntity
  8
1
 62
     7
100
AcDbLine
 10
152.0960932815758
 20
-37.74202037341217
 30
0.0
 11
146.0960932815758
 21
-37.74202037341217
 31
0.0
  0
LINE
  5
6C
330
282
100
AcDbEntity
  8
1
 62
     7
100
AcDbLine
 10
146.0960932815758
 20
-37.74202037341217
 30
0.0
 11
146.0960932815758
 21
5.0
 31
0.0
  0
LINE
  5
6D
330
282
100
AcDbEntity
  8
1
 62
     7
100
AcDbLine
 10
146.0960932815758
 20
5.0
 30
0.0
 11
152.0960932815758
 21
5.0
 31
0.0
  0
LINE
  5
6E
330
282
100
AcDbEntity
  8
1
 62
     7
100
AcDbLine
 10
139.5960932815758
 20
-41.0
 30
0.0
 11
139.5960932815758
 21
41.0
 31
0.0
  0
LINE
  5
6F
330
282
100
AcDbEntity
  8
1
 62
     7
100
AcDbLine
 10
144.5960932815758
 20
41.0
 30
0.0
 11
144.5960932815758
 21
-41.0
 31
0.0
  0
LINE
  5
70
330
282
100
AcDbEntity
  8
1
 62
     7
100
AcDbLine
 10
139.5960932815758
 20
-41.0
 30
0.0
 11
187.6960932815758
 21
-40.99999999999999
 31
0.0
  0
LINE
  5
71
330
282
100
AcDbEntity
  8
1
 62
     7
100
AcDbLine
 10
187.6960932815758
 20
41.0
 30
0.0
 11
139.5960932815758
 21
41.0
 31
0.0
  0
LINE
  5
72
330
282
100
AcDbEntity
  8
1
 62
     7
100
AcDbLine
 10
188.6960932815758
 20
40.0
 30
0.0
 11
188.6960932815758
 21
-40.0
 31
0.0
  0
LINE
  5
73
330
282
100
AcDbEntity
  8
1
 62
     7
100
AcDbLine
 10
188.6960932815758
 20
40.0
 30
0.0
 11
187.6960932815758
 21
41.0
 31
0.0
  0
LINE
  5
74
330
282
100
AcDbEntity
  8
1
 62
     7
100
AcDbLine
 10
188.6960932815758
 20
-40.0
 30
0.0
 11
187.6960932815758
 21
-40.99999999999999
 31
0.0
  0
LINE
  5
75
330
282
100
AcDbEntity
  8
1
 62
     7
100
AcDbLine
 10
182.6960932815758
 20
41.0
 30
0.0
 11
182.6960932815758
 21
-40.99999999999999
 31
0.0
  0
LINE
  5
76
330
282
100
AcDbEntity
  8
1
 62
     7
100
AcDbLine
 10
187.6960932815758
 20
-40.99999999999999
 30
0.0
 11
187.6960932815758
 21
41.0
 31
0.0
  0
LINE
  5
77
330
282
100
AcDbEntity
  8
1
  6
DASHDOT
 62
     3
100
AcDbLine
 10
-5.0
 20
0.0
 30
0.0
 11
0.0
 21
0.0
 31
0.0
  0
LINE
  5
78
330
282
100
AcDbEntity
  8
1
  6
DASHDOT
 62
     3
100
AcDbLine
 10
57.20000000000002
 20
0.0
 30
0.0
 11
62.20000000000002
 21
0.0
 31
0.0
  0
LINE
  5
79
330
282
100
AcDbEntity
  8
1
  6
DASHDOT
 62
     3
100
AcDbLine
 10
-135.8988886689575
 20
-18.1223708165843
 30
0.0
 11
-142.3718828771004
 21
-21.8595557651186
 31
0.0
  0
LINE
  5
7A
330
282
100
AcDbEntity
  8
1
  6
DASHDOT
 62
     3
100
AcDbLine
 10
-118.185928095779
 20
0.0
 30
0.0
 11
-111.274727826664
 21
0.0
 31
0.0
  0
LINE
  5
7B
330
282
100
AcDbEntity
  8
1
  6
DASHDOT
 62
     3
100
AcDbLine
 10
-104.51002166103
 20
15.775906434749
 30
0.0
 11
-104.51002166103
 21
8.864706165634006
 31
0.0
  0
LINE
  5
7C
330
282
100
AcDbEntity
  8
1
  6
DASHDOT
 62
     3
100
AcDbLine
 10
-104.51002166103
 20
-42.609048265916
 30
0.0
 11
-104.51002166103
 21
-29.078659975647
 31
0.0
  0
LINE
  5
7D
330
282
100
AcDbEntity
  8
1
  6
DASHDOT
 62
     3
100
AcDbLine
 10
-104.51002166103
 20
42.609048265916
 30
0.0
 11
-104.51002166103
 21
29.078659975647
 31
0.0
  0
LINE
  5
7E
330
282
100
AcDbEntity
  8
1
  6
DASHDOT
 62
     3
100
AcDbLine
 10
-91.07104040304372
 20
-23.27699834079841
 30
0.0
 11
-87.94900291901626
 21
-28.68452588626833
 31
0.0
  0
LINE
  5
7F
330
282
100
AcDbEntity
  8
1
  6
DASHDOT
 62
     3
100
AcDbLine
 10
-131.3879841770027
 20
0.0000000000000995
 30
0.0
 11
-137.6320591450574
 21
0.0000000000000995
 31
0.0
  0
LINE
  5
80
330
282
100
AcDbEntity
  8
1
  6
DASHDOT
 62
     3
100
AcDbLine
 10
-91.07104040304355
 20
23.2769983407982
 30
0.0
 11
-87.94900291901619
 21
28.68452588626821
 31
0.0
  0
LINE
  5
81
330
282
100
AcDbEntity
  8
1
  6
DASHDOT
 62
     3
100
AcDbLine
 10
-104.51002166103
 20
3.624475472239808
 30
0.0
 11
-104.51002166103
 21
-3.624475472239793
 31
0.0
  0
LINE
  5
82
330
282
100
AcDbEntity
  8
1
  6
DASHDOT
 62
     3
100
AcDbLine
 10
-100.8855461887901
 20
0.0
 30
0.0
 11
-108.1344971332698
 21
0.0
 31
0.0
  0
LINE
  5
83
330
282
100
AcDbEntity
  8
1
 62
     7
100
AcDbLine
 10
34.30000000000001
 20
35.0
 30
0.0
 11
34.30000000000001
 21
15.0
 31
0.0
  0
LINE
  5
84
330
282
100
AcDbEntity
  8
1
 62
     7
100
AcDbLine
 10
5.5
 20
12.5
 30
0.0
 11
22.60000000000002
 21
12.5
 31
0.0
  0
LINE
  5
85
330
282
100
AcDbEntity
  8
1
 62
     7
100
AcDbLine
 10
29.25
 20
35.0
 30
0.0
 11
26.39999999999993
 21
35.0
 31
0.0
  0
LINE
  5
86
330
282
100
AcDbEntity
  8
1
 62
     7
100
AcDbLine
 10
37.90000000000012
 20
-36.5
 30
0.0
 11
37.90000000000012
 21
-35.0
 31
0.0
  0
LINE
  5
87
330
282
100
AcDbEntity
  8
1
 62
     7
100
AcDbLine
 10
26.39999999999993
 20
-36.5
 30
0.0
 11
26.39999999999993
 21
-35.0
 31
0.0
  0
LINE
  5
88
330
282
100
AcDbEntity
  8
1
 62
     7
100
AcDbLine
 10
26.39999999999993
 20
36.5
 30
0.0
 11
26.39999999999993
 21
35.0
 31
0.0
  0
LINE
  5
89
330
282
100
AcDbEntity
  8
1
 62
     7
100
AcDbLine
 10
37.90000000000012
 20
35.0
 30
0.0
 11
37.90000000000012
 21
36.5
 31
0.0
  0
LINE
  5
8A
330
282
100
AcDbEntity
  8
1
  6
DASHED
 62
     3
100
AcDbLine
 10
-69.66205332585556
 20
16.36670714929191
 30
0.0
 11
-67.48970947141927
 21
17.6209104584231
 31
0.0
  0
LINE
  5
8B
330
282
100
AcDbEntity
  8
1
  6
DASHED
 62
     3
100
AcDbLine
 10
-103.01002166103
 20
36.96076951545868
 30
0.0
 11
-106.01002166103
 21
36.96076951545868
 31
0.0
  0
LINE
  5
8C
330
282
100
AcDbEntity
  8
1
  6
DASHED
 62
     3
100
AcDbLine
 10
-105.4100216610299
 20
36.96076951545868
 30
0.0
 11
-106.01002166103
 21
38.0
 31
0.0
  0
LINE
  5
8D
330
282
100
AcDbEntity
  8
1
  6
DASHED
 62
     3
100
AcDbLine
 10
-105.4100216610299
 20
30.50000000000001
 30
0.0
 11
-105.4100216610299
 21
36.96076951545868
 31
0.0
  0
LINE
  5
8E
330
282
100
AcDbEntity
  8
1
  6
DASHED
 62
     3
100
AcDbLine
 10
-103.61002166103
 20
36.96076951545868
 30
0.0
 11
-103.01002166103
 21
38.0
 31
0.0
  0
LINE
  5
8F
330
282
100
AcDbEntity
  8
1
  6
DASHED
 62
     3
100
AcDbLine
 10
-103.61002166103
 20
30.50000000000001
 30
0.0
 11
-103.61002166103
 21
36.96076951545868
 31
0.0
  0
LINE
  5
90
330
282
100
AcDbEntity
  8
1
  6
DASHED
 62
     3
100
AcDbLine
 10
-103.01002166103
 20
31.10000000000001
 30
0.0
 11
-106.01002166103
 21
31.10000000000001
 31
0.0
  0
LINE
  5
91
330
282
100
AcDbEntity
  8
1
  6
DASHED
 62
     3
100
AcDbLine
 10
-106.01002166103
 20
31.10000000000001
 30
0.0
 11
-106.01002166103
 21
38.50000000000001
 31
0.0
  0
LINE
  5
92
330
282
100
AcDbEntity
  8
1
  6
DASHED
 62
     3
100
AcDbLine
 10
-105.4100216610299
 20
30.50000000000001
 30
0.0
 11
-106.01002166103
 21
31.10000000000001
 31
0.0
  0
LINE
  5
93
330
282
100
AcDbEntity
  8
1
  6
DASHED
 62
     3
100
AcDbLine
 10
-103.61002166103
 20
30.50000000000001
 30
0.0
 11
-105.4100216610299
 21
30.50000000000001
 31
0.0
  0
LINE
  5
94
330
282
100
AcDbEntity
  8
1
  6
DASHED
 62
     3
100
AcDbLine
 10
-103.01002166103
 20
31.10000000000001
 30
0.0
 11
-103.61002166103
 21
30.50000000000001
 31
0.0
  0
LINE
  5
95
330
282
100
AcDbEntity
  8
1
  6
DASHED
 62
     3
100
AcDbLine
 10
-103.01002166103
 20
38.50000000000001
 30
0.0
 11
-103.01002166103
 21
31.10000000000001
 31
0.0
  0
LINE
  5
96
330
282
100
AcDbEntity
  8
1
  6
DASHED
 62
     3
100
AcDbLine
 10
-103.01002166103
 20
40.64999999999999
 30
0.0
 11
-106.01002166103
 21
40.64999999999999
 31
0.0
  0
LINE
  5
97
330
282
100
AcDbEntity
  8
1
  6
DASHED
 62
     3
100
AcDbLine
 10
-107.26002166103
 20
38.50000000000001
 30
0.0
 11
-101.76002166103
 21
38.50000000000001
 31
0.0
  0
LINE
  5
98
330
282
100
AcDbEntity
  8
1
  6
DASHED
 62
     3
100
AcDbLine
 10
-107.26002166103
 20
38.89999999999999
 30
0.0
 11
-107.26002166103
 21
38.50000000000001
 31
0.0
  0
LINE
  5
99
330
282
100
AcDbEntity
  8
1
  6
DASHED
 62
     3
100
AcDbLine
 10
-101.76002166103
 20
38.89999999999999
 30
0.0
 11
-107.26002166103
 21
38.89999999999999
 31
0.0
  0
LINE
  5
9A
330
282
100
AcDbEntity
  8
1
  6
DASHED
 62
     3
100
AcDbLine
 10
-101.76002166103
 20
38.50000000000001
 30
0.0
 11
-101.76002166103
 21
38.89999999999999
 31
0.0
  0
LINE
  5
9B
330
282
100
AcDbEntity
  8
1
  6
DASHED
 62
     3
100
AcDbLine
 10
-107.76002166103
 20
40.8709860414451
 30
0.0
 11
-107.76002166103
 21
38.36257942318271
 31
0.0
  0
LINE
  5
9C
330
282
100
AcDbEntity
  8
1
  6
DASHED
 62
     3
100
AcDbLine
 10
-106.01002166103
 20
-36.96076951545868
 30
0.0
 11
-103.01002166103
 21
-36.96076951545868
 31
0.0
  0
LINE
  5
9D
330
282
100
AcDbEntity
  8
1
  6
DASHED
 62
     3
100
AcDbLine
 10
-103.61002166103
 20
-36.96076951545868
 30
0.0
 11
-103.01002166103
 21
-38.0
 31
0.0
  0
LINE
  5
9E
330
282
100
AcDbEntity
  8
1
  6
DASHED
 62
     3
100
AcDbLine
 10
-103.61002166103
 20
-30.5
 30
0.0
 11
-103.61002166103
 21
-36.96076951545868
 31
0.0
  0
LINE
  5
9F
330
282
100
AcDbEntity
  8
1
  6
DASHED
 62
     3
100
AcDbLine
 10
-105.4100216610299
 20
-36.96076951545868
 30
0.0
 11
-106.01002166103
 21
-38.0
 31
0.0
  0
LINE
  5
A0
330
282
100
AcDbEntity
  8
1
  6
DASHED
 62
     3
100
AcDbLine
 10
-105.4100216610299
 20
-30.5
 30
0.0
 11
-105.4100216610299
 21
-36.96076951545868
 31
0.0
  0
LINE
  5
A1
330
282
100
AcDbEntity
  8
1
  6
DASHED
 62
     3
100
AcDbLine
 10
-106.01002166103
 20
-31.10000000000001
 30
0.0
 11
-103.01002166103
 21
-31.10000000000001
 31
0.0
  0
LINE
  5
A2
330
282
100
AcDbEntity
  8
1
  6
DASHED
 62
     3
100
AcDbLine
 10
-103.01002166103
 20
-31.10000000000001
 30
0.0
 11
-103.01002166103
 21
-38.5
 31
0.0
  0
LINE
  5
A3
330
282
100
AcDbEntity
  8
1
  6
DASHED
 62
     3
100
AcDbLine
 10
-103.61002166103
 20
-30.5
 30
0.0
 11
-103.01002166103
 21
-31.10000000000001
 31
0.0
  0
LINE
  5
A4
330
282
100
AcDbEntity
  8
1
  6
DASHED
 62
     3
100
AcDbLine
 10
-105.4100216610299
 20
-30.5
 30
0.0
 11
-103.61002166103
 21
-30.5
 31
0.0
  0
LINE
  5
A5
330
282
100
AcDbEntity
  8
1
  6
DASHED
 62
     3
100
AcDbLine
 10
-106.01002166103
 20
-31.10000000000001
 30
0.0
 11
-105.4100216610299
 21
-30.5
 31
0.0
  0
LINE
  5
A6
330
282
100
AcDbEntity
  8
1
  6
DASHED
 62
     3
100
AcDbLine
 10
-106.01002166103
 20
-38.5
 30
0.0
 11
-106.01002166103
 21
-31.10000000000001
 31
0.0
  0
LINE
  5
A7
330
282
100
AcDbEntity
  8
1
  6
DASHED
 62
     3
100
AcDbLine
 10
-106.01002166103
 20
-40.64999999999999
 30
0.0
 11
-103.01002166103
 21
-40.64999999999999
 31
0.0
  0
LINE
  5
A8
330
282
100
AcDbEntity
  8
1
  6
DASHED
 62
     3
100
AcDbLine
 10
-101.76002166103
 20
-38.5
 30
0.0
 11
-107.26002166103
 21
-38.5
 31
0.0
  0
LINE
  5
A9
330
282
100
AcDbEntity
  8
1
  6
DASHED
 62
     3
100
AcDbLine
 10
-101.76002166103
 20
-38.89999999999999
 30
0.0
 11
-101.76002166103
 21
-38.5
 31
0.0
  0
LINE
  5
AA
330
282
100
AcDbEntity
  8
1
  6
DASHED
 62
     3
100
AcDbLine
 10
-107.26002166103
 20
-38.89999999999999
 30
0.0
 11
-101.76002166103
 21
-38.89999999999999
 31
0.0
  0
LINE
  5
AB
330
282
100
AcDbEntity
  8
1
  6
DASHED
 62
     3
100
AcDbLine
 10
-107.26002166103
 20
-38.5
 30
0.0
 11
-107.26002166103
 21
-38.89999999999999
 31
0.0
  0
LINE
  5
AC
330
282
100
AcDbEntity
  8
1
  6
DASHED
 62
     3
100
AcDbLine
 10
-101.26002166103
 20
-40.8709860414451
 30
0.0
 11
-101.26002166103
 21
-38.36257942318268
 31
0.0
  0
LINE
  5
AD
330
282
100
AcDbEntity
  8
1
  6
DASHED
 62
     3
100
AcDbLine
 10
-139.3579899962044
 20
-16.36670714929192
 30
0.0
 11
-141.5303338506404
 21
-17.62091045842311
 31
0.0
  0
LINE
  5
AE
330
282
100
AcDbEntity
  8
1
  6
DASHED
 62
     3
100
AcDbLine
 10
-105.91002166103
 20
9.8
 30
0.0
 11
-105.91002166103
 21
12.42135258335419
 31
0.0
  0
LINE
  5
AF
330
282
100
AcDbEntity
  8
1
  6
DASHED
 62
     3
100
AcDbLine
 10
-106.51002166103
 20
9.8
 30
0.0
 11
-106.51002166103
 21
12.3389626792531
 31
0.0
  0
LINE
  5
B0
330
282
100
AcDbEntity
  8
1
 62
     7
100
AcDbLine
 10
-102.01002166103
 20
9.8
 30
0.0
 11
-102.01002166103
 21
7.071067811865503
 31
0.0
  0
LINE
  5
B1
330
282
100
AcDbEntity
  8
1
 62
     7
100
AcDbLine
 10
-107.01002166103
 20
9.8
 30
0.0
 11
-102.01002166103
 21
9.8
 31
0.0
  0
LINE
  5
B2
330
282
100
AcDbEntity
  8
1
 62
     7
100
AcDbLine
 10
-107.01002166103
 20
7.071067811865503
 30
0.0
 11
-107.01002166103
 21
9.8
 31
0.0
  0
LINE
  5
B3
330
282
100
AcDbEntity
  8
1
 62
     7
100
AcDbLine
 10
13.10000000000002
 20
36.5
 30
0.0
 11
18.10000000000001
 21
36.5
 31
0.0
  0
LINE
  5
B4
330
282
100
AcDbEntity
  8
1
 62
     7
100
AcDbLine
 10
13.10000000000002
 20
36.5
 30
0.0
 11
17.85000000000001
 21
36.5
 31
0.0
  0
LINE
  5
B5
330
282
100
AcDbEntity
  8
1
 62
     7
100
AcDbLine
 10
20.5
 20
30.50000000000001
 30
0.0
 11
18.70000000000002
 21
30.50000000000001
 31
0.0
  0
LINE
  5
B6
330
282
100
AcDbEntity
  8
1
 62
     7
100
AcDbLine
 10
21.10000000000002
 20
31.10000000000001
 30
0.0
 11
20.5
 21
30.50000000000001
 31
0.0
  0
LINE
  5
B7
330
282
100
AcDbEntity
  8
1
 62
     7
100
AcDbLine
 10
18.70000000000002
 20
30.50000000000001
 30
0.0
 11
18.10000000000001
 21
31.10000000000001
 31
0.0
  0
LINE
  5
B8
330
282
100
AcDbEntity
  8
1
 62
     7
100
AcDbLine
 10
21.10000000000002
 20
31.10000000000001
 30
0.0
 11
18.10000000000001
 21
31.10000000000001
 31
0.0
  0
LINE
  5
B9
330
282
100
AcDbEntity
  8
1
 62
     3
100
AcDbLine
 10
18.70000000000002
 20
30.50000000000001
 30
0.0
 11
18.70000000000002
 21
36.96076951545868
 31
0.0
  0
LINE
  5
BA
330
282
100
AcDbEntity
  8
1
 62
     3
100
AcDbLine
 10
20.5
 20
30.50000000000001
 30
0.0
 11
20.5
 21
36.96076951545868
 31
0.0
  0
LINE
  5
BB
330
282
100
AcDbEntity
  8
1
 62
     7
100
AcDbLine
 10
21.10000000000002
 20
38.50000000000001
 30
0.0
 11
21.10000000000002
 21
31.10000000000001
 31
0.0
  0
LINE
  5
BC
330
282
100
AcDbEntity
  8
1
 62
     3
100
AcDbLine
 10
20.5
 20
36.96076951545868
 30
0.0
 11
21.10000000000002
 21
38.0
 31
0.0
  0
LINE
  5
BD
330
282
100
AcDbEntity
  8
1
 62
     3
100
AcDbLine
 10
21.10000000000002
 20
36.96076951545868
 30
0.0
 11
18.10000000000001
 21
36.96076951545868
 31
0.0
  0
LINE
  5
BE
330
282
100
AcDbEntity
  8
1
 62
     7
100
AcDbLine
 10
18.10000000000001
 20
31.10000000000001
 30
0.0
 11
18.10000000000001
 21
38.50000000000001
 31
0.0
  0
LINE
  5
BF
330
282
100
AcDbEntity
  8
1
 62
     3
100
AcDbLine
 10
18.70000000000002
 20
36.96076951545868
 30
0.0
 11
18.10000000000001
 21
38.0
 31
0.0
  0
LINE
  5
C0
330
282
100
AcDbEntity
  8
1
 62
     7
100
AcDbLine
 10
22.35000000000002
 20
38.89999999999999
 30
0.0
 11
16.85000000000002
 21
38.89999999999999
 31
0.0
  0
LINE
  5
C1
330
282
100
AcDbEntity
  8
1
 62
     7
100
AcDbLine
 10
22.35000000000002
 20
38.50000000000001
 30
0.0
 11
22.35000000000002
 21
38.89999999999999
 31
0.0
  0
LINE
  5
C2
330
282
100
AcDbEntity
  8
1
 62
     7
100
AcDbLine
 10
16.85000000000002
 20
38.89999999999999
 30
0.0
 11
16.85000000000002
 21
38.50000000000001
 31
0.0
  0
LINE
  5
C3
330
282
100
AcDbEntity
  8
1
 62
     7
100
AcDbLine
 10
22.35000000000002
 20
38.89999999999999
 30
0.0
 11
16.85000000000002
 21
38.89999999999999
 31
0.0
  0
LINE
  5
C4
330
282
100
AcDbEntity
  8
1
 62
     7
100
AcDbLine
 10
21.10000000000002
 20
40.64999999999999
 30
0.0
 11
18.10000000000001
 21
40.64999999999999
 31
0.0
  0
LINE
  5
C5
330
282
100
AcDbEntity
  8
1
 62
     7
100
AcDbLine
 10
43.2000000000001
 20
36.5
 30
0.0
 11
21.10000000000002
 21
36.5
 31
0.0
  0
LINE
  5
C6
330
282
100
AcDbEntity
  8
1
  6
DASHDOT
 62
     3
100
AcDbLine
 10
3.5
 20
8.362924118627207
 30
0.0
 11
3.5
 21
15.8
 31
0.0
  0
LINE
  5
C7
330
282
100
AcDbEntity
  8
1
 62
     7
100
AcDbLine
 10
0.0
 20
7.071067811865503
 30
0.0
 11
53.7
 21
7.071067811865503
 31
0.0
  0
LINE
  5
C8
330
282
100
AcDbEntity
  8
1
 62
     7
100
AcDbLine
 10
0.0
 20
9.8
 30
0.0
 11
53.7
 21
9.8
 31
0.0
  0
LINE
  5
C9
330
282
100
AcDbEntity
  8
1
 62
     7
100
AcDbLine
 10
0.0
 20
-7.500000000000012
 30
0.0
 11
53.7
 21
-7.500000000000012
 31
0.0
  0
LINE
  5
CA
330
282
100
AcDbEntity
  8
1
 62
     7
100
AcDbLine
 10
21.10000000000002
 20
-31.10000000000001
 30
0.0
 11
21.10000000000002
 21
-38.50000000000001
 31
0.0
  0
LINE
  5
CB
330
282
100
AcDbEntity
  8
1
 62
     7
100
AcDbLine
 10
18.10000000000001
 20
-38.50000000000001
 30
0.0
 11
18.10000000000001
 21
-31.10000000000001
 31
0.0
  0
LINE
  5
CC
330
282
100
AcDbEntity
  8
1
 62
     3
100
AcDbLine
 10
20.5
 20
-36.96076951545868
 30
0.0
 11
20.5
 21
-30.50000000000001
 31
0.0
  0
LINE
  5
CD
330
282
100
AcDbEntity
  8
1
 62
     3
100
AcDbLine
 10
18.70000000000002
 20
-36.96076951545868
 30
0.0
 11
18.70000000000002
 21
-30.50000000000001
 31
0.0
  0
LINE
  5
CE
330
282
100
AcDbEntity
  8
1
 62
     7
100
AcDbLine
 10
18.10000000000001
 20
-31.10000000000001
 30
0.0
 11
21.10000000000002
 21
-31.10000000000001
 31
0.0
  0
LINE
  5
CF
330
282
100
AcDbEntity
  8
1
 62
     7
100
AcDbLine
 10
18.10000000000001
 20
-31.10000000000001
 30
0.0
 11
18.70000000000002
 21
-30.50000000000001
 31
0.0
  0
LINE
  5
D0
330
282
100
AcDbEntity
  8
1
 62
     7
100
AcDbLine
 10
18.70000000000002
 20
-30.50000000000001
 30
0.0
 11
20.5
 21
-30.50000000000001
 31
0.0
  0
LINE
  5
D1
330
282
100
AcDbEntity
  8
1
 62
     7
100
AcDbLine
 10
20.5
 20
-30.50000000000001
 30
0.0
 11
21.10000000000002
 21
-31.10000000000001
 31
0.0
  0
LINE
  5
D2
330
282
100
AcDbEntity
  8
1
 62
     3
100
AcDbLine
 10
18.10000000000001
 20
-36.96076951545868
 30
0.0
 11
21.10000000000002
 21
-36.96076951545868
 31
0.0
  0
LINE
  5
D3
330
282
100
AcDbEntity
  8
1
 62
     3
100
AcDbLine
 10
18.10000000000001
 20
-38.0
 30
0.0
 11
18.70000000000002
 21
-36.96076951545868
 31
0.0
  0
LINE
  5
D4
330
282
100
AcDbEntity
  8
1
 62
     3
100
AcDbLine
 10
21.10000000000002
 20
-38.0
 30
0.0
 11
20.5
 21
-36.96076951545868
 31
0.0
  0
LINE
  5
D5
330
282
100
AcDbEntity
  8
1
 62
     7
100
AcDbLine
 10
18.10000000000001
 20
-40.64999999999999
 30
0.0
 11
21.10000000000002
 21
-40.64999999999999
 31
0.0
  0
LINE
  5
D6
330
282
100
AcDbEntity
  8
1
 62
     7
100
AcDbLine
 10
16.85000000000002
 20
-38.50000000000001
 30
0.0
 11
16.85000000000002
 21
-38.89999999999999
 31
0.0
  0
LINE
  5
D7
330
282
100
AcDbEntity
  8
1
 62
     7
100
AcDbLine
 10
16.85000000000002
 20
-38.89999999999999
 30
0.0
 11
22.35000000000002
 21
-38.89999999999999
 31
0.0
  0
LINE
  5
D8
330
282
100
AcDbEntity
  8
1
 62
     7
100
AcDbLine
 10
22.35000000000002
 20
-38.89999999999999
 30
0.0
 11
22.35000000000002
 21
-38.50000000000001
 31
0.0
  0
LINE
  5
D9
330
282
100
AcDbEntity
  8
1
 62
     7
100
AcDbLine
 10
16.35000000000002
 20
-41.00000000000004
 30
0.0
 11
16.35000000000002
 21
-38.50000000000001
 31
0.0
  0
LINE
  5
DA
330
282
100
AcDbEntity
  8
1
 62
     7
100
AcDbLine
 10
16.35000000000002
 20
-38.50000000000001
 30
0.0
 11
22.85000000000001
 21
-38.50000000000001
 31
0.0
  0
LINE
  5
DB
330
282
100
AcDbEntity
  8
1
 62
     7
100
AcDbLine
 10
22.85000000000001
 20
-38.50000000000001
 30
0.0
 11
22.85000000000001
 21
-41.0
 31
0.0
  0
LINE
  5
DC
330
282
100
AcDbEntity
  8
1
 62
     7
100
AcDbLine
 10
10.60000000000002
 20
-24.75000000000001
 30
0.0
 11
10.60000000000002
 21
-12.5
 31
0.0
  0
LINE
  5
DD
330
282
100
AcDbEntity
  8
1
 62
     7
100
AcDbLine
 10
8.850000000000024
 20
24.75000000000001
 30
0.0
 11
8.850000000000024
 21
12.5
 31
0.0
  0
LINE
  5
DE
330
282
100
AcDbEntity
  8
1
 62
     7
100
AcDbLine
 10
7.100000000000021
 20
-40.0
 30
0.0
 11
7.100000000000021
 21
-12.5
 31
0.0
  0
LINE
  5
DF
330
282
100
AcDbEntity
  8
1
 62
     7
100
AcDbLine
 10
29.25
 20
-35.0
 30
0.0
 11
29.25
 21
-15.0
 31
0.0
  0
LINE
  5
E0
330
282
100
AcDbEntity
  8
1
 62
     7
100
AcDbLine
 10
22.60000000000002
 20
-23.5
 30
0.0
 11
22.60000000000002
 21
-12.5
 31
0.0
  0
LINE
  5
E1
330
282
100
AcDbEntity
  8
1
 62
     7
100
AcDbLine
 10
8.850000000000024
 20
-18.65
 30
0.0
 11
10.60000000000002
 21
-18.65
 31
0.0
  0
LINE
  5
E2
330
282
100
AcDbEntity
  8
1
 62
     7
100
AcDbLine
 10
8.850000000000024
 20
20.24999999999999
 30
0.0
 11
10.60000000000002
 21
20.24999999999999
 31
0.0
  0
LINE
  5
E3
330
282
100
AcDbEntity
  8
1
 62
     7
100
AcDbLine
 10
10.60000000000002
 20
12.5
 30
0.0
 11
10.60000000000002
 21
24.75000000000001
 31
0.0
  0
LINE
  5
E4
330
282
100
AcDbEntity
  8
1
 62
     7
100
AcDbLine
 10
10.60000000000002
 20
-20.80500000000002
 30
0.0
 11
14.86161713077931
 21
-20.80500000000002
 31
0.0
  0
LINE
  5
E5
330
282
100
AcDbEntity
  8
1
 62
     7
100
AcDbLine
 10
22.60000000000002
 20
-20.80500000000002
 30
0.0
 11
18.33838286922071
 21
-20.80500000000002
 31
0.0
  0
LINE
  5
E6
330
282
100
AcDbEntity
  8
1
 62
     7
100
AcDbLine
 10
10.60000000000002
 20
-15.195
 30
0.0
 11
14.86161713077931
 21
-15.195
 31
0.0
  0
LINE
  5
E7
330
282
100
AcDbEntity
  8
1
 62
     7
100
AcDbLine
 10
22.60000000000002
 20
-15.195
 30
0.0
 11
18.33838286922071
 21
-15.195
 31
0.0
  0
LINE
  5
E8
330
282
100
AcDbEntity
  8
1
 62
     7
100
AcDbLine
 10
10.60000000000002
 20
20.80500000000001
 30
0.0
 11
14.86161713077931
 21
20.80500000000001
 31
0.0
  0
LINE
  5
E9
330
282
100
AcDbEntity
  8
1
 62
     7
100
AcDbLine
 10
22.60000000000002
 20
20.80500000000001
 30
0.0
 11
18.33838286922071
 21
20.80500000000001
 31
0.0
  0
LINE
  5
EA
330
282
100
AcDbEntity
  8
1
 62
     7
100
AcDbLine
 10
10.60000000000002
 20
15.195
 30
0.0
 11
14.86161713077931
 21
15.195
 31
0.0
  0
LINE
  5
EB
330
282
100
AcDbEntity
  8
1
 62
     7
100
AcDbLine
 10
22.60000000000002
 20
15.195
 30
0.0
 11
18.33838286922071
 21
15.195
 31
0.0
  0
LINE
  5
EC
330
282
100
AcDbEntity
  8
1
 62
     7
100
AcDbLine
 10
13.10000000000002
 20
41.0
 30
0.0
 11
13.10000000000002
 21
36.5
 31
0.0
  0
LINE
  5
ED
330
282
100
AcDbEntity
  8
1
 62
     7
100
AcDbLine
 10
7.100000000000021
 20
12.5
 30
0.0
 11
7.100000000000021
 21
40.0
 31
0.0
  0
LINE
  5
EE
330
282
100
AcDbEntity
  8
1
 62
     7
100
AcDbLine
 10
8.850000000000024
 20
23.5
 30
0.0
 11
7.100000000000021
 21
23.5
 31
0.0
  0
LINE
  5
EF
330
282
100
AcDbEntity
  8
1
 62
     7
100
AcDbLine
 10
22.60000000000002
 20
23.5
 30
0.0
 11
10.60000000000002
 21
23.5
 31
0.0
  0
LINE
  5
F0
330
282
100
AcDbEntity
  8
1
 62
     7
100
AcDbLine
 10
8.850000000000024
 20
24.75000000000001
 30
0.0
 11
10.60000000000002
 21
24.75000000000001
 31
0.0
  0
LINE
  5
F1
330
282
100
AcDbEntity
  8
1
 62
     7
100
AcDbLine
 10
18.10000000000001
 20
-36.5
 30
0.0
 11
13.10000000000002
 21
-36.5
 31
0.0
  0
LINE
  5
F2
330
282
100
AcDbEntity
  8
1
 62
     7
100
AcDbLine
 10
13.10000000000002
 20
-36.5
 30
0.0
 11
13.10000000000002
 21
-41.0
 31
0.0
  0
LINE
  5
F3
330
282
100
AcDbEntity
  8
1
 62
     7
100
AcDbLine
 10
7.100000000000021
 20
-23.5
 30
0.0
 11
8.850000000000024
 21
-23.5
 31
0.0
  0
LINE
  5
F4
330
282
100
AcDbEntity
  8
1
 62
     7
100
AcDbLine
 10
10.60000000000002
 20
-23.5
 30
0.0
 11
22.60000000000002
 21
-23.5
 31
0.0
  0
LINE
  5
F5
330
282
100
AcDbEntity
  8
1
 62
     7
100
AcDbLine
 10
10.60000000000002
 20
-24.75000000000001
 30
0.0
 11
8.850000000000024
 21
-24.75000000000001
 31
0.0
  0
LINE
  5
F6
330
282
100
AcDbEntity
  8
1
 62
     7
100
AcDbLine
 10
8.850000000000024
 20
-12.5
 30
0.0
 11
8.850000000000024
 21
-24.75000000000001
 31
0.0
  0
LINE
  5
F7
330
282
100
AcDbEntity
  8
1
 62
     7
100
AcDbLine
 10
22.60000000000002
 20
12.5
 30
0.0
 11
22.60000000000002
 21
23.5
 31
0.0
  0
LINE
  5
F8
330
282
100
AcDbEntity
  8
1
 62
     7
100
AcDbLine
 10
8.100000000000022
 20
-41.00000000000004
 30
0.0
 11
7.100000000000021
 21
-40.0
 31
0.0
  0
LINE
  5
F9
330
282
100
AcDbEntity
  8
1
 62
     7
100
AcDbLine
 10
7.100000000000021
 20
40.0
 30
0.0
 11
8.100000000000022
 21
41.0
 31
0.0
  0
LINE
  5
FA
330
282
100
AcDbEntity
  8
1
 62
     7
100
AcDbLine
 10
29.25
 20
15.0
 30
0.0
 11
29.25
 21
35.0
 31
0.0
  0
LINE
  5
FB
330
282
100
AcDbEntity
  8
1
 62
     7
100
AcDbLine
 10
26.39999999999993
 20
-35.0
 30
0.0
 11
29.25
 21
-35.0
 31
0.0
  0
LINE
  5
FC
330
282
100
AcDbEntity
  8
1
 62
     7
100
AcDbLine
 10
41.70000000000001
 20
-12.5
 30
0.0
 11
41.70000000000001
 21
-23.5
 31
0.0
  0
LINE
  5
FD
330
282
100
AcDbEntity
  8
1
 62
     7
100
AcDbLine
 10
35.05000000000001
 20
35.0
 30
0.0
 11
35.05000000000001
 21
15.0
 31
0.0
  0
LINE
  5
FE
330
282
100
AcDbEntity
  8
1
 62
     7
100
AcDbLine
 10
22.60000000000002
 20
15.0
 30
0.0
 11
30.0
 21
15.0
 31
0.0
  0
LINE
  5
FF
330
282
100
AcDbEntity
  8
1
 62
     7
100
AcDbLine
 10
30.0
 20
15.0
 30
0.0
 11
30.0
 21
35.0
 31
0.0
  0
LINE
  5
100
330
282
100
AcDbEntity
  8
1
 62
     7
100
AcDbLine
 10
30.0
 20
35.0
 30
0.0
 11
34.30000000000001
 21
35.0
 31
0.0
  0
LINE
  5
101
330
282
100
AcDbEntity
  8
1
 62
     7
100
AcDbLine
 10
34.30000000000001
 20
15.0
 30
0.0
 11
41.70000000000001
 21
15.0
 31
0.0
  0
LINE
  5
102
330
282
100
AcDbEntity
  8
1
 62
     7
100
AcDbLine
 10
41.70000000000001
 20
23.5
 30
0.0
 11
41.70000000000001
 21
12.5
 31
0.0
  0
LINE
  5
103
330
282
100
AcDbEntity
  8
1
 62
     7
100
AcDbLine
 10
22.60000000000002
 20
-15.0
 30
0.0
 11
30.0
 21
-15.0
 31
0.0
  0
LINE
  5
104
330
282
100
AcDbEntity
  8
1
 62
     7
100
AcDbLine
 10
30.0
 20
-15.0
 30
0.0
 11
30.0
 21
-35.0
 31
0.0
  0
LINE
  5
105
330
282
100
AcDbEntity
  8
1
 62
     7
100
AcDbLine
 10
30.0
 20
-35.0
 30
0.0
 11
34.30000000000001
 21
-35.0
 31
0.0
  0
LINE
  5
106
330
282
100
AcDbEntity
  8
1
 62
     7
100
AcDbLine
 10
34.30000000000001
 20
-15.0
 30
0.0
 11
41.70000000000001
 21
-15.0
 31
0.0
  0
LINE
  5
107
330
282
100
AcDbEntity
  8
1
 62
     7
100
AcDbLine
 10
41.70000000000001
 20
12.5
 30
0.0
 11
53.7
 21
12.5
 31
0.0
  0
LINE
  5
108
330
282
100
AcDbEntity
  8
1
 62
     7
100
AcDbLine
 10
53.7
 20
-12.5
 30
0.0
 11
41.70000000000001
 21
-12.5
 31
0.0
  0
LINE
  5
109
330
282
100
AcDbEntity
  8
1
 62
     7
100
AcDbLine
 10
0.0
 20
-12.5
 30
0.0
 11
0.0
 21
12.5
 31
0.0
  0
LINE
  5
10A
330
282
100
AcDbEntity
  8
1
 62
     3
100
AcDbLine
 10
46.2000000000001
 20
36.96076951545868
 30
0.0
 11
43.2000000000001
 21
36.96076951545868
 31
0.0
  0
LINE
  5
10B
330
282
100
AcDbEntity
  8
1
 62
     3
100
AcDbLine
 10
43.80000000000013
 20
36.96076951545868
 30
0.0
 11
43.2000000000001
 21
38.0
 31
0.0
  0
LINE
  5
10C
330
282
100
AcDbEntity
  8
1
 62
     3
100
AcDbLine
 10
43.80000000000013
 20
30.50000000000001
 30
0.0
 11
43.80000000000013
 21
36.96076951545868
 31
0.0
  0
LINE
  5
10D
330
282
100
AcDbEntity
  8
1
 62
     3
100
AcDbLine
 10
45.60000000000001
 20
36.96076951545868
 30
0.0
 11
46.2000000000001
 21
38.0
 31
0.0
  0
LINE
  5
10E
330
282
100
AcDbEntity
  8
1
 62
     3
100
AcDbLine
 10
45.60000000000001
 20
30.50000000000001
 30
0.0
 11
45.60000000000001
 21
36.96076951545868
 31
0.0
  0
LINE
  5
10F
330
282
100
AcDbEntity
  8
1
 62
     7
100
AcDbLine
 10
46.2000000000001
 20
31.10000000000001
 30
0.0
 11
43.2000000000001
 21
31.10000000000001
 31
0.0
  0
LINE
  5
110
330
282
100
AcDbEntity
  8
1
 62
     7
100
AcDbLine
 10
43.2000000000001
 20
31.10000000000001
 30
0.0
 11
43.2000000000001
 21
38.50000000000001
 31
0.0
  0
LINE
  5
111
330
282
100
AcDbEntity
  8
1
 62
     7
100
AcDbLine
 10
43.80000000000013
 20
30.50000000000001
 30
0.0
 11
43.2000000000001
 21
31.10000000000001
 31
0.0
  0
LINE
  5
112
330
282
100
AcDbEntity
  8
1
 62
     7
100
AcDbLine
 10
45.60000000000001
 20
30.50000000000001
 30
0.0
 11
43.80000000000013
 21
30.50000000000001
 31
0.0
  0
LINE
  5
113
330
282
100
AcDbEntity
  8
1
 62
     7
100
AcDbLine
 10
46.2000000000001
 20
31.10000000000001
 30
0.0
 11
45.60000000000001
 21
30.50000000000001
 31
0.0
  0
LINE
  5
114
330
282
100
AcDbEntity
  8
1
 62
     7
100
AcDbLine
 10
46.2000000000001
 20
38.50000000000001
 30
0.0
 11
46.2000000000001
 21
31.10000000000001
 31
0.0
  0
LINE
  5
115
330
282
100
AcDbEntity
  8
1
 62
     7
100
AcDbLine
 10
46.2000000000001
 20
40.64999999999999
 30
0.0
 11
43.2000000000001
 21
40.64999999999999
 31
0.0
  0
LINE
  5
116
330
282
100
AcDbEntity
  8
1
 62
     7
100
AcDbLine
 10
41.9500000000001
 20
38.89999999999999
 30
0.0
 11
41.9500000000001
 21
38.50000000000001
 31
0.0
  0
LINE
  5
117
330
282
100
AcDbEntity
  8
1
 62
     7
100
AcDbLine
 10
47.4500000000001
 20
38.89999999999999
 30
0.0
 11
41.9500000000001
 21
38.89999999999999
 31
0.0
  0
LINE
  5
118
330
282
100
AcDbEntity
  8
1
 62
     7
100
AcDbLine
 10
47.4500000000001
 20
38.50000000000001
 30
0.0
 11
47.4500000000001
 21
38.89999999999999
 31
0.0
  0
LINE
  5
119
330
282
100
AcDbEntity
  8
1
 62
     7
100
AcDbLine
 10
41.45000000000009
 20
38.50000000000001
 30
0.0
 11
41.45000000000009
 21
41.0
 31
0.0
  0
LINE
  5
11A
330
282
100
AcDbEntity
  8
1
 62
     7
100
AcDbLine
 10
47.9500000000001
 20
38.50000000000001
 30
0.0
 11
41.45000000000009
 21
38.50000000000001
 31
0.0
  0
LINE
  5
11B
330
282
100
AcDbEntity
  8
1
 62
     7
100
AcDbLine
 10
47.9500000000001
 20
41.0
 30
0.0
 11
47.9500000000001
 21
38.50000000000001
 31
0.0
  0
LINE
  5
11C
330
282
100
AcDbEntity
  8
1
 62
     7
100
AcDbLine
 10
21.35000000000002
 20
-36.5
 30
0.0
 11
51.2
 21
-36.5
 31
0.0
  0
LINE
  5
11D
330
282
100
AcDbEntity
  8
1
 62
     7
100
AcDbLine
 10
16.35000000000002
 20
38.50000000000001
 30
0.0
 11
16.35000000000002
 21
41.0
 31
0.0
  0
LINE
  5
11E
330
282
100
AcDbEntity
  8
1
 62
     7
100
AcDbLine
 10
16.35000000000002
 20
38.50000000000001
 30
0.0
 11
22.85000000000001
 21
38.50000000000001
 31
0.0
  0
LINE
  5
11F
330
282
100
AcDbEntity
  8
1
 62
     7
100
AcDbLine
 10
22.85000000000001
 20
38.50000000000001
 30
0.0
 11
22.85000000000001
 21
41.0
 31
0.0
  0
LINE
  5
120
330
282
100
AcDbEntity
  8
1
 62
     7
100
AcDbLine
 10
46.2000000000001
 20
36.5
 30
0.0
 11
51.2
 21
36.5
 31
0.0
  0
LINE
  5
121
330
282
100
AcDbEntity
  8
1
 62
     7
100
AcDbLine
 10
35.05000000000001
 20
-15.0
 30
0.0
 11
35.05000000000001
 21
-35.0
 31
0.0
  0
LINE
  5
122
330
282
100
AcDbEntity
  8
1
 62
     7
100
AcDbLine
 10
37.90000000000012
 20
35.0
 30
0.0
 11
35.05000000000001
 21
35.0
 31
0.0
  0
LINE
  5
123
330
282
100
AcDbEntity
  8
1
 62
     7
100
AcDbLine
 10
56.2
 20
41.0
 30
0.0
 11
57.20000000000002
 21
40.0
 31
0.0
  0
LINE
  5
124
330
282
100
AcDbEntity
  8
1
 62
     7
100
AcDbLine
 10
57.20000000000002
 20
-40.00000000000002
 30
0.0
 11
56.2
 21
-41.00000000000004
 31
0.0
  0
LINE
  5
125
330
282
100
AcDbEntity
  8
1
 62
     7
100
AcDbLine
 10
55.45000000000001
 20
-24.75000000000004
 30
0.0
 11
55.45000000000001
 21
24.75000000000001
 31
0.0
  0
LINE
  5
126
330
282
100
AcDbEntity
  8
1
 62
     7
100
AcDbLine
 10
55.45000000000001
 20
-24.75000000000004
 30
0.0
 11
53.7
 21
-24.75000000000001
 31
0.0
  0
LINE
  5
127
330
282
100
AcDbEntity
  8
1
 62
     7
100
AcDbLine
 10
41.70000000000001
 20
-23.5
 30
0.0
 11
53.7
 21
-23.50000000000003
 31
0.0
  0
LINE
  5
128
330
282
100
AcDbEntity
  8
1
 62
     7
100
AcDbLine
 10
55.45000000000001
 20
-23.50000000000003
 30
0.0
 11
57.20000000000002
 21
-23.50000000000003
 31
0.0
  0
LINE
  5
129
330
282
100
AcDbEntity
  8
1
 62
     7
100
AcDbLine
 10
56.2
 20
-41.00000000000004
 30
0.0
 11
8.100000000000022
 21
-41.00000000000004
 31
0.0
  0
LINE
  5
12A
330
282
100
AcDbEntity
  8
1
 62
     7
100
AcDbLine
 10
51.2
 20
-41.0
 30
0.0
 11
51.2
 21
-36.5
 31
0.0
  0
LINE
  5
12B
330
282
100
AcDbEntity
  8
1
 62
     7
100
AcDbLine
 10
53.7
 20
24.75000000000001
 30
0.0
 11
55.45000000000001
 21
24.75000000000001
 31
0.0
  0
LINE
  5
12C
330
282
100
AcDbEntity
  8
1
 62
     7
100
AcDbLine
 10
53.7
 20
23.5
 30
0.0
 11
41.70000000000001
 21
23.5
 31
0.0
  0
LINE
  5
12D
330
282
100
AcDbEntity
  8
1
 62
     7
100
AcDbLine
 10
57.20000000000002
 20
23.5
 30
0.0
 11
55.45000000000001
 21
23.5
 31
0.0
  0
LINE
  5
12E
330
282
100
AcDbEntity
  8
1
 62
     7
100
AcDbLine
 10
35.05000000000001
 20
16.3
 30
0.0
 11
41.70000000000001
 21
16.3
 31
0.0
  0
LINE
  5
12F
330
282
100
AcDbEntity
  8
1
 62
     7
100
AcDbLine
 10
57.20000000000002
 20
40.0
 30
0.0
 11
57.20000000000002
 21
-40.00000000000002
 31
0.0
  0
LINE
  5
130
330
282
100
AcDbEntity
  8
1
 62
     7
100
AcDbLine
 10
8.100000000000022
 20
41.0
 30
0.0
 11
56.2
 21
41.0
 31
0.0
  0
LINE
  5
131
330
282
100
AcDbEntity
  8
1
 62
     7
100
AcDbLine
 10
51.2
 20
36.5
 30
0.0
 11
51.2
 21
41.0
 31
0.0
  0
LINE
  5
132
330
282
100
AcDbEntity
  8
1
 62
     7
100
AcDbLine
 10
45.96161713077928
 20
15.195
 30
0.0
 11
41.70000000000001
 21
15.195
 31
0.0
  0
LINE
  5
133
330
282
100
AcDbEntity
  8
1
 62
     7
100
AcDbLine
 10
49.4383828692207
 20
15.195
 30
0.0
 11
53.7
 21
15.195
 31
0.0
  0
LINE
  5
134
330
282
100
AcDbEntity
  8
1
 62
     7
100
AcDbLine
 10
45.96161713077928
 20
20.80500000000001
 30
0.0
 11
41.70000000000001
 21
20.80500000000001
 31
0.0
  0
LINE
  5
135
330
282
100
AcDbEntity
  8
1
 62
     7
100
AcDbLine
 10
49.4383828692207
 20
20.80500000000001
 30
0.0
 11
53.7
 21
20.80500000000001
 31
0.0
  0
LINE
  5
136
330
282
100
AcDbEntity
  8
1
 62
     7
100
AcDbLine
 10
45.96161713077928
 20
-15.19500000000002
 30
0.0
 11
41.70000000000001
 21
-15.19500000000002
 31
0.0
  0
LINE
  5
137
330
282
100
AcDbEntity
  8
1
 62
     7
100
AcDbLine
 10
49.4383828692207
 20
-15.19500000000002
 30
0.0
 11
53.7
 21
-15.19500000000002
 31
0.0
  0
LINE
  5
138
330
282
100
AcDbEntity
  8
1
 62
     7
100
AcDbLine
 10
45.96161713077928
 20
-20.80500000000002
 30
0.0
 11
41.70000000000001
 21
-20.80500000000002
 31
0.0
  0
LINE
  5
139
330
282
100
AcDbEntity
  8
1
 62
     7
100
AcDbLine
 10
49.4383828692207
 20
-20.80500000000002
 30
0.0
 11
53.7
 21
-20.80500000000002
 31
0.0
  0
LINE
  5
13A
330
282
100
AcDbEntity
  8
1
 62
     7
100
AcDbLine
 10
53.7
 20
24.75000000000001
 30
0.0
 11
53.7
 21
-24.75000000000001
 31
0.0
  0
LINE
  5
13B
330
282
100
AcDbEntity
  8
1
 62
     7
100
AcDbLine
 10
53.7
 20
20.24999999999999
 30
0.0
 11
55.45000000000001
 21
20.24999999999999
 31
0.0
  0
LINE
  5
13C
330
282
100
AcDbEntity
  8
1
 62
     7
100
AcDbLine
 10
53.7
 20
-18.65
 30
0.0
 11
55.45000000000001
 21
-18.65
 31
0.0
  0
LINE
  5
13D
330
282
100
AcDbEntity
  8
1
  6
DASHDOT
 62
     3
100
AcDbLine
 10
-73.12115465310248
 20
18.1223708165843
 30
0.0
 11
-66.64816044495947
 21
21.8595557651186
 31
0.0
  0
LINE
  5
13E
330
282
100
AcDbEntity
  8
1
 62
     7
100
AcDbLine
 10
-116.8971744415943
 20
-1.675841875284789
 30
0.0
 11
-117.01002166103
 21
-1.480384757729297
 31
0.0
  0
LINE
  5
13F
330
282
100
AcDbEntity
  8
1
  6
DASHED
 62
     3
100
AcDbLine
 10
-116.71002166103
 20
2.0
 30
0.0
 11
-116.71002166103
 21
-2.0
 31
0.0
  0
LINE
  5
140
330
282
100
AcDbEntity
  8
1
  6
DASHED
 62
     3
100
AcDbLine
 10
-116.8971744415943
 20
1.675841875284803
 30
0.0
 11
-116.71002166103
 21
2.0
 31
0.0
  0
LINE
  5
141
330
282
100
AcDbEntity
  8
1
 62
     7
100
AcDbLine
 10
-117.01002166103
 20
-1.480384757729297
 30
0.0
 11
-117.01002166103
 21
1.480384757729311
 31
0.0
  0
LINE
  5
142
330
282
100
AcDbEntity
  8
1
  6
DASHED
 62
     3
100
AcDbLine
 10
-113.01002166103
 20
-2.0
 30
0.0
 11
-116.71002166103
 21
-2.0
 31
0.0
  0
LINE
  5
143
330
282
100
AcDbEntity
  8
1
  6
DASHED
 62
     3
100
AcDbLine
 10
-113.01002166103
 20
2.0
 30
0.0
 11
-113.01002166103
 21
-2.0
 31
0.0
  0
LINE
  5
144
330
282
100
AcDbEntity
  8
1
  6
DASHED
 62
     3
100
AcDbLine
 10
-116.71002166103
 20
2.0
 30
0.0
 11
-113.01002166103
 21
2.0
 31
0.0
  0
LINE
  5
145
330
282
100
AcDbEntity
  8
1
  6
DASHED
 62
     3
100
AcDbLine
 10
-112.01002166103
 20
-1.0
 30
0.0
 11
-113.01002166103
 21
-2.0
 31
0.0
  0
LINE
  5
146
330
282
100
AcDbEntity
  8
1
  6
DASHED
 62
     3
100
AcDbLine
 10
-112.01002166103
 20
1.0
 30
0.0
 11
-112.01002166103
 21
-1.0
 31
0.0
  0
LINE
  5
147
330
282
100
AcDbEntity
  8
1
  6
DASHED
 62
     3
100
AcDbLine
 10
-113.01002166103
 20
2.0
 30
0.0
 11
-112.01002166103
 21
1.0
 31
0.0
  0
LINE
  5
148
330
282
100
AcDbEntity
  8
1
 62
     7
100
AcDbLine
 10
-117.01002166103
 20
1.480384757729311
 30
0.0
 11
-116.8971744415943
 21
1.675841875284803
 31
0.0
  0
LINE
  5
149
330
282
100
AcDbEntity
  8
1
  6
DASHED
 62
     3
100
AcDbLine
 10
-116.71002166103
 20
-2.0
 30
0.0
 11
-116.8971744415943
 21
-1.675841875284789
 31
0.0
  0
LINE
  5
14A
330
282
100
AcDbEntity
  8
1
  6
DASHED
 62
     3
100
AcDbLine
 10
-113.01002166103
 20
-2.0
 30
0.0
 11
-111.7384378084305
 21
-2.0
 31
0.0
  0
LINE
  5
14B
330
282
100
AcDbEntity
  8
1
  6
DASHED
 62
     3
100
AcDbLine
 10
-117.01002166103
 20
-1.399999999999991
 30
0.0
 11
-111.8781964689455
 21
-1.399999999999991
 31
0.0
  0
LINE
  5
14C
330
282
100
AcDbEntity
  8
1
  6
DASHED
 62
     3
100
AcDbLine
 10
-117.01002166103
 20
1.400000000000004
 30
0.0
 11
-111.8781964689455
 21
1.400000000000004
 31
0.0
  0
LINE
  5
14D
330
282
100
AcDbEntity
  8
1
  6
DASHED
 62
     3
100
AcDbLine
 10
-113.01002166103
 20
2.0
 30
0.0
 11
-111.7384378084305
 21
2.0
 31
0.0
  0
LINE
  5
14E
330
282
100
AcDbEntity
  8
1
 62
     7
100
AcDbLine
 10
-103.0296369033006
 20
14.8
 30
0.0
 11
-102.51002166103
 21
14.5
 31
0.0
  0
LINE
  5
14F
330
282
100
AcDbEntity
  8
1
 62
     7
100
AcDbLine
 10
-102.51002166103
 20
14.5
 30
0.0
 11
-106.51002166103
 21
14.5
 31
0.0
  0
LINE
  5
150
330
282
100
AcDbEntity
  8
1
 62
     7
100
AcDbLine
 10
-106.51002166103
 20
14.5
 30
0.0
 11
-105.9904064187592
 21
14.8
 31
0.0
  0
LINE
  5
151
330
282
100
AcDbEntity
  8
1
 62
     7
100
AcDbLine
 10
-105.9904064187592
 20
14.8
 30
0.0
 11
-103.0296369033006
 21
14.8
 31
0.0
  0
LINE
  5
152
330
282
100
AcDbEntity
  8
1
 62
     7
100
AcDbLine
 10
-102.51002166103
 20
14.5
 30
0.0
 11
-102.51002166103
 21
12.3389626792531
 31
0.0
  0
LINE
  5
153
330
282
100
AcDbEntity
  8
1
  6
DASHED
 62
     3
100
AcDbLine
 10
-102.51002166103
 20
10.8
 30
0.0
 11
-106.51002166103
 21
10.8
 31
0.0
  0
LINE
  5
154
330
282
100
AcDbEntity
  8
1
  6
DASHED
 62
     3
100
AcDbLine
 10
-102.51002166103
 20
10.8
 30
0.0
 11
-103.51002166103
 21
9.8
 31
0.0
  0
LINE
  5
155
330
282
100
AcDbEntity
  8
1
  6
DASHED
 62
     3
100
AcDbLine
 10
-105.51002166103
 20
9.8
 30
0.0
 11
-106.51002166103
 21
10.8
 31
0.0
  0
LINE
  5
156
330
282
100
AcDbEntity
  8
1
 62
     3
100
AcDbLine
 10
-103.11002166103
 20
14.8
 30
0.0
 11
-103.11002166103
 21
12.42135258335421
 31
0.0
  0
LINE
  5
157
330
282
100
AcDbEntity
  8
1
  6
DASHED
 62
     3
100
AcDbLine
 10
-102.51002166103
 20
12.3389626792531
 30
0.0
 11
-102.51002166103
 21
9.8
 31
0.0
  0
LINE
  5
158
330
282
100
AcDbEntity
  8
1
  6
DASHED
 62
     3
100
AcDbLine
 10
-103.11002166103
 20
12.42135258335421
 30
0.0
 11
-103.11002166103
 21
9.8
 31
0.0
  0
LINE
  5
159
330
282
100
AcDbEntity
  8
1
 62
     7
100
AcDbLine
 10
-106.51002166103
 20
12.3389626792531
 30
0.0
 11
-106.51002166103
 21
14.5
 31
0.0
  0
LINE
  5
15A
330
282
100
AcDbEntity
  8
1
 62
     3
100
AcDbLine
 10
-105.91002166103
 20
12.42135258335419
 30
0.0
 11
-105.91002166103
 21
14.8
 31
0.0
  0
LINE
  5
15B
330
282
100
AcDbEntity
  8
1
 62
     7
100
AcDbLine
 10
1.5
 20
14.5
 30
0.0
 11
2.019615242270702
 21
14.8
 31
0.0
  0
LINE
  5
15C
330
282
100
AcDbEntity
  8
1
 62
     7
100
AcDbLine
 10
5.5
 20
14.5
 30
0.0
 11
1.5
 21
14.5
 31
0.0
  0
LINE
  5
15D
330
282
100
AcDbEntity
  8
1
 62
     7
100
AcDbLine
 10
4.980384757729324
 20
14.8
 30
0.0
 11
5.5
 21
14.5
 31
0.0
  0
LINE
  5
15E
330
282
100
AcDbEntity
  8
1
 62
     7
100
AcDbLine
 10
2.019615242270702
 20
14.8
 30
0.0
 11
4.980384757729324
 21
14.8
 31
0.0
  0
LINE
  5
15F
330
282
100
AcDbEntity
  8
1
 62
     7
100
AcDbLine
 10
1.5
 20
10.8
 30
0.0
 11
1.5
 21
14.5
 31
0.0
  0
LINE
  5
160
330
282
100
AcDbEntity
  8
1
 62
     7
100
AcDbLine
 10
5.5
 20
10.8
 30
0.0
 11
1.5
 21
10.8
 31
0.0
  0
LINE
  5
161
330
282
100
AcDbEntity
  8
1
 62
     7
100
AcDbLine
 10
5.5
 20
14.5
 30
0.0
 11
5.5
 21
10.8
 31
0.0
  0
LINE
  5
162
330
282
100
AcDbEntity
  8
1
 62
     7
100
AcDbLine
 10
2.5
 20
9.8
 30
0.0
 11
1.5
 21
10.8
 31
0.0
  0
LINE
  5
163
330
282
100
AcDbEntity
  8
1
 62
     7
100
AcDbLine
 10
5.5
 20
10.8
 30
0.0
 11
4.5
 21
9.8
 31
0.0
  0
LINE
  5
164
330
282
100
AcDbEntity
  8
1
 62
     3
100
AcDbLine
 10
2.100000000000023
 20
10.20000000000001
 30
0.0
 11
2.100000000000023
 21
14.8
 31
0.0
  0
LINE
  5
165
330
282
100
AcDbEntity
  8
1
 62
     3
100
AcDbLine
 10
4.900000000000004
 20
10.20000000000001
 30
0.0
 11
4.900000000000004
 21
14.8
 31
0.0
  0
LINE
  5
166
330
282
100
AcDbEntity
  8
1
 62
     7
100
AcDbLine
 10
0.0
 20
12.5
 30
0.0
 11
1.5
 21
12.5
 31
0.0
  0
LINE
  5
167
330
282
100
AcDbEntity
  8
1
 62
     7
100
AcDbLine
 10
2.100000000000023
 20
9.8
 30
0.0
 11
2.100000000000023
 21
10.20000000000001
 31
0.0
  0
LINE
  5
168
330
282
100
AcDbEntity
  8
1
 62
     7
100
AcDbLine
 10
4.900000000000004
 20
9.8
 30
0.0
 11
4.900000000000004
 21
10.20000000000001
 31
0.0
  0
LINE
  5
169
330
282
100
AcDbEntity
  8
1
 62
     3
100
AcDbLine
 10
1.5
 20
9.8
 30
0.0
 11
1.5
 21
10.8
 31
0.0
  0
LINE
  5
16A
330
282
100
AcDbEntity
  8
1
 62
     3
100
AcDbLine
 10
5.5
 20
9.8
 30
0.0
 11
5.5
 21
10.8
 31
0.0
  0
LINE
  5
16B
330
282
100
AcDbEntity
  8
1
  6
DASHDOT
 62
     3
100
AcDbLine
 10
44.70000000000009
 20
28.60835047986899
 30
0.0
 11
44.70000000000009
 21
43.18321860071801
 31
0.0
  0
LINE
  5
16C
330
282
100
AcDbEntity
  8
1
  6
DASHDOT
 62
     3
100
AcDbLine
 10
19.60000000000001
 20
-28.71703528443611
 30
0.0
 11
19.60000000000001
 21
-43.43938094907211
 31
0.0
  0
LINE
  5
16D
330
282
100
AcDbEntity
  8
1
  6
DASHDOT
 62
     3
100
AcDbLine
 10
19.60000000000001
 20
28.60835047986899
 30
0.0
 11
19.60000000000001
 21
43.18321860071801
 31
0.0
  0
LINE
  5
16E
330
282
100
AcDbEntity
  8
1
 62
     7
100
AcDbLine
 10
29.25
 20
16.3
 30
0.0
 11
22.60000000000002
 21
16.3
 31
0.0
  0
LINE
  5
16F
330
282
100
AcDbEntity
  8
1
 62
     7
100
AcDbLine
 10
29.25
 20
-16.3
 30
0.0
 11
22.60000000000002
 21
-16.3
 31
0.0
  0
LINE
  5
170
330
282
100
AcDbEntity
  8
1
 62
     7
100
AcDbLine
 10
35.05000000000001
 20
-16.3
 30
0.0
 11
41.70000000000001
 21
-16.3
 31
0.0
  0
LINE
  5
171
330
282
100
AcDbEntity
  8
1
 62
     7
100
AcDbLine
 10
34.30000000000001
 20
-35.0
 30
0.0
 11
34.30000000000001
 21
-15.0
 31
0.0
  0
LINE
  5
172
330
282
100
AcDbEntity
  8
1
 62
     7
100
AcDbLine
 10
35.05000000000001
 20
-35.0
 30
0.0
 11
37.90000000000012
 21
-35.0
 31
0.0
  0
LINE
  5
173
330
282
100
AcDbEntity
  8
1
 62
     7
100
AcDbLine
 10
-64.01002166102998
 20
0.75
 30
0.0
 11
-64.01002166102998
 21
-0.75
 31
0.0
  0
LINE
  5
174
330
282
100
AcDbEntity
  8
1
 62
     7
100
AcDbLine
 10
-64.01002166102998
 20
-0.75
 30
0.0
 11
-63.51688199108033
 21
-0.75
 31
0.0
  0
LINE
  5
175
330
282
100
AcDbEntity
  8
1
 62
     7
100
AcDbLine
 10
-64.01002166102998
 20
0.75
 30
0.0
 11
-63.51688199108033
 21
0.75
 31
0.0
  0
LINE
  5
176
330
282
100
AcDbEntity
  8
1
  6
DASHDOT
 62
     3
100
AcDbLine
 10
6.148397919972422
 20
0.0
 30
0.0
 11
0.8516020800275779
 21
0.0
 31
0.0
  0
LINE
  5
177
330
282
100
AcDbEntity
  8
1
  6
DASHDOT
 62
     3
100
AcDbLine
 10
3.5
 20
2.648397919972421
 30
0.0
 11
3.5
 21
-2.648397919972421
 31
0.0
  0
LINE
  5
178
330
282
100
AcDbEntity
  8
1
 62
     3
100
AcDbLine
 10
139.5960932815758
 20
-40.731141166932
 30
0.0
 11
144.5960932815758
 21
-40.731141166932
 31
0.0
  0
LINE
  5
179
330
282
100
AcDbEntity
  8
1
 62
     3
100
AcDbLine
 10
139.5960932815758
 20
-40.23114116693199
 30
0.0
 11
144.5960932815758
 21
-40.23114116693199
 31
0.0
  0
LINE
  5
17A
330
282
100
AcDbEntity
  8
1
 62
     3
100
AcDbLine
 10
139.5960932815758
 20
-39.731141166932
 30
0.0
 11
144.5960932815758
 21
-39.731141166932
 31
0.0
  0
LINE
  5
17B
330
282
100
AcDbEntity
  8
1
 62
     3
100
AcDbLine
 10
139.5960932815758
 20
-39.231141166932
 30
0.0
 11
144.5960932815758
 21
-39.231141166932
 31
0.0
  0
LINE
  5
17C
330
282
100
AcDbEntity
  8
1
 62
     3
100
AcDbLine
 10
139.5960932815758
 20
-38.731141166932
 30
0.0
 11
144.5960932815758
 21
-38.731141166932
 31
0.0
  0
LINE
  5
17D
330
282
100
AcDbEntity
  8
1
 62
     3
100
AcDbLine
 10
139.5960932815758
 20
-38.231141166932
 30
0.0
 11
144.5960932815758
 21
-38.231141166932
 31
0.0
  0
LINE
  5
17E
330
282
100
AcDbEntity
  8
1
 62
     3
100
AcDbLine
 10
139.5960932815758
 20
-37.731141166932
 30
0.0
 11
144.5960932815758
 21
-37.731141166932
 31
0.0
  0
LINE
  5
17F
330
282
100
AcDbEntity
  8
1
 62
     3
100
AcDbLine
 10
139.5960932815758
 20
-37.231141166932
 30
0.0
 11
144.5960932815758
 21
-37.231141166932
 31
0.0
  0
LINE
  5
180
330
282
100
AcDbEntity
  8
1
 62
     3
100
AcDbLine
 10
139.5960932815758
 20
-36.731141166932
 30
0.0
 11
144.5960932815758
 21
-36.731141166932
 31
0.0
  0
LINE
  5
181
330
282
100
AcDbEntity
  8
1
 62
     3
100
AcDbLine
 10
139.5960932815758
 20
-36.231141166932
 30
0.0
 11
144.5960932815758
 21
-36.231141166932
 31
0.0
  0
LINE
  5
182
330
282
100
AcDbEntity
  8
1
 62
     3
100
AcDbLine
 10
139.5960932815758
 20
-35.731141166932
 30
0.0
 11
144.5960932815758
 21
-35.731141166932
 31
0.0
  0
LINE
  5
183
330
282
100
AcDbEntity
  8
1
 62
     3
100
AcDbLine
 10
139.5960932815758
 20
-35.231141166932
 30
0.0
 11
144.5960932815758
 21
-35.231141166932
 31
0.0
  0
LINE
  5
184
330
282
100
AcDbEntity
  8
1
 62
     3
100
AcDbLine
 10
139.5960932815758
 20
-34.73114116693202
 30
0.0
 11
144.5960932815758
 21
-34.73114116693202
 31
0.0
  0
LINE
  5
185
330
282
100
AcDbEntity
  8
1
 62
     3
100
AcDbLine
 10
139.5960932815758
 20
-34.23114116693201
 30
0.0
 11
144.5960932815758
 21
-34.23114116693201
 31
0.0
  0
LINE
  5
186
330
282
100
AcDbEntity
  8
1
 62
     3
100
AcDbLine
 10
139.5960932815758
 20
-33.73114116693201
 30
0.0
 11
144.5960932815758
 21
-33.73114116693201
 31
0.0
  0
LINE
  5
187
330
282
100
AcDbEntity
  8
1
 62
     3
100
AcDbLine
 10
139.5960932815758
 20
-33.23114116693201
 30
0.0
 11
144.5960932815758
 21
-33.23114116693201
 31
0.0
  0
LINE
  5
188
330
282
100
AcDbEntity
  8
1
 62
     3
100
AcDbLine
 10
139.5960932815758
 20
-32.73114116693201
 30
0.0
 11
144.5960932815758
 21
-32.73114116693201
 31
0.0
  0
LINE
  5
189
330
282
100
AcDbEntity
  8
1
 62
     3
100
AcDbLine
 10
139.5960932815758
 20
-32.23114116693202
 30
0.0
 11
144.5960932815758
 21
-32.23114116693202
 31
0.0
  0
LINE
  5
18A
330
282
100
AcDbEntity
  8
1
 62
     3
100
AcDbLine
 10
139.5960932815758
 20
-31.73114116693201
 30
0.0
 11
144.5960932815758
 21
-31.73114116693201
 31
0.0
  0
LINE
  5
18B
330
282
100
AcDbEntity
  8
1
 62
     3
100
AcDbLine
 10
139.5960932815758
 20
-31.23114116693201
 30
0.0
 11
144.5960932815758
 21
-31.23114116693201
 31
0.0
  0
LINE
  5
18C
330
282
100
AcDbEntity
  8
1
 62
     3
100
AcDbLine
 10
139.5960932815758
 20
-30.73114116693201
 30
0.0
 11
144.5960932815758
 21
-30.73114116693201
 31
0.0
  0
LINE
  5
18D
330
282
100
AcDbEntity
  8
1
 62
     3
100
AcDbLine
 10
139.5960932815758
 20
-30.23114116693201
 30
0.0
 11
144.5960932815758
 21
-30.23114116693201
 31
0.0
  0
LINE
  5
18E
330
282
100
AcDbEntity
  8
1
 62
     3
100
AcDbLine
 10
139.5960932815758
 20
-29.73114116693201
 30
0.0
 11
144.5960932815758
 21
-29.73114116693201
 31
0.0
  0
LINE
  5
18F
330
282
100
AcDbEntity
  8
1
 62
     3
100
AcDbLine
 10
139.5960932815758
 20
-29.23114116693201
 30
0.0
 11
144.5960932815758
 21
-29.23114116693201
 31
0.0
  0
LINE
  5
190
330
282
100
AcDbEntity
  8
1
 62
     3
100
AcDbLine
 10
139.5960932815758
 20
-28.73114116693201
 30
0.0
 11
144.5960932815758
 21
-28.73114116693201
 31
0.0
  0
LINE
  5
191
330
282
100
AcDbEntity
  8
1
 62
     3
100
AcDbLine
 10
139.5960932815758
 20
-28.23114116693201
 30
0.0
 11
144.5960932815758
 21
-28.23114116693201
 31
0.0
  0
LINE
  5
192
330
282
100
AcDbEntity
  8
1
 62
     3
100
AcDbLine
 10
139.5960932815758
 20
-27.73114116693201
 30
0.0
 11
144.5960932815758
 21
-27.73114116693201
 31
0.0
  0
LINE
  5
193
330
282
100
AcDbEntity
  8
1
 62
     3
100
AcDbLine
 10
139.5960932815758
 20
-27.23114116693202
 30
0.0
 11
144.5960932815758
 21
-27.23114116693202
 31
0.0
  0
LINE
  5
194
330
282
100
AcDbEntity
  8
1
 62
     3
100
AcDbLine
 10
139.5960932815758
 20
-26.73114116693201
 30
0.0
 11
144.5960932815758
 21
-26.73114116693201
 31
0.0
  0
LINE
  5
195
330
282
100
AcDbEntity
  8
1
 62
     3
100
AcDbLine
 10
139.5960932815758
 20
-26.23114116693201
 30
0.0
 11
144.5960932815758
 21
-26.23114116693201
 31
0.0
  0
LINE
  5
196
330
282
100
AcDbEntity
  8
1
 62
     3
100
AcDbLine
 10
139.5960932815758
 20
-25.73114116693201
 30
0.0
 11
144.5960932815758
 21
-25.73114116693201
 31
0.0
  0
LINE
  5
197
330
282
100
AcDbEntity
  8
1
 62
     3
100
AcDbLine
 10
139.5960932815758
 20
-25.23114116693201
 30
0.0
 11
144.5960932815758
 21
-25.23114116693201
 31
0.0
  0
LINE
  5
198
330
282
100
AcDbEntity
  8
1
 62
     3
100
AcDbLine
 10
139.5960932815758
 20
-24.73114116693202
 30
0.0
 11
144.5960932815758
 21
-24.73114116693202
 31
0.0
  0
LINE
  5
199
330
282
100
AcDbEntity
  8
1
 62
     3
100
AcDbLine
 10
139.5960932815758
 20
-24.23114116693201
 30
0.0
 11
144.5960932815758
 21
-24.23114116693201
 31
0.0
  0
LINE
  5
19A
330
282
100
AcDbEntity
  8
1
 62
     3
100
AcDbLine
 10
139.5960932815758
 20
-23.73114116693201
 30
0.0
 11
144.5960932815758
 21
-23.73114116693201
 31
0.0
  0
LINE
  5
19B
330
282
100
AcDbEntity
  8
1
 62
     3
100
AcDbLine
 10
139.5960932815758
 20
-23.23114116693201
 30
0.0
 11
144.5960932815758
 21
-23.23114116693201
 31
0.0
  0
LINE
  5
19C
330
282
100
AcDbEntity
  8
1
 62
     3
100
AcDbLine
 10
139.5960932815758
 20
-22.73114116693201
 30
0.0
 11
144.5960932815758
 21
-22.73114116693201
 31
0.0
  0
LINE
  5
19D
330
282
100
AcDbEntity
  8
1
 62
     3
100
AcDbLine
 10
139.5960932815758
 20
-22.23114116693201
 30
0.0
 11
144.5960932815758
 21
-22.23114116693201
 31
0.0
  0
LINE
  5
19E
330
282
100
AcDbEntity
  8
1
 62
     3
100
AcDbLine
 10
139.5960932815758
 20
-21.731141166932
 30
0.0
 11
144.5960932815758
 21
-21.731141166932
 31
0.0
  0
LINE
  5
19F
330
282
100
AcDbEntity
  8
1
 62
     3
100
AcDbLine
 10
139.5960932815758
 20
-21.23114116693201
 30
0.0
 11
144.5960932815758
 21
-21.23114116693201
 31
0.0
  0
LINE
  5
1A0
330
282
100
AcDbEntity
  8
1
 62
     3
100
AcDbLine
 10
139.5960932815758
 20
-20.73114116693201
 30
0.0
 11
144.5960932815758
 21
-20.73114116693201
 31
0.0
  0
LINE
  5
1A1
330
282
100
AcDbEntity
  8
1
 62
     3
100
AcDbLine
 10
139.5960932815758
 20
-20.23114116693201
 30
0.0
 11
144.5960932815758
 21
-20.23114116693201
 31
0.0
  0
LINE
  5
1A2
330
282
100
AcDbEntity
  8
1
 62
     3
100
AcDbLine
 10
139.5960932815758
 20
-19.73114116693201
 30
0.0
 11
144.5960932815758
 21
-19.73114116693201
 31
0.0
  0
LINE
  5
1A3
330
282
100
AcDbEntity
  8
1
 62
     3
100
AcDbLine
 10
139.5960932815758
 20
-19.23114116693201
 30
0.0
 11
144.5960932815758
 21
-19.23114116693201
 31
0.0
  0
LINE
  5
1A4
330
282
100
AcDbEntity
  8
1
 62
     3
100
AcDbLine
 10
139.5960932815758
 20
-18.73114116693201
 30
0.0
 11
144.5960932815758
 21
-18.73114116693201
 31
0.0
  0
LINE
  5
1A5
330
282
100
AcDbEntity
  8
1
 62
     3
100
AcDbLine
 10
139.5960932815758
 20
-18.23114116693201
 30
0.0
 11
144.5960932815758
 21
-18.23114116693201
 31
0.0
  0
LINE
  5
1A6
330
282
100
AcDbEntity
  8
1
 62
     3
100
AcDbLine
 10
139.5960932815758
 20
-17.73114116693201
 30
0.0
 11
144.5960932815758
 21
-17.73114116693201
 31
0.0
  0
LINE
  5
1A7
330
282
100
AcDbEntity
  8
1
 62
     3
100
AcDbLine
 10
139.5960932815758
 20
-17.23114116693201
 30
0.0
 11
144.5960932815758
 21
-17.23114116693201
 31
0.0
  0
LINE
  5
1A8
330
282
100
AcDbEntity
  8
1
 62
     3
100
AcDbLine
 10
139.5960932815758
 20
-16.73114116693201
 30
0.0
 11
144.5960932815758
 21
-16.73114116693201
 31
0.0
  0
LINE
  5
1A9
330
282
100
AcDbEntity
  8
1
 62
     3
100
AcDbLine
 10
139.5960932815758
 20
-16.23114116693201
 30
0.0
 11
144.5960932815758
 21
-16.23114116693201
 31
0.0
  0
LINE
  5
1AA
330
282
100
AcDbEntity
  8
1
 62
     3
100
AcDbLine
 10
139.5960932815758
 20
-15.73114116693201
 30
0.0
 11
144.5960932815758
 21
-15.73114116693201
 31
0.0
  0
LINE
  5
1AB
330
282
100
AcDbEntity
  8
1
 62
     3
100
AcDbLine
 10
139.5960932815758
 20
-15.23114116693201
 30
0.0
 11
144.5960932815758
 21
-15.23114116693201
 31
0.0
  0
LINE
  5
1AC
330
282
100
AcDbEntity
  8
1
 62
     3
100
AcDbLine
 10
139.5960932815758
 20
-14.73114116693201
 30
0.0
 11
144.5960932815758
 21
-14.73114116693201
 31
0.0
  0
LINE
  5
1AD
330
282
100
AcDbEntity
  8
1
 62
     3
100
AcDbLine
 10
139.5960932815758
 20
-14.23114116693201
 30
0.0
 11
144.5960932815758
 21
-14.23114116693201
 31
0.0
  0
LINE
  5
1AE
330
282
100
AcDbEntity
  8
1
 62
     3
100
AcDbLine
 10
139.5960932815758
 20
-13.73114116693201
 30
0.0
 11
144.5960932815758
 21
-13.73114116693201
 31
0.0
  0
LINE
  5
1AF
330
282
100
AcDbEntity
  8
1
 62
     3
100
AcDbLine
 10
139.5960932815758
 20
-13.23114116693201
 30
0.0
 11
144.5960932815758
 21
-13.23114116693201
 31
0.0
  0
LINE
  5
1B0
330
282
100
AcDbEntity
  8
1
 62
     3
100
AcDbLine
 10
139.5960932815758
 20
-12.73114116693201
 30
0.0
 11
144.5960932815758
 21
-12.73114116693201
 31
0.0
  0
LINE
  5
1B1
330
282
100
AcDbEntity
  8
1
 62
     3
100
AcDbLine
 10
139.5960932815758
 20
-12.23114116693201
 30
0.0
 11
144.5960932815758
 21
-12.23114116693201
 31
0.0
  0
LINE
  5
1B2
330
282
100
AcDbEntity
  8
1
 62
     3
100
AcDbLine
 10
139.5960932815758
 20
-11.73114116693201
 30
0.0
 11
144.5960932815758
 21
-11.73114116693201
 31
0.0
  0
LINE
  5
1B3
330
282
100
AcDbEntity
  8
1
 62
     3
100
AcDbLine
 10
139.5960932815758
 20
-11.23114116693201
 30
0.0
 11
144.5960932815758
 21
-11.23114116693201
 31
0.0
  0
LINE
  5
1B4
330
282
100
AcDbEntity
  8
1
 62
     3
100
AcDbLine
 10
139.5960932815758
 20
-10.73114116693201
 30
0.0
 11
144.5960932815758
 21
-10.73114116693201
 31
0.0
  0
LINE
  5
1B5
330
282
100
AcDbEntity
  8
1
 62
     3
100
AcDbLine
 10
139.5960932815758
 20
-10.231141166932
 30
0.0
 11
144.5960932815758
 21
-10.231141166932
 31
0.0
  0
LINE
  5
1B6
330
282
100
AcDbEntity
  8
1
 62
     3
100
AcDbLine
 10
139.5960932815758
 20
-9.731141166932003
 30
0.0
 11
144.5960932815758
 21
-9.731141166932003
 31
0.0
  0
LINE
  5
1B7
330
282
100
AcDbEntity
  8
1
 62
     3
100
AcDbLine
 10
139.5960932815758
 20
-9.231141166932003
 30
0.0
 11
144.5960932815758
 21
-9.231141166932003
 31
0.0
  0
LINE
  5
1B8
330
282
100
AcDbEntity
  8
1
 62
     3
100
AcDbLine
 10
139.5960932815758
 20
-8.731141166932005
 30
0.0
 11
144.5960932815758
 21
-8.731141166932005
 31
0.0
  0
LINE
  5
1B9
330
282
100
AcDbEntity
  8
1
 62
     3
100
AcDbLine
 10
139.5960932815758
 20
-8.231141166932005
 30
0.0
 11
144.5960932815758
 21
-8.231141166932005
 31
0.0
  0
LINE
  5
1BA
330
282
100
AcDbEntity
  8
1
 62
     3
100
AcDbLine
 10
139.5960932815758
 20
-7.731141166932003
 30
0.0
 11
144.5960932815758
 21
-7.731141166932003
 31
0.0
  0
LINE
  5
1BB
330
282
100
AcDbEntity
  8
1
 62
     3
100
AcDbLine
 10
139.5960932815758
 20
-7.231141166932003
 30
0.0
 11
144.5960932815758
 21
-7.231141166932003
 31
0.0
  0
LINE
  5
1BC
330
282
100
AcDbEntity
  8
1
 62
     3
100
AcDbLine
 10
139.5960932815758
 20
-6.731141166932004
 30
0.0
 11
144.5960932815758
 21
-6.731141166932004
 31
0.0
  0
LINE
  5
1BD
330
282
100
AcDbEntity
  8
1
 62
     3
100
AcDbLine
 10
139.5960932815758
 20
-6.231141166932004
 30
0.0
 11
144.5960932815758
 21
-6.231141166932004
 31
0.0
  0
LINE
  5
1BE
330
282
100
AcDbEntity
  8
1
 62
     3
100
AcDbLine
 10
139.5960932815758
 20
-5.731141166932004
 30
0.0
 11
144.5960932815758
 21
-5.731141166932004
 31
0.0
  0
LINE
  5
1BF
330
282
100
AcDbEntity
  8
1
 62
     3
100
AcDbLine
 10
139.5960932815758
 20
-5.231141166932004
 30
0.0
 11
144.5960932815758
 21
-5.231141166932004
 31
0.0
  0
LINE
  5
1C0
330
282
100
AcDbEntity
  8
1
 62
     3
100
AcDbLine
 10
139.5960932815758
 20
-4.731141166932004
 30
0.0
 11
144.5960932815758
 21
-4.731141166932004
 31
0.0
  0
LINE
  5
1C1
330
282
100
AcDbEntity
  8
1
 62
     3
100
AcDbLine
 10
139.5960932815758
 20
-4.231141166932004
 30
0.0
 11
144.5960932815758
 21
-4.231141166932004
 31
0.0
  0
LINE
  5
1C2
330
282
100
AcDbEntity
  8
1
 62
     3
100
AcDbLine
 10
139.5960932815758
 20
-3.731141166932003
 30
0.0
 11
144.5960932815758
 21
-3.731141166932003
 31
0.0
  0
LINE
  5
1C3
330
282
100
AcDbEntity
  8
1
 62
     3
100
AcDbLine
 10
139.5960932815758
 20
-3.231141166932003
 30
0.0
 11
144.5960932815758
 21
-3.231141166932003
 31
0.0
  0
LINE
  5
1C4
330
282
100
AcDbEntity
  8
1
 62
     3
100
AcDbLine
 10
139.5960932815758
 20
-2.731141166932003
 30
0.0
 11
144.5960932815758
 21
-2.731141166932003
 31
0.0
  0
LINE
  5
1C5
330
282
100
AcDbEntity
  8
1
 62
     3
100
AcDbLine
 10
139.5960932815758
 20
-2.231141166932004
 30
0.0
 11
144.5960932815758
 21
-2.231141166932004
 31
0.0
  0
LINE
  5
1C6
330
282
100
AcDbEntity
  8
1
 62
     3
100
AcDbLine
 10
139.5960932815758
 20
-1.731141166932004
 30
0.0
 11
144.5960932815758
 21
-1.731141166932004
 31
0.0
  0
LINE
  5
1C7
330
282
100
AcDbEntity
  8
1
 62
     3
100
AcDbLine
 10
139.5960932815758
 20
-1.231141166932004
 30
0.0
 11
144.5960932815758
 21
-1.231141166932004
 31
0.0
  0
LINE
  5
1C8
330
282
100
AcDbEntity
  8
1
 62
     3
100
AcDbLine
 10
139.5960932815758
 20
-0.7311411669320052
 30
0.0
 11
144.5960932815758
 21
-0.7311411669320052
 31
0.0
  0
LINE
  5
1C9
330
282
100
AcDbEntity
  8
1
 62
     3
100
AcDbLine
 10
139.5960932815758
 20
0.7688588330679949
 30
0.0
 11
144.5960932815758
 21
0.7688588330679949
 31
0.0
  0
LINE
  5
1CA
330
282
100
AcDbEntity
  8
1
 62
     3
100
AcDbLine
 10
139.5960932815758
 20
1.268858833067995
 30
0.0
 11
144.5960932815758
 21
1.268858833067995
 31
0.0
  0
LINE
  5
1CB
330
282
100
AcDbEntity
  8
1
 62
     3
100
AcDbLine
 10
139.5960932815758
 20
1.768858833067995
 30
0.0
 11
144.5960932815758
 21
1.768858833067995
 31
0.0
  0
LINE
  5
1CC
330
282
100
AcDbEntity
  8
1
 62
     3
100
AcDbLine
 10
139.5960932815758
 20
2.268858833067993
 30
0.0
 11
144.5960932815758
 21
2.268858833067993
 31
0.0
  0
LINE
  5
1CD
330
282
100
AcDbEntity
  8
1
 62
     3
100
AcDbLine
 10
139.5960932815758
 20
2.768858833067994
 30
0.0
 11
144.5960932815758
 21
2.768858833067994
 31
0.0
  0
LINE
  5
1CE
330
282
100
AcDbEntity
  8
1
 62
     3
100
AcDbLine
 10
139.5960932815758
 20
3.268858833067994
 30
0.0
 11
144.5960932815758
 21
3.268858833067994
 31
0.0
  0
LINE
  5
1CF
330
282
100
AcDbEntity
  8
1
 62
     3
100
AcDbLine
 10
139.5960932815758
 20
3.768858833067994
 30
0.0
 11
144.5960932815758
 21
3.768858833067994
 31
0.0
  0
LINE
  5
1D0
330
282
100
AcDbEntity
  8
1
 62
     3
100
AcDbLine
 10
139.5960932815758
 20
4.268858833067993
 30
0.0
 11
144.5960932815758
 21
4.268858833067993
 31
0.0
  0
LINE
  5
1D1
330
282
100
AcDbEntity
  8
1
 62
     3
100
AcDbLine
 10
139.5960932815758
 20
4.768858833067993
 30
0.0
 11
144.5960932815758
 21
4.768858833067993
 31
0.0
  0
LINE
  5
1D2
330
282
100
AcDbEntity
  8
1
 62
     3
100
AcDbLine
 10
139.5960932815758
 20
5.268858833067993
 30
0.0
 11
144.5960932815758
 21
5.268858833067993
 31
0.0
  0
LINE
  5
1D3
330
282
100
AcDbEntity
  8
1
 62
     3
100
AcDbLine
 10
139.5960932815758
 20
5.768858833067993
 30
0.0
 11
144.5960932815758
 21
5.768858833067993
 31
0.0
  0
LINE
  5
1D4
330
282
100
AcDbEntity
  8
1
 62
     3
100
AcDbLine
 10
139.5960932815758
 20
6.268858833067993
 30
0.0
 11
144.5960932815758
 21
6.268858833067993
 31
0.0
  0
LINE
  5
1D5
330
282
100
AcDbEntity
  8
1
 62
     3
100
AcDbLine
 10
139.5960932815758
 20
6.768858833067993
 30
0.0
 11
144.5960932815758
 21
6.768858833067993
 31
0.0
  0
LINE
  5
1D6
330
282
100
AcDbEntity
  8
1
 62
     3
100
AcDbLine
 10
139.5960932815758
 20
7.268858833067994
 30
0.0
 11
144.5960932815758
 21
7.268858833067994
 31
0.0
  0
LINE
  5
1D7
330
282
100
AcDbEntity
  8
1
 62
     3
100
AcDbLine
 10
139.5960932815758
 20
7.768858833067994
 30
0.0
 11
144.5960932815758
 21
7.768858833067994
 31
0.0
  0
LINE
  5
1D8
330
282
100
AcDbEntity
  8
1
 62
     3
100
AcDbLine
 10
139.5960932815758
 20
8.268858833067994
 30
0.0
 11
144.5960932815758
 21
8.268858833067994
 31
0.0
  0
LINE
  5
1D9
330
282
100
AcDbEntity
  8
1
 62
     3
100
AcDbLine
 10
139.5960932815758
 20
8.768858833067994
 30
0.0
 11
144.5960932815758
 21
8.768858833067994
 31
0.0
  0
LINE
  5
1DA
330
282
100
AcDbEntity
  8
1
 62
     3
100
AcDbLine
 10
139.5960932815758
 20
9.268858833067996
 30
0.0
 11
144.5960932815758
 21
9.268858833067996
 31
0.0
  0
LINE
  5
1DB
330
282
100
AcDbEntity
  8
1
 62
     3
100
AcDbLine
 10
139.5960932815758
 20
9.768858833067996
 30
0.0
 11
144.5960932815758
 21
9.768858833067996
 31
0.0
  0
LINE
  5
1DC
330
282
100
AcDbEntity
  8
1
 62
     3
100
AcDbLine
 10
139.5960932815758
 20
10.26885883306799
 30
0.0
 11
144.5960932815758
 21
10.26885883306799
 31
0.0
  0
LINE
  5
1DD
330
282
100
AcDbEntity
  8
1
 62
     3
100
AcDbLine
 10
139.5960932815758
 20
10.76885883306798
 30
0.0
 11
144.5960932815758
 21
10.76885883306798
 31
0.0
  0
LINE
  5
1DE
330
282
100
AcDbEntity
  8
1
 62
     3
100
AcDbLine
 10
139.5960932815758
 20
11.26885883306798
 30
0.0
 11
144.5960932815758
 21
11.26885883306798
 31
0.0
  0
LINE
  5
1DF
330
282
100
AcDbEntity
  8
1
 62
     3
100
AcDbLine
 10
139.5960932815758
 20
11.76885883306798
 30
0.0
 11
144.5960932815758
 21
11.76885883306798
 31
0.0
  0
LINE
  5
1E0
330
282
100
AcDbEntity
  8
1
 62
     3
100
AcDbLine
 10
139.5960932815758
 20
12.26885883306799
 30
0.0
 11
144.5960932815758
 21
12.26885883306799
 31
0.0
  0
LINE
  5
1E1
330
282
100
AcDbEntity
  8
1
 62
     3
100
AcDbLine
 10
139.5960932815758
 20
12.76885883306799
 30
0.0
 11
144.5960932815758
 21
12.76885883306799
 31
0.0
  0
LINE
  5
1E2
330
282
100
AcDbEntity
  8
1
 62
     3
100
AcDbLine
 10
139.5960932815758
 20
13.26885883306799
 30
0.0
 11
144.5960932815758
 21
13.26885883306799
 31
0.0
  0
LINE
  5
1E3
330
282
100
AcDbEntity
  8
1
 62
     3
100
AcDbLine
 10
139.5960932815758
 20
13.76885883306798
 30
0.0
 11
144.5960932815758
 21
13.76885883306798
 31
0.0
  0
LINE
  5
1E4
330
282
100
AcDbEntity
  8
1
 62
     3
100
AcDbLine
 10
139.5960932815758
 20
14.26885883306798
 30
0.0
 11
144.5960932815758
 21
14.26885883306798
 31
0.0
  0
LINE
  5
1E5
330
282
100
AcDbEntity
  8
1
 62
     3
100
AcDbLine
 10
139.5960932815758
 20
14.76885883306799
 30
0.0
 11
144.5960932815758
 21
14.76885883306799
 31
0.0
  0
LINE
  5
1E6
330
282
100
AcDbEntity
  8
1
 62
     3
100
AcDbLine
 10
139.5960932815758
 20
15.26885883306799
 30
0.0
 11
144.5960932815758
 21
15.26885883306799
 31
0.0
  0
LINE
  5
1E7
330
282
100
AcDbEntity
  8
1
 62
     3
100
AcDbLine
 10
139.5960932815758
 20
15.76885883306799
 30
0.0
 11
144.5960932815758
 21
15.76885883306799
 31
0.0
  0
LINE
  5
1E8
330
282
100
AcDbEntity
  8
1
 62
     3
100
AcDbLine
 10
139.5960932815758
 20
16.26885883306798
 30
0.0
 11
144.5960932815758
 21
16.26885883306798
 31
0.0
  0
LINE
  5
1E9
330
282
100
AcDbEntity
  8
1
 62
     3
100
AcDbLine
 10
139.5960932815758
 20
16.76885883306798
 30
0.0
 11
144.5960932815758
 21
16.76885883306798
 31
0.0
  0
LINE
  5
1EA
330
282
100
AcDbEntity
  8
1
 62
     3
100
AcDbLine
 10
139.5960932815758
 20
17.26885883306798
 30
0.0
 11
144.5960932815758
 21
17.26885883306798
 31
0.0
  0
LINE
  5
1EB
330
282
100
AcDbEntity
  8
1
 62
     3
100
AcDbLine
 10
139.5960932815758
 20
17.76885883306798
 30
0.0
 11
144.5960932815758
 21
17.76885883306798
 31
0.0
  0
LINE
  5
1EC
330
282
100
AcDbEntity
  8
1
 62
     3
100
AcDbLine
 10
139.5960932815758
 20
18.26885883306798
 30
0.0
 11
144.5960932815758
 21
18.26885883306798
 31
0.0
  0
LINE
  5
1ED
330
282
100
AcDbEntity
  8
1
 62
     3
100
AcDbLine
 10
139.5960932815758
 20
18.76885883306798
 30
0.0
 11
144.5960932815758
 21
18.76885883306798
 31
0.0
  0
LINE
  5
1EE
330
282
100
AcDbEntity
  8
1
 62
     3
100
AcDbLine
 10
139.5960932815758
 20
19.26885883306798
 30
0.0
 11
144.5960932815758
 21
19.26885883306798
 31
0.0
  0
LINE
  5
1EF
330
282
100
AcDbEntity
  8
1
 62
     3
100
AcDbLine
 10
139.5960932815758
 20
19.76885883306798
 30
0.0
 11
144.5960932815758
 21
19.76885883306798
 31
0.0
  0
LINE
  5
1F0
330
282
100
AcDbEntity
  8
1
 62
     3
100
AcDbLine
 10
139.5960932815758
 20
20.26885883306798
 30
0.0
 11
144.5960932815758
 21
20.26885883306798
 31
0.0
  0
LINE
  5
1F1
330
282
100
AcDbEntity
  8
1
 62
     3
100
AcDbLine
 10
139.5960932815758
 20
20.76885883306798
 30
0.0
 11
144.5960932815758
 21
20.76885883306798
 31
0.0
  0
LINE
  5
1F2
330
282
100
AcDbEntity
  8
1
 62
     3
100
AcDbLine
 10
139.5960932815758
 20
21.26885883306798
 30
0.0
 11
144.5960932815758
 21
21.26885883306798
 31
0.0
  0
LINE
  5
1F3
330
282
100
AcDbEntity
  8
1
 62
     3
100
AcDbLine
 10
139.5960932815758
 20
21.76885883306798
 30
0.0
 11
144.5960932815758
 21
21.76885883306798
 31
0.0
  0
LINE
  5
1F4
330
282
100
AcDbEntity
  8
1
 62
     3
100
AcDbLine
 10
139.5960932815758
 20
22.26885883306799
 30
0.0
 11
144.5960932815758
 21
22.26885883306799
 31
0.0
  0
LINE
  5
1F5
330
282
100
AcDbEntity
  8
1
 62
     3
100
AcDbLine
 10
139.5960932815758
 20
22.76885883306798
 30
0.0
 11
144.5960932815758
 21
22.76885883306798
 31
0.0
  0
LINE
  5
1F6
330
282
100
AcDbEntity
  8
1
 62
     3
100
AcDbLine
 10
139.5960932815758
 20
23.26885883306798
 30
0.0
 11
144.5960932815758
 21
23.26885883306798
 31
0.0
  0
LINE
  5
1F7
330
282
100
AcDbEntity
  8
1
 62
     3
100
AcDbLine
 10
139.5960932815758
 20
23.76885883306798
 30
0.0
 11
144.5960932815758
 21
23.76885883306798
 31
0.0
  0
LINE
  5
1F8
330
282
100
AcDbEntity
  8
1
 62
     3
100
AcDbLine
 10
139.5960932815758
 20
24.26885883306798
 30
0.0
 11
144.5960932815758
 21
24.26885883306798
 31
0.0
  0
LINE
  5
1F9
330
282
100
AcDbEntity
  8
1
 62
     3
100
AcDbLine
 10
139.5960932815758
 20
24.76885883306799
 30
0.0
 11
144.5960932815758
 21
24.76885883306799
 31
0.0
  0
LINE
  5
1FA
330
282
100
AcDbEntity
  8
1
 62
     3
100
AcDbLine
 10
139.5960932815758
 20
25.26885883306798
 30
0.0
 11
144.5960932815758
 21
25.26885883306798
 31
0.0
  0
LINE
  5
1FB
330
282
100
AcDbEntity
  8
1
 62
     3
100
AcDbLine
 10
139.5960932815758
 20
25.76885883306799
 30
0.0
 11
144.5960932815758
 21
25.76885883306799
 31
0.0
  0
LINE
  5
1FC
330
282
100
AcDbEntity
  8
1
 62
     3
100
AcDbLine
 10
139.5960932815758
 20
26.26885883306798
 30
0.0
 11
144.5960932815758
 21
26.26885883306798
 31
0.0
  0
LINE
  5
1FD
330
282
100
AcDbEntity
  8
1
 62
     3
100
AcDbLine
 10
139.5960932815758
 20
26.76885883306798
 30
0.0
 11
144.5960932815758
 21
26.76885883306798
 31
0.0
  0
LINE
  5
1FE
330
282
100
AcDbEntity
  8
1
 62
     3
100
AcDbLine
 10
139.5960932815758
 20
27.26885883306799
 30
0.0
 11
144.5960932815758
 21
27.26885883306799
 31
0.0
  0
LINE
  5
1FF
330
282
100
AcDbEntity
  8
1
 62
     3
100
AcDbLine
 10
139.5960932815758
 20
27.76885883306798
 30
0.0
 11
144.5960932815758
 21
27.76885883306798
 31
0.0
  0
LINE
  5
200
330
282
100
AcDbEntity
  8
1
 62
     3
100
AcDbLine
 10
139.5960932815758
 20
28.26885883306799
 30
0.0
 11
144.5960932815758
 21
28.26885883306799
 31
0.0
  0
LINE
  5
201
330
282
100
AcDbEntity
  8
1
 62
     3
100
AcDbLine
 10
139.5960932815758
 20
28.76885883306798
 30
0.0
 11
144.5960932815758
 21
28.76885883306798
 31
0.0
  0
LINE
  5
202
330
282
100
AcDbEntity
  8
1
 62
     3
100
AcDbLine
 10
139.5960932815758
 20
29.26885883306798
 30
0.0
 11
144.5960932815758
 21
29.26885883306798
 31
0.0
  0
LINE
  5
203
330
282
100
AcDbEntity
  8
1
 62
     3
100
AcDbLine
 10
139.5960932815758
 20
29.76885883306799
 30
0.0
 11
144.5960932815758
 21
29.76885883306799
 31
0.0
  0
LINE
  5
204
330
282
100
AcDbEntity
  8
1
 62
     3
100
AcDbLine
 10
139.5960932815758
 20
30.26885883306798
 30
0.0
 11
144.5960932815758
 21
30.26885883306798
 31
0.0
  0
LINE
  5
205
330
282
100
AcDbEntity
  8
1
 62
     3
100
AcDbLine
 10
139.5960932815758
 20
30.76885883306799
 30
0.0
 11
144.5960932815758
 21
30.76885883306799
 31
0.0
  0
LINE
  5
206
330
282
100
AcDbEntity
  8
1
 62
     3
100
AcDbLine
 10
139.5960932815758
 20
31.26885883306798
 30
0.0
 11
144.5960932815758
 21
31.26885883306798
 31
0.0
  0
LINE
  5
207
330
282
100
AcDbEntity
  8
1
 62
     3
100
AcDbLine
 10
139.5960932815758
 20
31.76885883306798
 30
0.0
 11
144.5960932815758
 21
31.76885883306798
 31
0.0
  0
LINE
  5
208
330
282
100
AcDbEntity
  8
1
 62
     3
100
AcDbLine
 10
139.5960932815758
 20
32.26885883306799
 30
0.0
 11
144.5960932815758
 21
32.26885883306799
 31
0.0
  0
LINE
  5
209
330
282
100
AcDbEntity
  8
1
 62
     3
100
AcDbLine
 10
139.5960932815758
 20
32.76885883306798
 30
0.0
 11
144.5960932815758
 21
32.76885883306798
 31
0.0
  0
LINE
  5
20A
330
282
100
AcDbEntity
  8
1
 62
     3
100
AcDbLine
 10
139.5960932815758
 20
33.26885883306799
 30
0.0
 11
144.5960932815758
 21
33.26885883306799
 31
0.0
  0
LINE
  5
20B
330
282
100
AcDbEntity
  8
1
 62
     3
100
AcDbLine
 10
139.5960932815758
 20
33.76885883306798
 30
0.0
 11
144.5960932815758
 21
33.76885883306798
 31
0.0
  0
LINE
  5
20C
330
282
100
AcDbEntity
  8
1
 62
     3
100
AcDbLine
 10
139.5960932815758
 20
34.26885883306798
 30
0.0
 11
144.5960932815758
 21
34.26885883306798
 31
0.0
  0
LINE
  5
20D
330
282
100
AcDbEntity
  8
1
 62
     3
100
AcDbLine
 10
139.5960932815758
 20
34.76885883306799
 30
0.0
 11
144.5960932815758
 21
34.76885883306799
 31
0.0
  0
LINE
  5
20E
330
282
100
AcDbEntity
  8
1
 62
     3
100
AcDbLine
 10
139.5960932815758
 20
35.268858833068
 30
0.0
 11
144.5960932815758
 21
35.268858833068
 31
0.0
  0
LINE
  5
20F
330
282
100
AcDbEntity
  8
1
 62
     3
100
AcDbLine
 10
139.5960932815758
 20
35.768858833068
 30
0.0
 11
144.5960932815758
 21
35.768858833068
 31
0.0
  0
LINE
  5
210
330
282
100
AcDbEntity
  8
1
 62
     3
100
AcDbLine
 10
139.5960932815758
 20
36.268858833068
 30
0.0
 11
144.5960932815758
 21
36.268858833068
 31
0.0
  0
LINE
  5
211
330
282
100
AcDbEntity
  8
1
 62
     3
100
AcDbLine
 10
139.5960932815758
 20
36.768858833068
 30
0.0
 11
144.5960932815758
 21
36.768858833068
 31
0.0
  0
LINE
  5
212
330
282
100
AcDbEntity
  8
1
 62
     3
100
AcDbLine
 10
139.5960932815758
 20
37.26885883306799
 30
0.0
 11
144.5960932815758
 21
37.26885883306799
 31
0.0
  0
LINE
  5
213
330
282
100
AcDbEntity
  8
1
 62
     3
100
AcDbLine
 10
139.5960932815758
 20
37.768858833068
 30
0.0
 11
144.5960932815758
 21
37.768858833068
 31
0.0
  0
LINE
  5
214
330
282
100
AcDbEntity
  8
1
 62
     3
100
AcDbLine
 10
139.5960932815758
 20
38.268858833068
 30
0.0
 11
144.5960932815758
 21
38.268858833068
 31
0.0
  0
LINE
  5
215
330
282
100
AcDbEntity
  8
1
 62
     3
100
AcDbLine
 10
139.5960932815758
 20
38.768858833068
 30
0.0
 11
144.5960932815758
 21
38.768858833068
 31
0.0
  0
LINE
  5
216
330
282
100
AcDbEntity
  8
1
 62
     3
100
AcDbLine
 10
139.5960932815758
 20
39.268858833068
 30
0.0
 11
144.5960932815758
 21
39.268858833068
 31
0.0
  0
LINE
  5
217
330
282
100
AcDbEntity
  8
1
 62
     3
100
AcDbLine
 10
139.5960932815758
 20
39.76885883306799
 30
0.0
 11
144.5960932815758
 21
39.76885883306799
 31
0.0
  0
LINE
  5
218
330
282
100
AcDbEntity
  8
1
 62
     3
100
AcDbLine
 10
139.5960932815758
 20
40.26885883306799
 30
0.0
 11
144.5960932815758
 21
40.26885883306799
 31
0.0
  0
LINE
  5
219
330
282
100
AcDbEntity
  8
1
 62
     3
100
AcDbLine
 10
139.5960932815758
 20
40.768858833068
 30
0.0
 11
144.5960932815758
 21
40.768858833068
 31
0.0
  0
ARC
  5
21A
330
282
100
AcDbEntity
  8
1
 62
     7
100
AcDbCircle
 10
151.2500918466169
 20
38.14714388211349
 30
0.0
 40
2.999999999999975
100
AcDbArc
 50
123.4585005244442
 51
165.466143891607
  0
ARC
  5
21B
330
282
100
AcDbEntity
  8
1
 62
     7
100
AcDbCircle
 10
150.9420947165346
 20
38.14714388211349
 30
0.0
 40
2.999999999999975
100
AcDbArc
 50
14.53385610839304
 51
56.54149947555572
  0
ARC
  5
21C
330
282
100
AcDbEntity
  8
1
 62
     7
100
AcDbCircle
 10
151.0960932815758
 20
21.6772966782015
 30
0.0
 40
4.056386219778391
100
AcDbArc
 50
216.7546013917025
 51
323.2453986082973
  0
ARC
  5
21D
330
282
100
AcDbEntity
  8
1
 62
     7
100
AcDbCircle
 10
151.0960932815758
 20
19.47954987288851
 30
0.0
 40
1.76499097565487
100
AcDbArc
 50
187.4729005966875
 51
352.5270994033123
  0
ARC
  5
21E
330
282
100
AcDbEntity
  8
1
  6
DASHDOT
 62
     3
100
AcDbCircle
 10
-104.51002166103
 20
0.0
 30
0.0
 40
30.00000000000007
100
AcDbArc
 50
294.0346536597232
 51
305.9653463402761
  0
ARC
  5
21F
330
282
100
AcDbEntity
  8
1
  6
DASHDOT
 62
     3
100
AcDbCircle
 10
-104.51002166103
 20
0.0
 30
0.0
 40
29.99999999999996
100
AcDbArc
 50
174.0346536597234
 51
185.9653463402761
  0
ARC
  5
220
330
282
100
AcDbEntity
  8
1
  6
DASHDOT
 62
     3
100
AcDbCircle
 10
-104.51002166103
 20
0.0
 30
0.0
 40
29.99999999999996
100
AcDbArc
 50
54.03465365972339
 51
65.96534634027626
  0
ARC
  5
221
330
282
100
AcDbEntity
  8
1
  6
DASHED
 62
     3
100
AcDbCircle
 10
-104.51002166103
 20
0.0
 30
0.0
 40
38.50000000000002
100
AcDbArc
 50
25.15758046041471
 51
94.84241953958521
  0
ARC
  5
222
330
282
100
AcDbEntity
  8
1
  6
DASHED
 62
     3
100
AcDbCircle
 10
-104.3560230959889
 20
38.14714388211349
 30
0.0
 40
2.999999999999975
100
AcDbArc
 50
123.4585005244442
 51
165.466143891607
  0
ARC
  5
223
330
282
100
AcDbEntity
  8
1
  6
DASHED
 62
     3
100
AcDbCircle
 10
-104.664020226071
 20
38.14714388211349
 30
0.0
 40
2.999999999999987
100
AcDbArc
 50
14.53385610839296
 51
56.5414994755555
  0
ARC
  5
224
330
282
100
AcDbEntity
  8
1
  6
DASHED
 62
     3
100
AcDbCircle
 10
-104.664020226071
 20
-38.14714388211349
 30
0.0
 40
2.999999999999981
100
AcDbArc
 50
303.4585005244445
 51
345.4661438916069
  0
ARC
  5
225
330
282
100
AcDbEntity
  8
1
  6
DASHED
 62
     3
100
AcDbCircle
 10
-104.3560230959889
 20
-38.14714388211349
 30
0.0
 40
2.999999999999975
100
AcDbArc
 50
194.533856108393
 51
236.5414994755557
  0
ARC
  5
226
330
282
100
AcDbEntity
  8
1
  6
DASHED
 62
     3
100
AcDbCircle
 10
-104.51002166103
 20
0.0
 30
0.0
 40
38.50000000000001
100
AcDbArc
 50
205.1575804604148
 51
274.8424195395852
  0
ARC
  5
227
330
282
100
AcDbEntity
  8
1
 62
     7
100
AcDbCircle
 10
-104.51002166103
 20
0.0
 30
0.0
 40
7.500000000000025
100
AcDbArc
 50
109.4712206344905
 51
70.52877936550938
  0
ARC
  5
228
330
282
100
AcDbEntity
  8
1
 62
     7
100
AcDbCircle
 10
19.44600143495889
 20
38.14714388211349
 30
0.0
 40
2.999999999999997
100
AcDbArc
 50
14.53385610839291
 51
56.54149947555532
  0
ARC
  5
229
330
282
100
AcDbEntity
  8
1
 62
     7
100
AcDbCircle
 10
19.75399856504111
 20
38.14714388211349
 30
0.0
 40
2.999999999999977
100
AcDbArc
 50
123.4585005244444
 51
165.466143891607
  0
ARC
  5
22A
330
282
100
AcDbEntity
  8
1
 62
     7
100
AcDbCircle
 10
19.44600143495889
 20
38.14714388211349
 30
0.0
 40
2.999999999999997
100
AcDbArc
 50
14.53385610839291
 51
56.54149947555532
  0
ARC
  5
22B
330
282
100
AcDbEntity
  8
1
 62
     7
100
AcDbCircle
 10
19.75399856504111
 20
-38.14714388211349
 30
0.0
 40
2.99999999999998
100
AcDbArc
 50
194.5338561083928
 51
236.5414994755556
  0
ARC
  5
22C
330
282
100
AcDbEntity
  8
1
 62
     7
100
AcDbCircle
 10
19.44600143495889
 20
-38.14714388211349
 30
0.0
 40
2.999999999999987
100
AcDbArc
 50
303.4585005244446
 51
345.466143891607
  0
ARC
  5
22D
330
282
100
AcDbEntity
  8
1
 62
     7
100
AcDbCircle
 10
11.60000000000001
 20
-13.5
 30
0.0
 40
1.0
100
AcDbArc
 50
90.0
 51
180.0
  0
ARC
  5
22E
330
282
100
AcDbEntity
  8
1
 62
     7
100
AcDbCircle
 10
11.60000000000001
 20
-22.50000000000001
 30
0.0
 40
1.0
100
AcDbArc
 50
180.0
 51
270.0
  0
ARC
  5
22F
330
282
100
AcDbEntity
  8
1
 62
     7
100
AcDbCircle
 10
21.60000000000001
 20
-22.50000000000001
 30
0.0
 40
1.0
100
AcDbArc
 50
270.0
 51
0.0
  0
ARC
  5
230
330
282
100
AcDbEntity
  8
1
 62
     7
100
AcDbCircle
 10
21.60000000000001
 20
-13.5
 30
0.0
 40
1.0
100
AcDbArc
 50
0.0
 51
90.0
  0
ARC
  5
231
330
282
100
AcDbEntity
  8
1
 62
     7
100
AcDbCircle
 10
11.60000000000001
 20
13.5
 30
0.0
 40
1.0
100
AcDbArc
 50
180.0
 51
270.0
  0
ARC
  5
232
330
282
100
AcDbEntity
  8
1
 62
     7
100
AcDbCircle
 10
11.60000000000001
 20
22.5
 30
0.0
 40
1.0
100
AcDbArc
 50
90.0
 51
180.0
  0
ARC
  5
233
330
282
100
AcDbEntity
  8
1
 62
     7
100
AcDbCircle
 10
21.60000000000001
 20
22.5
 30
0.0
 40
1.0
100
AcDbArc
 50
0.0
 51
90.0
  0
ARC
  5
234
330
282
100
AcDbEntity
  8
1
 62
     7
100
AcDbCircle
 10
21.60000000000001
 20
13.5
 30
0.0
 40
1.0
100
AcDbArc
 50
270.0
 51
0.0
  0
ARC
  5
235
330
282
100
AcDbEntity
  8
1
 62
     7
100
AcDbCircle
 10
44.85399856504111
 20
38.14714388211349
 30
0.0
 40
2.999999999999928
100
AcDbArc
 50
123.4585005244429
 51
165.4661438916066
  0
ARC
  5
236
330
282
100
AcDbEntity
  8
1
 62
     7
100
AcDbCircle
 10
44.54600143495901
 20
38.14714388211349
 30
0.0
 40
2.999999999999975
100
AcDbArc
 50
14.53385610839304
 51
56.54149947555572
  0
ARC
  5
237
330
282
100
AcDbEntity
  8
1
 62
     7
100
AcDbCircle
 10
42.70000000000002
 20
13.5
 30
0.0
 40
1.0
100
AcDbArc
 50
180.0
 51
270.0
  0
ARC
  5
238
330
282
100
AcDbEntity
  8
1
 62
     7
100
AcDbCircle
 10
42.70000000000002
 20
22.5
 30
0.0
 40
1.0
100
AcDbArc
 50
90.0
 51
180.0
  0
ARC
  5
239
330
282
100
AcDbEntity
  8
1
 62
     7
100
AcDbCircle
 10
52.70000000000002
 20
22.5
 30
0.0
 40
1.0
100
AcDbArc
 50
0.0
 51
90.0
  0
ARC
  5
23A
330
282
100
AcDbEntity
  8
1
 62
     7
100
AcDbCircle
 10
52.70000000000002
 20
13.5
 30
0.0
 40
1.0
100
AcDbArc
 50
270.0
 51
0.0
  0
ARC
  5
23B
330
282
100
AcDbEntity
  8
1
 62
     7
100
AcDbCircle
 10
42.70000000000002
 20
-13.5
 30
0.0
 40
1.0
100
AcDbArc
 50
90.0
 51
180.0
  0
ARC
  5
23C
330
282
100
AcDbEntity
  8
1
 62
     7
100
AcDbCircle
 10
42.70000000000002
 20
-22.50000000000001
 30
0.0
 40
1.0
100
AcDbArc
 50
180.0
 51
270.0
  0
ARC
  5
23D
330
282
100
AcDbEntity
  8
1
 62
     7
100
AcDbCircle
 10
52.70000000000002
 20
-22.50000000000001
 30
0.0
 40
1.0
100
AcDbArc
 50
270.0
 51
0.0
  0
ARC
  5
23E
330
282
100
AcDbEntity
  8
1
 62
     7
100
AcDbCircle
 10
52.70000000000002
 20
-13.5
 30
0.0
 40
1.0
100
AcDbArc
 50
0.0
 51
90.0
  0
ARC
  5
23F
330
282
100
AcDbEntity
  8
1
 62
     7
100
AcDbCircle
 10
-99.30896355174988
 20
-20.36263414415949
 30
0.0
 40
1.94000000000004
100
AcDbArc
 50
90.0
 51
180.0
  0
ARC
  5
240
330
282
100
AcDbEntity
  8
1
 62
     7
100
AcDbCircle
 10
-109.71107977031
 20
-20.36263414415949
 30
0.0
 40
1.940000000000011
100
AcDbArc
 50
0.0
 51
90.0
  0
ARC
  5
241
330
282
100
AcDbEntity
  8
1
 62
     7
100
AcDbCircle
 10
-99.30896355174988
 20
-25.55262976156861
 30
0.0
 40
7.129995617409141
100
AcDbArc
 50
56.57283064733797
 51
90.0
  0
ARC
  5
242
330
282
100
AcDbEntity
  8
1
 62
     7
100
AcDbCircle
 10
-109.71107977031
 20
-25.55262976156861
 30
0.0
 40
7.129995617409007
100
AcDbArc
 50
90.0
 51
123.427169352662
  0
ARC
  5
243
330
282
100
AcDbEntity
  8
1
 62
     7
100
AcDbCircle
 10
-104.51002166103
 20
-1.237499999999995
 30
0.0
 40
21.48749999999993
100
AcDbArc
 50
301.0699067305416
 51
238.9300932694581
  0
ARC
  5
244
330
282
100
AcDbEntity
  8
1
 62
     7
100
AcDbCircle
 10
-94.90486042618755
 20
-20.36263414415949
 30
0.0
 40
6.344103125562313
100
AcDbArc
 50
180.0
 51
206.2777283114504
  0
ARC
  5
245
330
282
100
AcDbEntity
  8
1
 62
     7
100
AcDbCircle
 10
-114.1151828958725
 20
-20.36263414415949
 30
0.0
 40
6.344103125562417
100
AcDbArc
 50
333.7222716885497
 51
0.0
  0
ARC
  5
246
330
282
100
AcDbEntity
  8
1
 62
     7
100
AcDbCircle
 10
-94.36898042697027
 20
-18.06847687863362
 30
0.0
 40
1.837499999999949
100
AcDbArc
 50
236.5728306473392
 51
301.0699067305408
  0
ARC
  5
247
330
282
100
AcDbEntity
  8
1
 62
     7
100
AcDbCircle
 10
-114.6510628950897
 20
-18.06847687863362
 30
0.0
 40
1.83749999999996
100
AcDbArc
 50
238.9300932694551
 51
303.42716935266
  0
ARC
  5
248
330
282
100
AcDbEntity
  8
1
 62
     7
100
AcDbCircle
 10
-104.51002166103
 20
0.0
 30
0.0
 40
41.0
100
AcDbArc
 50
1.048151989050716
 51
358.9518480109493
  0
CIRCLE
  5
249
330
282
100
AcDbEntity
  8
1
 62
     3
100
AcDbCircle
 10
-89.51002166102998
 20
-25.98076211353337
 30
0.0
 40
2.000000000000014
  0
CIRCLE
  5
24A
330
282
100
AcDbEntity
  8
1
 62
     7
100
AcDbCircle
 10
-89.51002166102998
 20
-25.98076211353337
 30
0.0
 40
1.399999999999991
  0
CIRCLE
  5
24B
330
282
100
AcDbEntity
  8
1
 62
     3
100
AcDbCircle
 10
-134.51002166103
 20
0.0000000000000995
 30
0.0
 40
2.0
  0
CIRCLE
  5
24C
330
282
100
AcDbEntity
  8
1
 62
     7
100
AcDbCircle
 10
-134.51002166103
 20
0.0000000000000995
 30
0.0
 40
1.400000000000004
  0
CIRCLE
  5
24D
330
282
100
AcDbEntity
  8
1
 62
     3
100
AcDbCircle
 10
-89.51002166102986
 20
25.9807621135332
 30
0.0
 40
2.000000000000014
  0
CIRCLE
  5
24E
330
282
100
AcDbEntity
  8
1
 62
     7
100
AcDbCircle
 10
-89.51002166102986
 20
25.9807621135332
 30
0.0
 40
1.399999999999991
  0
CIRCLE
  5
24F
330
282
100
AcDbEntity
  8
1
 62
     7
100
AcDbCircle
 10
-104.51002166103
 20
0.0
 30
0.0
 40
12.5
  0
CIRCLE
  5
250
330
282
100
AcDbEntity
  8
1
 62
     7
100
AcDbCircle
 10
-104.51002166103
 20
0.0
 30
0.0
 40
40.0
  0
CIRCLE
  5
251
330
282
100
AcDbEntity
  8
1
 62
     7
100
AcDbCircle
 10
16.60000000000001
 20
-18.00000000000001
 30
0.0
 40
3.30000000000001
  0
CIRCLE
  5
252
330
282
100
AcDbEntity
  8
1
 62
     7
100
AcDbCircle
 10
16.60000000000001
 20
18.0
 30
0.0
 40
3.30000000000001
  0
CIRCLE
  5
253
330
282
100
AcDbEntity
  8
1
 62
     7
100
AcDbCircle
 10
47.70000000000002
 20
18.0
 30
0.0
 40
3.299999999999982
  0
CIRCLE
  5
254
330
282
100
AcDbEntity
  8
1
 62
     7
100
AcDbCircle
 10
47.70000000000002
 20
-18.00000000000001
 30
0.0
 40
3.299999999999982
  0
CIRCLE
  5
255
330
282
100
AcDbEntity
  8
1
 62
     7
100
AcDbCircle
 10
-104.51002166103
 20
0.0
 30
0.0
 40
23.5
  0
CIRCLE
  5
256
330
282
100
AcDbEntity
  8
1
 62
     7
100
AcDbCircle
 10
-98.89229688508315
 20
-20.77930081082616
 30
0.0
 40
1.25
  0
CIRCLE
  5
257
330
282
100
AcDbEntity
  8
1
 62
     7
100
AcDbCircle
 10
-110.1277464369768
 20
-20.77930081082616
 30
0.0
 40
1.25
  0
CIRCLE
  5
258
330
282
100
AcDbEntity
  8
1
 62
     3
100
AcDbCircle
 10
3.5
 20
0.0
 30
0.0
 40
1.399999999999999
  0
CIRCLE
  5
259
330
282
100
AcDbEntity
  8
1
 62
     7
100
AcDbCircle
 10
3.5
 20
0.0
 30
0.0
 40
2.0
  0
TEXT
  5
25B
330
282
100
AcDbEntity
  8
1
 62
     7
100
AcDbText
 10
-143.0022356927302
 20
61.80869632215451
 30
0.0
 40
4.5
  1
PHT 10D
 41
0.9
  7
SIMPLEX
 72
     1
 11
-130.466521407016
 21
61.80869632215451
 31
0.0
100
AcDbText
  0
ENDSEC
  0
SECTION
  2
OBJECTS
  0
DICTIONARY
  5
26E
330
0
100
AcDbDictionary
281
     1
  3
ACAD_COLOR
350
27D
  3
ACAD_GROUP
350
26F
  3
ACAD_LAYOUT
350
27B
  3
ACAD_MATERIAL
350
27C
  3
ACAD_MLINESTYLE
350
278
  3
ACAD_PLOTSETTINGS
350
27A
  3
ACAD_PLOTSTYLENAME
350
270
  0
DICTIONARY
  5
27D
102
{ACAD_REACTORS
330
26E
102
}
330
26E
100
AcDbDictionary
281
     1
  0
DICTIONARY
  5
26F
102
{ACAD_REACTORS
330
26E
102
}
330
26E
100
AcDbDictionary
281
     1
  0
DICTIONARY
  5
27B
102
{ACAD_REACTORS
330
26E
102
}
330
26E
100
AcDbDictionary
281
     1
  3
Layout1
350
281
  3
Model
350
285
  0
DICTIONARY
  5
27C
102
{ACAD_REACTORS
330
26E
102
}
330
26E
100
AcDbDictionary
281
     1
  0
DICTIONARY
  5
278
102
{ACAD_REACTORS
330
26E
102
}
330
26E
100
AcDbDictionary
281
     1
  3
Standard
350
279
  0
DICTIONARY
  5
27A
102
{ACAD_REACTORS
330
26E
102
}
330
26E
100
AcDbDictionary
281
     1
  0
ACDBDICTIONARYWDFLT
  5
270
102
{ACAD_REACTORS
330
26E
102
}
330
26E
100
AcDbDictionary
281
     1
  3
Normal
350
271
100
AcDbDictionaryWithDefault
340
271
  0
LAYOUT
  5
281
102
{ACAD_REACTORS
330
27B
102
}
330
27B
100
AcDbPlotSettings
  1

  2
\\Ogura1\HP Color LaserJet 4600 PCL 5c
  4

  6

 40
0.0
 41
0.0
 42
0.0
 43
0.0
 44
0.0
 45
0.0
 46
0.0
 47
0.0
 48
0.0
 49
0.0
140
0.0
141
0.0
142
1.0
143
1.0
 70
   688
 72
     0
 73
     0
 74
     5
  7

 75
    16
147
1.0
 76
     0
 77
     2
 78
   300
148
0.0
149
0.0
100
AcDbLayout
  1
Layout1
 70
     1
 71
     1
 10
0.0
 20
0.0
 11
12.0
 21
9.0
 12
0.0
 22
0.0
 32
0.0
 14
1.000000000000000E+20
 24
1.000000000000000E+20
 34
1.000000000000000E+20
 15
-1.000000000000000E+20
 25
-1.000000000000000E+20
 35
-1.000000000000000E+20
146
0.0
 13
0.0
 23
0.0
 33
0.0
 16
1.0
 26
0.0
 36
0.0
 17
0.0
 27
1.0
 37
0.0
 76
     0
330
27E
  0
LAYOUT
  5
285
102
{ACAD_REACTORS
330
27B
102
}
330
27B
100
AcDbPlotSettings
  1

  2
\\Ogura1\HP Color LaserJet 4600 PCL 5c
  4

  6

 40
0.0
 41
0.0
 42
0.0
 43
0.0
 44
0.0
 45
0.0
 46
0.0
 47
0.0
 48
0.0
 49
0.0
140
0.0
141
0.0
142
1.0
143
1.0
 70
  1712
 72
     0
 73
     0
 74
     0
  7

 75
     0
147
1.0
 76
     0
 77
     2
 78
   300
148
0.0
149
0.0
100
AcDbLayout
  1
Model
 70
     1
 71
     0
 10
0.0
 20
0.0
 11
12.0
 21
9.0
 12
0.0
 22
0.0
 32
0.0
 14
0.0
 24
0.0
 34
0.0
 15
0.0
 25
0.0
 35
0.0
146
0.0
 13
0.0
 23
0.0
 33
0.0
 16
1.0
 26
0.0
 36
0.0
 17
0.0
 27
1.0
 37
0.0
 76
     0
330
282
  0
MLINESTYLE
  5
279
102
{ACAD_REACTORS
330
278
102
}
330
278
100
AcDbMlineStyle
  2
STANDARD
 70
     0
  3

 62
   256
 51
90.0
 52
90.0
 71
     2
 49
0.5
 62
   256
  6
BYLAYER
 49
-0.5
 62
   256
  6
BYLAYER
  0
ACDBPLACEHOLDER
  5
271
102
{ACAD_REACTORS
330
270
102
}
330
270
  0
ENDSEC
  0
EOF
