  0
SECTION
  2
HEADER
  9
$ACADVER
  1
AC1018
  9
$ACADMAINTVER
 70
     0
  9
$DWGCODEPAGE
  3
ANSI_932
  9
$INSBASE
 10
0.0
 20
0.0
 30
0.0
  9
$EXTMIN
 10
-86.60028843234096
 20
-25.25071850465471
 30
-0.0015258207003583
  9
$EXTMAX
 10
132.1999389552017
 20
51.56346252143075
 30
0.0000000349246037
  9
$LIMMIN
 10
-86.59361209622534
 20
-25.24837464378629
  9
$LIMMAX
 10
132.1932616002802
 20
51.56111830289021
  9
$ORTHOMODE
 70
     0
  9
$REGENMODE
 70
     1
  9
$FILLMODE
 70
     1
  9
$QTEXTMODE
 70
     0
  9
$MIRRTEXT
 70
     1
  9
$LTSCALE
 40
1.0
  9
$ATTMODE
 70
     1
  9
$TEXTSIZE
 40
3.5
  9
$TRACEWID
 40
0.5
  9
$TEXTSTYLE
  7
STANDARD
  9
$CLAYER
  8
0
  9
$CELTYPE
  6
ByLayer
  9
$CECOLOR
 62
   256
  9
$CELTSCALE
 40
1.0
  9
$DISPSILH
 70
     0
  9
$DIMSCALE
 40
1.0
  9
$DIMASZ
 40
0.18
  9
$DIMEXO
 40
0.0625
  9
$DIMDLI
 40
0.38
  9
$DIMRND
 40
0.0
  9
$DIMDLE
 40
0.0
  9
$DIMEXE
 40
0.18
  9
$DIMTP
 40
0.0
  9
$DIMTM
 40
0.0
  9
$DIMTXT
 40
0.18
  9
$DIMCEN
 40
0.09
  9
$DIMTSZ
 40
0.0
  9
$DIMTOL
 70
     0
  9
$DIMLIM
 70
     0
  9
$DIMTIH
 70
     1
  9
$DIMTOH
 70
     1
  9
$DIMSE1
 70
     0
  9
$DIMSE2
 70
     0
  9
$DIMTAD
 70
     0
  9
$DIMZIN
 70
     0
  9
$DIMBLK
  1

  9
$DIMASO
 70
     1
  9
$DIMSHO
 70
     1
  9
$DIMPOST
  1

  9
$DIMAPOST
  1

  9
$DIMALT
 70
     0
  9
$DIMALTD
 70
     2
  9
$DIMALTF
 40
25.4
  9
$DIMLFAC
 40
1.0
  9
$DIMTOFL
 70
     0
  9
$DIMTVP
 40
0.0
  9
$DIMTIX
 70
     0
  9
$DIMSOXD
 70
     0
  9
$DIMSAH
 70
     0
  9
$DIMBLK1
  1

  9
$DIMBLK2
  1

  9
$DIMSTYLE
  2
STANDARD
  9
$DIMCLRD
 70
     0
  9
$DIMCLRE
 70
     0
  9
$DIMCLRT
 70
     0
  9
$DIMTFAC
 40
1.0
  9
$DIMGAP
 40
0.09
  9
$DIMJUST
 70
     0
  9
$DIMSD1
 70
     0
  9
$DIMSD2
 70
     0
  9
$DIMTOLJ
 70
     1
  9
$DIMTZIN
 70
     0
  9
$DIMALTZ
 70
     0
  9
$DIMALTTZ
 70
     0
  9
$DIMUPT
 70
     0
  9
$DIMDEC
 70
     4
  9
$DIMTDEC
 70
     4
  9
$DIMALTU
 70
     2
  9
$DIMALTTD
 70
     2
  9
$DIMTXSTY
  7
STANDARD
  9
$DIMAUNIT
 70
     0
  9
$DIMADEC
 70
     0
  9
$DIMALTRND
 40
0.0
  9
$DIMAZIN
 70
     0
  9
$DIMDSEP
 70
    46
  9
$DIMATFIT
 70
     3
  9
$DIMFRAC
 70
     0
  9
$DIMLDRBLK
  1

  9
$DIMLUNIT
 70
     2
  9
$DIMLWD
 70
    -2
  9
$DIMLWE
 70
    -2
  9
$DIMTMOVE
 70
     0
  9
$LUNITS
 70
     2
  9
$LUPREC
 70
     4
  9
$SKETCHINC
 40
0.1
  9
$FILLETRAD
 40
2.0
  9
$AUNITS
 70
     0
  9
$AUPREC
 70
     0
  9
$MENU
  1
ACAD
  9
$ELEVATION
 40
0.0
  9
$PELEVATION
 40
0.0
  9
$THICKNESS
 40
0.0
  9
$LIMCHECK
 70
     0
  9
$CHAMFERA
 40
0.0
  9
$CHAMFERB
 40
0.0
  9
$CHAMFERC
 40
0.0
  9
$CHAMFERD
 40
0.0
  9
$SKPOLY
 70
     0
  9
$TDCREATE
 40
2452095.337633449
  9
$TDUCREATE
 40
2452095.504300116
  9
$TDUPDATE
 40
2453209.449686621
  9
$TDUUPDATE
 40
2453209.616353287
  9
$TDINDWG
 40
0.0005792477
  9
$TDUSRTIMER
 40
0.0005792477
  9
$USRTIMER
 70
     1
  9
$ANGBASE
 50
0.0
  9
$ANGDIR
 70
     0
  9
$PDMODE
 70
     0
  9
$PDSIZE
 40
0.0
  9
$PLINEWID
 40
0.0
  9
$SPLFRAME
 70
     0
  9
$SPLINETYPE
 70
     6
  9
$SPLINESEGS
 70
     8
  9
$HANDSEED
  5
27F
  9
$SURFTAB1
 70
     6
  9
$SURFTAB2
 70
     6
  9
$SURFTYPE
 70
     6
  9
$SURFU
 70
     6
  9
$SURFV
 70
     6
  9
$UCSBASE
  2

  9
$UCSNAME
  2

  9
$UCSORG
 10
0.0
 20
0.0
 30
0.0
  9
$UCSXDIR
 10
1.0
 20
0.0
 30
0.0
  9
$UCSYDIR
 10
0.0
 20
1.0
 30
0.0
  9
$UCSORTHOREF
  2

  9
$UCSORTHOVIEW
 70
     0
  9
$UCSORGTOP
 10
0.0
 20
0.0
 30
0.0
  9
$UCSORGBOTTOM
 10
0.0
 20
0.0
 30
0.0
  9
$UCSORGLEFT
 10
0.0
 20
0.0
 30
0.0
  9
$UCSORGRIGHT
 10
0.0
 20
0.0
 30
0.0
  9
$UCSORGFRONT
 10
0.0
 20
0.0
 30
0.0
  9
$UCSORGBACK
 10
0.0
 20
0.0
 30
0.0
  9
$PUCSBASE
  2

  9
$PUCSNAME
  2

  9
$PUCSORG
 10
0.0
 20
0.0
 30
0.0
  9
$PUCSXDIR
 10
1.0
 20
0.0
 30
0.0
  9
$PUCSYDIR
 10
0.0
 20
1.0
 30
0.0
  9
$PUCSORTHOREF
  2

  9
$PUCSORTHOVIEW
 70
     0
  9
$PUCSORGTOP
 10
0.0
 20
0.0
 30
0.0
  9
$PUCSORGBOTTOM
 10
0.0
 20
0.0
 30
0.0
  9
$PUCSORGLEFT
 10
0.0
 20
0.0
 30
0.0
  9
$PUCSORGRIGHT
 10
0.0
 20
0.0
 30
0.0
  9
$PUCSORGFRONT
 10
0.0
 20
0.0
 30
0.0
  9
$PUCSORGBACK
 10
0.0
 20
0.0
 30
0.0
  9
$USERI1
 70
     0
  9
$USERI2
 70
     0
  9
$USERI3
 70
     0
  9
$USERI4
 70
     0
  9
$USERI5
 70
     0
  9
$USERR1
 40
0.0
  9
$USERR2
 40
0.0
  9
$USERR3
 40
0.0
  9
$USERR4
 40
0.0
  9
$USERR5
 40
0.0
  9
$WORLDVIEW
 70
     1
  9
$SHADEDGE
 70
     3
  9
$SHADEDIF
 70
    70
  9
$TILEMODE
 70
     1
  9
$MAXACTVP
 70
    64
  9
$PINSBASE
 10
0.0
 20
0.0
 30
0.0
  9
$PLIMCHECK
 70
     0
  9
$PEXTMIN
 10
1.000000000000000E+20
 20
1.000000000000000E+20
 30
1.000000000000000E+20
  9
$PEXTMAX
 10
-1.000000000000000E+20
 20
-1.000000000000000E+20
 30
-1.000000000000000E+20
  9
$PLIMMIN
 10
0.0
 20
0.0
  9
$PLIMMAX
 10
12.0
 20
9.0
  9
$UNITMODE
 70
     0
  9
$VISRETAIN
 70
     1
  9
$PLINEGEN
 70
     0
  9
$PSLTSCALE
 70
     1
  9
$TREEDEPTH
 70
  3020
  9
$CMLSTYLE
  2
Standard
  9
$CMLJUST
 70
     0
  9
$CMLSCALE
 40
1.0
  9
$PROXYGRAPHICS
 70
     1
  9
$MEASUREMENT
 70
     0
  9
$CELWEIGHT
370
    -1
  9
$ENDCAPS
280
     0
  9
$JOINSTYLE
280
     0
  9
$LWDISPLAY
290
     0
  9
$INSUNITS
 70
     0
  9
$HYPERLINKBASE
  1

  9
$STYLESHEET
  1

  9
$XEDIT
290
     1
  9
$CEPSNTYPE
380
     0
  9
$PSTYLEMODE
290
     1
  9
$FINGERPRINTGUID
  2
{5C2835AC-30CA-4E09-956B-4C9326DE95E3}
  9
$VERSIONGUID
  2
{A2EA952E-2ECF-422A-AFE0-2ED6DEBB2CB4}
  9
$EXTNAMES
290
     1
  9
$PSVPSCALE
 40
0.0
  9
$OLESTARTUP
290
     0
  9
$SORTENTS
280
   127
  9
$INDEXCTL
280
     0
  9
$HIDETEXT
280
     0
  9
$XCLIPFRAME
290
     0
  9
$HALOGAP
280
     0
  9
$OBSCOLOR
 70
   257
  9
$OBSLTYPE
280
     0
  9
$INTERSECTIONDISPLAY
280
     0
  9
$INTERSECTIONCOLOR
 70
   257
  9
$DIMASSOC
280
     1
  9
$PROJECTNAME
  1

  0
ENDSEC
  0
SECTION
  2
CLASSES
  0
CLASS
  1
ACDBDICTIONARYWDFLT
  2
AcDbDictionaryWithDefault
  3
ObjectDBX Classes
 90
        0
 91
        1
280
     0
281
     0
  0
ENDSEC
  0
SECTION
  2
TABLES
  0
TABLE
  2
VPORT
  5
24C
330
0
100
AcDbSymbolTable
 70
     2
  0
VPORT
  5
27E
330
24C
100
AcDbSymbolTableRecord
100
AcDbViewportTableRecord
  2
*Active
 70
     0
 10
0.0
 20
0.0
 11
1.0
 21
1.0
 12
22.79982526143034
 22
13.15637200838802
 13
0.0
 23
0.0
 14
1.0
 24
1.0
 15
0.0
 25
0.0
 16
0.0
 26
0.0
 36
1.0
 17
0.0
 27
0.0
 37
0.0
 40
135.3938961021423
 41
1.625
 42
50.0
 43
0.0
 44
0.0
 50
0.0
 51
0.0
 71
     0
 72
   100
 73
     1
 74
     1
 75
     0
 76
     0
 77
     0
 78
     0
281
     0
 65
     1
110
0.0
120
0.0
130
0.0
111
1.0
121
0.0
131
0.0
112
0.0
122
1.0
132
0.0
 79
     0
146
0.0
  0
ENDTAB
  0
TABLE
  2
LTYPE
  5
249
330
0
100
AcDbSymbolTable
 70
     9
  0
LTYPE
  5
257
330
249
100
AcDbSymbolTableRecord
100
AcDbLinetypeTableRecord
  2
ByBlock
 70
     0
  3

 72
    65
 73
     0
 40
0.0
  0
LTYPE
  5
258
330
249
100
AcDbSymbolTableRecord
100
AcDbLinetypeTableRecord
  2
ByLayer
 70
     0
  3

 72
    65
 73
     0
 40
0.0
  0
LTYPE
  5
259
330
249
100
AcDbSymbolTableRecord
100
AcDbLinetypeTableRecord
  2
CONTINUOUS
 70
     0
  3
Solid line
 72
    65
 73
     0
 40
0.0
  0
LTYPE
  5
269
330
249
100
AcDbSymbolTableRecord
100
AcDbLinetypeTableRecord
  2
BORDER
 70
     0
  3
__ __ . __ __ .
 72
    65
 73
     6
 40
10.07571128865486
 49
2.878774653901389
 74
     0
 49
-1.439387326950694
 74
     0
 49
2.878774653901389
 74
     0
 49
-1.439387326950694
 74
     0
 49
0.0
 74
     0
 49
-1.439387326950694
 74
     0
  0
LTYPE
  5
26A
330
249
100
AcDbSymbolTableRecord
100
AcDbLinetypeTableRecord
  2
CENTER
 70
     0
  3
____ _ ____ _
 72
    65
 73
     4
 40
11.51509861560556
 49
7.196936634753475
 74
     0
 49
-1.439387326950694
 74
     0
 49
1.439387326950694
 74
     0
 49
-1.439387326950694
 74
     0
  0
LTYPE
  5
26B
330
249
100
AcDbSymbolTableRecord
100
AcDbLinetypeTableRecord
  2
DASHDOT
 70
     0
  3
__ . __ . __ .
 72
    65
 73
     4
 40
5.757549307802779
 49
2.878774653901389
 74
     0
 49
-1.439387326950694
 74
     0
 49
0.0
 74
     0
 49
-1.439387326950694
 74
     0
  0
LTYPE
  5
26C
330
249
100
AcDbSymbolTableRecord
100
AcDbLinetypeTableRecord
  2
DASHED
 70
     0
  3
__ __ __ __ __
 72
    65
 73
     2
 40
4.318161980852085
 49
2.878774653901389
 74
     0
 49
-1.439387326950694
 74
     0
  0
LTYPE
  5
26D
330
249
100
AcDbSymbolTableRecord
100
AcDbLinetypeTableRecord
  2
DIVIDE
 70
     0
  3
__ . . __ . . 
 72
    65
 73
     6
 40
7.196936634753475
 49
2.878774653901389
 74
     0
 49
-1.439387326950694
 74
     0
 49
0.0
 74
     0
 49
-1.439387326950694
 74
     0
 49
0.0
 74
     0
 49
-1.439387326950694
 74
     0
  0
LTYPE
  5
26E
330
249
100
AcDbSymbolTableRecord
100
AcDbLinetypeTableRecord
  2
DOT
 70
     0
  3
..............
 72
    65
 73
     4
 40
2.878774653901389
 49
0.0
 74
     0
 49
-1.439387326950694
 74
     0
 49
0.0
 74
     0
 49
-1.439387326950694
 74
     0
  0
LTYPE
  5
26F
330
249
100
AcDbSymbolTableRecord
100
AcDbLinetypeTableRecord
  2
HIDDEN
 70
     0
  3
_ _ _ _ _ _ _
 72
    65
 73
     2
 40
2.159080990426042
 49
1.439387326950694
 74
     0
 49
-0.7196936634753476
 74
     0
  0
LTYPE
  5
270
330
249
100
AcDbSymbolTableRecord
100
AcDbLinetypeTableRecord
  2
PHANTOM
 70
     0
  3
_____ _ _ _____ _ _ 
 72
    65
 73
     6
 40
14.39387326950695
 49
7.196936634753475
 74
     0
 49
-1.439387326950694
 74
     0
 49
1.439387326950694
 74
     0
 49
-1.439387326950694
 74
     0
 49
1.439387326950694
 74
     0
 49
-1.439387326950694
 74
     0
  0
ENDTAB
  0
TABLE
  2
LAYER
  5
246
330
0
100
AcDbSymbolTable
 70
     2
  0
LAYER
  5
254
330
246
100
AcDbSymbolTableRecord
100
AcDbLayerTableRecord
  2
0
 70
     0
 62
     7
  6
CONTINUOUS
370
    -3
390
253
  0
LAYER
  5
271
330
246
100
AcDbSymbolTableRecord
100
AcDbLayerTableRecord
  2
1
 70
     0
 62
     7
  6
CONTINUOUS
370
    -3
390
253
  0
ENDTAB
  0
TABLE
  2
STYLE
  5
247
330
0
100
AcDbSymbolTable
 70
     4
  0
STYLE
  5
255
330
247
100
AcDbSymbolTableRecord
100
AcDbTextStyleTableRecord
  2
STANDARD
 70
     0
 40
0.0
 41
1.0
 50
0.0
 71
     0
 42
3.5
  3
txt
  4

  0
STYLE
  5
272
330
247
100
AcDbSymbolTableRecord
100
AcDbTextStyleTableRecord
  2
SIMPLEX
 70
     0
 40
0.0
 41
1.0
 50
0.0
 71
     0
 42
3.5
  3
simplex
  4

  0
STYLE
  5
273
330
247
100
AcDbSymbolTableRecord
100
AcDbTextStyleTableRecord
  2
COMPLEX
 70
     0
 40
0.0
 41
1.0
 50
0.0
 71
     0
 42
3.5
  3
complex
  4

  0
STYLE
  5
274
330
247
100
AcDbSymbolTableRecord
100
AcDbTextStyleTableRecord
  2
ITALIC
 70
     0
 40
0.0
 41
1.0
 50
0.0
 71
     0
 42
3.5
  3
italic
  4

  0
ENDTAB
  0
TABLE
  2
VIEW
  5
24A
330
0
100
AcDbSymbolTable
 70
     0
  0
ENDTAB
  0
TABLE
  2
UCS
  5
24B
330
0
100
AcDbSymbolTable
 70
     0
  0
ENDTAB
  0
TABLE
  2
APPID
  5
24D
330
0
100
AcDbSymbolTable
 70
     1
  0
APPID
  5
256
330
24D
100
AcDbSymbolTableRecord
100
AcDbRegAppTableRecord
  2
ACAD
 70
     0
  0
ENDTAB
  0
TABLE
  2
DIMSTYLE
  5
24E
330
0
100
AcDbSymbolTable
 70
     1
100
AcDbDimStyleTable
 71
     0
  0
DIMSTYLE
105
275
330
24E
100
AcDbSymbolTableRecord
100
AcDbDimStyleTableRecord
  2
STANDARD
 70
     0
279
     2
340
255
  0
ENDTAB
  0
TABLE
  2
BLOCK_RECORD
  5
245
330
0
100
AcDbSymbolTable
 70
     2
  0
BLOCK_RECORD
  5
264
330
245
100
AcDbSymbolTableRecord
100
AcDbBlockTableRecord
  2
*Model_Space
340
267
  0
BLOCK_RECORD
  5
260
330
245
100
AcDbSymbolTableRecord
100
AcDbBlockTableRecord
  2
*Paper_Space
340
263
  0
BLOCK_RECORD
  5
27A
330
245
100
AcDbSymbolTableRecord
100
AcDbBlockTableRecord
  2
$MODEL_SPACE
340
0
  0
BLOCK_RECORD
  5
27C
330
245
100
AcDbSymbolTableRecord
100
AcDbBlockTableRecord
  2
$PAPER_SPACE
340
0
  0
ENDTAB
  0
ENDSEC
  0
SECTION
  2
BLOCKS
  0
BLOCK
  5
265
330
264
100
AcDbEntity
  8
0
100
AcDbBlockBegin
  2
*Model_Space
 70
     0
 10
0.0
 20
0.0
 30
0.0
  3
*Model_Space
  1

  0
ENDBLK
  5
266
330
264
100
AcDbEntity
  8
0
100
AcDbBlockEnd
  0
BLOCK
  5
261
330
260
100
AcDbEntity
 67
     1
  8
0
100
AcDbBlockBegin
  2
*Paper_Space
 70
     0
 10
0.0
 20
0.0
 30
0.0
  3
*Paper_Space
  1

  0
ENDBLK
  5
262
330
260
100
AcDbEntity
 67
     1
  8
0
100
AcDbBlockEnd
  0
BLOCK
  5
27B
330
27A
100
AcDbEntity
  8
0
100
AcDbBlockBegin
  2
$MODEL_SPACE
 70
     0
 10
0.0
 20
0.0
 30
0.0
  3
$MODEL_SPACE
  1

  0
ENDBLK
  5
20
330
27A
100
AcDbEntity
  8
0
100
AcDbBlockEnd
  0
BLOCK
  5
27D
330
27C
100
AcDbEntity
  8
0
100
AcDbBlockBegin
  2
$PAPER_SPACE
 70
     0
 10
0.0
 20
0.0
 30
0.0
  3
$PAPER_SPACE
  1

  0
ENDBLK
  5
1C
330
27C
100
AcDbEntity
  8
0
100
AcDbBlockEnd
  0
ENDSEC
  0
SECTION
  2
ENTITIES
  0
LWPOLYLINE
  5
33
330
264
100
AcDbEntity
  8
1
 62
     7
100
AcDbPolyline
 90
       20
 70
     0
 43
0.0
 10
92.19326160027971
 20
8.999651982917553
 42
-0.1931418825564472
 10
92.18565226043919
 20
8.988079586984685
 42
-0.1130571647099164
 10
92.13668584418931
 20
8.963862142545059
 42
-0.0102750876786105
 10
92.04793607853321
 20
8.945927107514544
 42
-0.0164421012898661
 10
91.91737255403999
 20
8.926682963745545
 42
-0.0077492015280214
 10
91.74995476780614
 20
8.910242532383037
 42
-0.00617377008384
 10
91.55038530243649
 20
8.896240205132256
 42
-0.0047674758310775
 10
91.32479826706939
 20
8.88536645010209
 42
-0.0041001195479583
 10
91.08002411647325
 20
8.877915699983596
 42
-0.0037409925223895
 10
90.82350134321837
 20
8.874132287362732
 42
-0.003632939434174
 10
90.56302185734104
 20
8.87413228736273
 42
-0.0037409882237498
 10
90.30649908408612
 20
8.877915699983596
 42
-0.0041000884244585
 10
90.06172493349001
 20
8.88536645010209
 42
-0.004767525652957
 10
89.83613789812293
 20
8.896240205132258
 42
-0.0061729469853897
 10
89.63656843275328
 20
8.910242532383035
 42
-0.0077536729663771
 10
89.46915064651941
 20
8.926682963745548
 42
-0.0163804250947416
 10
89.33858712202619
 20
8.945927107514544
 42
-0.0104637360338591
 10
89.24983735637011
 20
8.963862142545059
 42
-0.1009775590124138
 10
89.20087094012023
 20
8.988079586984685
 42
-0.2552703096423702
 10
89.19326160027969
 20
8.999651982725584
  0
LINE
  5
49
330
264
100
AcDbEntity
  8
1
  6
DASHDOT
 62
     3
100
AcDbLine
 10
127.1932616002803
 20
0.0
 30
0.0
 11
132.1932616002802
 21
0.0
 31
0.0
  0
LINE
  5
4A
330
264
100
AcDbEntity
  8
1
  6
DASHDOT
 62
     3
100
AcDbLine
 10
82.6932616002797
 20
0.0
 30
0.0
 11
87.6932616002797
 21
0.0
 31
0.0
  0
LINE
  5
4B
330
264
100
AcDbEntity
  8
1
  6
DASHDOT
 62
     3
100
AcDbLine
 10
39.50000000000009
 20
0.0
 30
0.0
 11
44.50000000000009
 21
0.0
 31
0.0
  0
LINE
  5
4C
330
264
100
AcDbEntity
  8
1
  6
DASHDOT
 62
     3
100
AcDbLine
 10
-5.0
 20
0.0
 30
0.0
 11
0.0
 21
0.0
 31
0.0
  0
LINE
  5
4D
330
264
100
AcDbEntity
  8
1
  6
DASHDOT
 62
     3
100
AcDbLine
 10
3.0
 20
2.312243336130018
 30
0.0
 11
3.0
 21
9.801192289360225
 31
0.0
  0
LINE
  5
4E
330
264
100
AcDbEntity
  8
1
 62
     7
100
AcDbLine
 10
24.89999999999998
 20
-19.80046054558878
 30
0.0
 11
24.89999999999998
 21
-10.5004605455888
 31
0.0
  0
LINE
  5
4F
330
264
100
AcDbEntity
  8
1
 62
     7
100
AcDbLine
 10
37.50000000000009
 20
-5.000460545588796
 30
0.0
 11
30.50000000000011
 21
-5.000460545588796
 31
0.0
  0
LINE
  5
50
330
264
100
AcDbEntity
  8
1
 62
     7
100
AcDbLine
 10
20.85000000000007
 20
-11.70046054558879
 30
0.0
 11
17.50000000000011
 21
-11.70046054558879
 31
0.0
  0
LINE
  5
51
330
264
100
AcDbEntity
  8
1
 62
     7
100
AcDbLine
 10
17.00000000000011
 20
-20.50046054558879
 30
0.0
 11
17.00000000000011
 21
-19.80046054558878
 31
0.0
  0
LINE
  5
52
330
264
100
AcDbEntity
  8
1
 62
     7
100
AcDbLine
 10
29.50000000000011
 20
20.49953945441119
 30
0.0
 11
29.50000000000011
 21
19.79953945441119
 31
0.0
  0
LINE
  5
53
330
264
100
AcDbEntity
  8
1
 62
     7
100
AcDbLine
 10
25.64999999999998
 20
11.6995394544112
 30
0.0
 11
29.00000000000011
 21
11.6995394544112
 31
0.0
  0
LINE
  5
54
330
264
100
AcDbEntity
  8
1
 62
     7
100
AcDbLine
 10
4.5
 20
4.999539454411198
 30
0.0
 11
16.00000000000011
 21
4.999539454411198
 31
0.0
  0
LINE
  5
55
330
264
100
AcDbEntity
  8
1
  6
DASHDOT
 62
     3
100
AcDbLine
 10
14.0
 20
-24.61462253638729
 30
0.0
 11
14.0
 21
-12.41441051393958
 31
0.0
  0
LINE
  5
56
330
264
100
AcDbEntity
  8
1
  6
DASHDOT
 62
     3
100
AcDbLine
 10
14.0
 20
12.53736126835812
 30
0.0
 11
14.0
 21
24.65858736473152
 31
0.0
  0
LINE
  5
57
330
264
100
AcDbEntity
  8
1
  6
DASHDOT
 62
     3
100
AcDbLine
 10
32.50000000000009
 20
12.53736126835812
 30
0.0
 11
32.50000000000009
 21
24.65858736473152
 31
0.0
  0
LINE
  5
58
330
264
100
AcDbEntity
  8
1
  6
DASHDOT
 62
     3
100
AcDbLine
 10
-60.41103702495411
 20
-0.0004605455887976
 30
0.0
 11
-53.3780306246574
 21
-0.0004605455887976
 31
0.0
  0
LINE
  5
59
330
264
100
AcDbEntity
  8
1
  6
DASHDOT
 62
     3
100
AcDbLine
 10
-62.84361209622539
 20
2.43211452568252
 30
0.0
 11
-62.84361209622539
 21
9.465120925979219
 31
0.0
  0
LINE
  5
5A
330
264
100
AcDbEntity
  8
1
  6
DASHDOT
 62
     3
100
AcDbLine
 10
-62.84361209622539
 20
-25.24837464378629
 30
0.0
 11
-62.84361209622539
 21
-12.51436778849582
 31
0.0
  0
LINE
  5
5B
330
264
100
AcDbEntity
  8
1
  6
DASHDOT
 62
     3
100
AcDbLine
 10
-62.84361209622539
 20
25.24745355260872
 30
0.0
 11
-62.84361209622539
 21
12.51344669731822
 31
0.0
  0
LINE
  5
5C
330
264
100
AcDbEntity
  8
1
  6
DASHDOT
 62
     3
100
AcDbLine
 10
-53.5410025989583
 20
-16.11305283782786
 30
0.0
 11
-56.14622159349238
 21
-11.60068117445179
 31
0.0
  0
LINE
  5
5D
330
264
100
AcDbEntity
  8
1
  6
DASHDOT
 62
     3
100
AcDbLine
 10
-81.44883109075918
 20
-0.0004605455889184
 30
0.0
 11
-76.23839310169144
 21
-0.0004605455886875
 31
0.0
  0
LINE
  5
5E
330
264
100
AcDbEntity
  8
1
  6
DASHDOT
 62
     3
100
AcDbLine
 10
-53.54100259895858
 20
16.1121317466503
 30
0.0
 11
-56.14622159349233
 21
11.59976008327401
 31
0.0
  0
LINE
  5
5F
330
264
100
AcDbEntity
  8
1
  6
DASHDOT
 62
     3
100
AcDbLine
 10
-62.84361209622539
 20
1.85935111098501
 30
0.0
 11
-62.84361209622539
 21
-1.860272202162607
 31
0.0
  0
LINE
  5
60
330
264
100
AcDbEntity
  8
1
  6
DASHDOT
 62
     3
100
AcDbLine
 10
-60.9838004396516
 20
-0.0004605455887976
 30
0.0
 11
-64.70342375279921
 21
-0.0004605455887976
 31
0.0
  0
LINE
  5
61
330
264
100
AcDbEntity
  8
1
 62
     7
100
AcDbLine
 10
29.00000000000011
 20
9.9995394544112
 30
0.0
 11
29.00000000000011
 21
11.6995394544112
 31
0.0
  0
LINE
  5
62
330
264
100
AcDbEntity
  8
1
 62
     7
100
AcDbLine
 10
29.50000000000011
 20
-8.000460545588797
 30
0.0
 11
29.50000000000011
 21
-9.500460545588797
 31
0.0
  0
LINE
  5
63
330
264
100
AcDbEntity
  8
1
 62
     7
100
AcDbLine
 10
29.00000000000011
 20
-10.0004605455888
 30
0.0
 11
29.00000000000011
 21
-11.70046054558879
 31
0.0
  0
LINE
  5
64
330
264
100
AcDbEntity
  8
1
 62
     7
100
AcDbLine
 10
17.50000000000011
 20
-10.0004605455888
 30
0.0
 11
17.50000000000011
 21
-11.70046054558879
 31
0.0
  0
LINE
  5
65
330
264
100
AcDbEntity
  8
1
 62
     7
100
AcDbLine
 10
17.00000000000011
 20
7.999539454411197
 30
0.0
 11
17.00000000000011
 21
9.4995394544112
 31
0.0
  0
LINE
  5
66
330
264
100
AcDbEntity
  8
1
 62
     7
100
AcDbLine
 10
17.50000000000011
 20
9.9995394544112
 30
0.0
 11
17.50000000000011
 21
11.6995394544112
 31
0.0
  0
LINE
  5
67
330
264
100
AcDbEntity
  8
1
 62
     7
100
AcDbLine
 10
97.19326160027993
 20
23.49954148841638
 30
0.0
 11
99.98542431527756
 21
23.49959624714478
 31
0.0
  0
LINE
  5
68
330
264
100
AcDbEntity
  8
1
 62
     7
100
AcDbLine
 10
97.1932616002797
 20
-23.75046054558866
 30
0.0
 11
97.19326160027993
 21
23.74953945441133
 31
0.0
  0
LINE
  5
69
330
264
100
AcDbEntity
  8
1
 62
     7
100
AcDbLine
 10
94.69326160027993
 20
23.74953945441133
 30
0.0
 11
94.6932616002797
 21
-23.75046054558866
 31
0.0
  0
LINE
  5
6A
330
264
100
AcDbEntity
  8
1
 62
     7
100
AcDbLine
 10
12.29279785353151
 20
23.4995394544112
 30
0.0
 11
9.500000000000111
 21
23.4995394544112
 31
0.0
  0
LINE
  5
6B
330
264
100
AcDbEntity
  8
1
 62
     7
100
AcDbLine
 10
98.19326160027969
 20
-20.56856388546921
 30
0.0
 11
100.1932616002797
 21
-20.56856388546921
 31
0.0
  0
LINE
  5
6C
330
264
100
AcDbEntity
  8
1
 62
     7
100
AcDbLine
 10
98.19326160027969
 20
-18.19401606966453
 30
0.0
 11
100.1932616002797
 21
-18.19401606966453
 31
0.0
  0
LINE
  5
6D
330
264
100
AcDbEntity
  8
1
 62
     7
100
AcDbLine
 10
98.19326160027969
 20
-15.2666662756441
 30
0.0
 11
100.1932616002797
 21
-15.2666662756441
 31
0.0
  0
LINE
  5
6E
330
264
100
AcDbEntity
  8
1
 62
     7
100
AcDbLine
 10
98.19326160027969
 20
-11.8754605455888
 30
0.0
 11
100.1932616002797
 21
-11.8754605455888
 31
0.0
  0
LINE
  5
6F
330
264
100
AcDbEntity
  8
1
 62
     7
100
AcDbLine
 10
98.19326160027969
 20
-8.123438949573429
 30
0.0
 11
100.1932616002797
 21
-8.123438949573429
 31
0.0
  0
LINE
  5
70
330
264
100
AcDbEntity
  8
1
 62
     7
100
AcDbLine
 10
98.19326160027969
 20
-4.124604765178399
 30
0.0
 11
100.1932616002797
 21
-4.124604765178399
 31
0.0
  0
LINE
  5
71
330
264
100
AcDbEntity
  8
1
 62
     7
100
AcDbLine
 10
103.4010111053514
 20
23.49966572035619
 30
0.0
 11
127.1932616002799
 21
23.50014965595756
 31
0.0
  0
LINE
  5
72
330
264
100
AcDbEntity
  8
1
 62
     7
100
AcDbLine
 10
103.1932616002797
 20
20.50009880582869
 30
0.0
 11
103.1932616002797
 21
21.5000988058287
 31
0.0
  0
LINE
  5
73
330
264
100
AcDbEntity
  8
1
 62
     3
100
AcDbLine
 10
102.904586465685
 20
20.50009880582869
 30
0.0
 11
103.1932616002797
 21
21.0000988058287
 31
0.0
  0
LINE
  5
74
330
264
100
AcDbEntity
  8
1
 62
     3
100
AcDbLine
 10
100.4819367348745
 20
20.50009880582869
 30
0.0
 11
100.1932616002797
 21
21.0000988058287
 31
0.0
  0
LINE
  5
75
330
264
100
AcDbEntity
  8
1
 62
     7
100
AcDbLine
 10
100.1932616002797
 20
20.50009880582869
 30
0.0
 11
100.1932616002797
 21
21.5000988058287
 31
0.0
  0
LINE
  5
76
330
264
100
AcDbEntity
  8
1
 62
     7
100
AcDbLine
 10
104.4432616002797
 20
21.5000988058287
 30
0.0
 11
104.4432616002797
 21
21.9000988058287
 31
0.0
  0
LINE
  5
77
330
264
100
AcDbEntity
  8
1
 62
     7
100
AcDbLine
 10
104.4432616002797
 20
21.9000988058287
 30
0.0
 11
98.94326160027979
 21
21.9000988058287
 31
0.0
  0
LINE
  5
78
330
264
100
AcDbEntity
  8
1
 62
     7
100
AcDbLine
 10
98.94326160027979
 20
21.9000988058287
 30
0.0
 11
98.94326160027979
 21
21.5000988058287
 31
0.0
  0
LINE
  5
79
330
264
100
AcDbEntity
  8
1
 62
     7
100
AcDbLine
 10
103.1932616002797
 20
23.6500988058287
 30
0.0
 11
100.1932616002797
 21
23.6500988058287
 31
0.0
  0
LINE
  5
7A
330
264
100
AcDbEntity
  8
1
  6
DASHDOT
 62
     3
100
AcDbLine
 10
101.6932616002797
 20
7.067614880987121
 30
0.0
 11
101.6932616002797
 21
25.9586760898654
 31
0.0
  0
LINE
  5
7B
330
264
100
AcDbEntity
  8
1
 62
     7
100
AcDbLine
 10
98.69326160027979
 20
21.5000988058287
 30
0.0
 11
104.6932616002797
 21
21.5000988058287
 31
0.0
  0
LINE
  5
7C
330
264
100
AcDbEntity
  8
1
 62
     7
100
AcDbLine
 10
104.6932616002797
 20
11.79539267055947
 30
0.0
 11
104.6932616002797
 21
23.5000988058287
 31
0.0
  0
LINE
  5
7D
330
264
100
AcDbEntity
  8
1
 62
     7
100
AcDbLine
 10
98.69326160027979
 20
11.79539267055949
 30
0.0
 11
98.69326160027979
 21
23.5000988058287
 31
0.0
  0
LINE
  5
7E
330
264
100
AcDbEntity
  8
1
 62
     7
100
AcDbLine
 10
103.3932616002799
 20
10.94419827909021
 30
0.0
 11
103.3932616002799
 21
21.5000988058287
 31
0.0
  0
LINE
  5
7F
330
264
100
AcDbEntity
  8
1
 62
     7
100
AcDbLine
 10
99.99326160027989
 20
10.94419827909021
 30
0.0
 11
99.99326160027989
 21
21.5000988058287
 31
0.0
  0
LINE
  5
80
330
264
100
AcDbEntity
  8
1
 62
     7
100
AcDbLine
 10
99.99326160027989
 20
20.50009880582869
 30
0.0
 11
103.3932616002799
 21
20.50009880582869
 31
0.0
  0
LINE
  5
81
330
264
100
AcDbEntity
  8
1
 62
     7
100
AcDbLine
 10
97.19326160027979
 20
-0.5002843925735796
 30
0.0
 11
94.69326160027979
 21
-0.5002843925735796
 31
0.0
  0
LINE
  5
82
330
264
100
AcDbEntity
  8
1
 62
     7
100
AcDbLine
 10
94.69326160027979
 20
0.4996829865749319
 30
0.0
 11
97.19326160027979
 21
0.4996829865749319
 31
0.0
  0
LINE
  5
83
330
264
100
AcDbEntity
  8
1
 62
     7
100
AcDbLine
 10
124.6932616002798
 20
23.5000988058287
 30
0.0
 11
124.6932616002798
 21
-23.4999011941709
 31
0.0
  0
LINE
  5
84
330
264
100
AcDbEntity
  8
1
 62
     7
100
AcDbLine
 10
127.1932616002799
 20
23.50014965595756
 30
0.0
 11
127.1932616002805
 21
-23.49985034404197
 31
0.0
  0
LINE
  5
85
330
264
100
AcDbEntity
  8
1
 62
     7
100
AcDbLine
 10
127.1932616002805
 20
-23.49985034404197
 30
0.0
 11
97.19326160027993
 21
-23.50045851158396
 31
0.0
  0
LINE
  5
86
330
264
100
AcDbEntity
  8
1
 62
     7
100
AcDbLine
 10
97.19326160027993
 20
23.74953945441133
 30
0.0
 11
94.69326160027993
 21
23.74953945441133
 31
0.0
  0
LINE
  5
87
330
264
100
AcDbEntity
  8
1
 62
     7
100
AcDbLine
 10
94.6932616002797
 20
-23.75046054558866
 30
0.0
 11
97.1932616002797
 21
-23.75046054558866
 31
0.0
  0
LINE
  5
88
330
264
100
AcDbEntity
  8
1
 62
     7
100
AcDbLine
 10
9.000000000000113
 20
-11.0004605455888
 30
0.0
 11
7.000000000000112
 21
-11.0004605455888
 31
0.0
  0
LINE
  5
89
330
264
100
AcDbEntity
  8
1
 62
     7
100
AcDbLine
 10
39.50000000000009
 20
-11.0004605455888
 30
0.0
 11
37.50000000000009
 21
-11.0004605455888
 31
0.0
  0
LINE
  5
8A
330
264
100
AcDbEntity
  8
1
 62
     7
100
AcDbLine
 10
16.00000000000011
 20
-5.000460545588796
 30
0.0
 11
0.0
 21
-5.000460545588796
 31
0.0
  0
LINE
  5
8B
330
264
100
AcDbEntity
  8
1
 62
     7
100
AcDbLine
 10
37.50000000000009
 20
-3.000460545588798
 30
0.0
 11
0.0
 21
-3.000460545588798
 31
0.0
  0
LINE
  5
8C
330
264
100
AcDbEntity
  8
1
 62
     7
100
AcDbLine
 10
15.5
 20
-20.50046054558879
 30
0.0
 11
37.00000000000009
 21
-20.50046054558879
 31
0.0
  0
LINE
  5
8D
330
264
100
AcDbEntity
  8
1
 62
     7
100
AcDbLine
 10
37.50000000000009
 20
-9.000460545588797
 30
0.0
 11
36.5000000000001
 21
-9.000460545588797
 31
0.0
  0
LINE
  5
8E
330
264
100
AcDbEntity
  8
1
 62
     7
100
AcDbLine
 10
10.00000000000011
 20
-9.000460545588797
 30
0.0
 11
9.000000000000113
 21
-9.000460545588797
 31
0.0
  0
LINE
  5
8F
330
264
100
AcDbEntity
  8
1
 62
     7
100
AcDbLine
 10
17.00000000000011
 20
-8.000460545588797
 30
0.0
 11
16.00000000000011
 21
-8.000460545588797
 31
0.0
  0
LINE
  5
90
330
264
100
AcDbEntity
  8
1
 62
     7
100
AcDbLine
 10
17.00000000000011
 20
-9.500460545588797
 30
0.0
 11
17.00000000000011
 21
-8.000460545588797
 31
0.0
  0
LINE
  5
91
330
264
100
AcDbEntity
  8
1
 62
     7
100
AcDbLine
 10
21.60000000000007
 20
-10.5004605455888
 30
0.0
 11
18.00000000000011
 21
-10.5004605455888
 31
0.0
  0
LINE
  5
92
330
264
100
AcDbEntity
  8
1
 62
     7
100
AcDbLine
 10
21.60000000000007
 20
-10.5004605455888
 30
0.0
 11
21.60000000000007
 21
-19.80046054558878
 31
0.0
  0
LINE
  5
93
330
264
100
AcDbEntity
  8
1
 62
     7
100
AcDbLine
 10
21.60000000000007
 20
-19.80046054558878
 30
0.0
 11
24.89999999999998
 21
-19.80046054558878
 31
0.0
  0
LINE
  5
94
330
264
100
AcDbEntity
  8
1
 62
     7
100
AcDbLine
 10
30.50000000000011
 20
-8.000460545588797
 30
0.0
 11
29.50000000000011
 21
-8.000460545588797
 31
0.0
  0
LINE
  5
95
330
264
100
AcDbEntity
  8
1
 62
     7
100
AcDbLine
 10
10.00000000000011
 20
-5.000460545588796
 30
0.0
 11
10.00000000000011
 21
-11.5004605455888
 31
0.0
  0
LINE
  5
96
330
264
100
AcDbEntity
  8
1
 62
     7
100
AcDbLine
 10
16.00000000000011
 20
-11.0004605455888
 30
0.0
 11
16.00000000000011
 21
-5.000460545588796
 31
0.0
  0
LINE
  5
97
330
264
100
AcDbEntity
  8
1
 62
     7
100
AcDbLine
 10
12.10000000000008
 20
-9.559306272400787
 30
0.0
 11
10.00000000000011
 21
-9.55930627240078
 31
0.0
  0
LINE
  5
98
330
264
100
AcDbEntity
  8
1
 62
     7
100
AcDbLine
 10
13.89999999999998
 20
-9.559306272400787
 30
0.0
 11
16.00000000000011
 21
-9.55930627240078
 31
0.0
  0
LINE
  5
99
330
264
100
AcDbEntity
  8
1
 62
     7
100
AcDbLine
 10
13.89999999999998
 20
-6.441614818776809
 30
0.0
 11
16.00000000000011
 21
-6.44161481877682
 31
0.0
  0
LINE
  5
9A
330
264
100
AcDbEntity
  8
1
 62
     7
100
AcDbLine
 10
12.10000000000008
 20
-6.441614818776809
 30
0.0
 11
10.00000000000011
 21
-6.44161481877682
 31
0.0
  0
LINE
  5
9B
330
264
100
AcDbEntity
  8
1
 62
     7
100
AcDbLine
 10
10.00000000000011
 20
-11.0004605455888
 30
0.0
 11
17.50000000000011
 21
-11.0004605455888
 31
0.0
  0
LINE
  5
9C
330
264
100
AcDbEntity
  8
1
 62
     7
100
AcDbLine
 10
30.50000000000011
 20
-5.000460545588796
 30
0.0
 11
30.50000000000011
 21
-11.0004605455888
 31
0.0
  0
LINE
  5
9D
330
264
100
AcDbEntity
  8
1
 62
     7
100
AcDbLine
 10
32.60000000000008
 20
-9.559306272400787
 30
0.0
 11
30.50000000000011
 21
-9.55930627240078
 31
0.0
  0
LINE
  5
9E
330
264
100
AcDbEntity
  8
1
 62
     7
100
AcDbLine
 10
34.39999999999998
 20
-9.559306272400787
 30
0.0
 11
36.5000000000001
 21
-9.55930627240078
 31
0.0
  0
LINE
  5
9F
330
264
100
AcDbEntity
  8
1
 62
     7
100
AcDbLine
 10
34.39999999999998
 20
-6.441614818776809
 30
0.0
 11
36.5000000000001
 21
-6.44161481877682
 31
0.0
  0
LINE
  5
A0
330
264
100
AcDbEntity
  8
1
 62
     7
100
AcDbLine
 10
32.60000000000008
 20
-6.441614818776809
 30
0.0
 11
30.50000000000011
 21
-6.44161481877682
 31
0.0
  0
LINE
  5
A1
330
264
100
AcDbEntity
  8
1
 62
     7
100
AcDbLine
 10
36.5000000000001
 20
-11.5004605455888
 30
0.0
 11
36.5000000000001
 21
-5.000460545588796
 31
0.0
  0
LINE
  5
A2
330
264
100
AcDbEntity
  8
1
 62
     7
100
AcDbLine
 10
9.500000000000111
 20
-20.50046054558879
 30
0.0
 11
9.500000000000111
 21
-23.75046054558878
 31
0.0
  0
LINE
  5
A3
330
264
100
AcDbEntity
  8
1
 62
     7
100
AcDbLine
 10
9.500000000000111
 20
-20.50046054558879
 30
0.0
 11
12.5
 21
-20.50046054558879
 31
0.0
  0
LINE
  5
A4
330
264
100
AcDbEntity
  8
1
 62
     7
100
AcDbLine
 10
10.00000000000011
 20
-11.5004605455888
 30
0.0
 11
9.000000000000113
 21
-11.5004605455888
 31
0.0
  0
LINE
  5
A5
330
264
100
AcDbEntity
  8
1
 62
     7
100
AcDbLine
 10
9.000000000000113
 20
-11.5004605455888
 30
0.0
 11
9.000000000000113
 21
-5.000460545588796
 31
0.0
  0
LINE
  5
A6
330
264
100
AcDbEntity
  8
1
 62
     7
100
AcDbLine
 10
17.00000000000011
 20
-19.80046054558878
 30
0.0
 11
20.85000000000007
 21
-19.80046054558878
 31
0.0
  0
LINE
  5
A7
330
264
100
AcDbEntity
  8
1
 62
     7
100
AcDbLine
 10
20.85000000000007
 20
-19.80046054558878
 30
0.0
 11
20.85000000000007
 21
-10.5004605455888
 31
0.0
  0
LINE
  5
A8
330
264
100
AcDbEntity
  8
1
 62
     7
100
AcDbLine
 10
29.50000000000011
 20
-19.80046054558878
 30
0.0
 11
29.50000000000011
 21
-20.50046054558879
 31
0.0
  0
LINE
  5
A9
330
264
100
AcDbEntity
  8
1
 62
     7
100
AcDbLine
 10
25.64999999999998
 20
-19.80046054558878
 30
0.0
 11
29.50000000000011
 21
-19.80046054558878
 31
0.0
  0
LINE
  5
AA
330
264
100
AcDbEntity
  8
1
 62
     7
100
AcDbLine
 10
25.64999999999998
 20
-10.5004605455888
 30
0.0
 11
25.64999999999998
 21
-19.80046054558878
 31
0.0
  0
LINE
  5
AB
330
264
100
AcDbEntity
  8
1
 62
     7
100
AcDbLine
 10
29.00000000000011
 20
-11.70046054558879
 30
0.0
 11
25.64999999999998
 21
-11.70046054558879
 31
0.0
  0
LINE
  5
AC
330
264
100
AcDbEntity
  8
1
 62
     7
100
AcDbLine
 10
37.00000000000009
 20
-20.50046054558879
 30
0.0
 11
37.00000000000009
 21
-23.50046054558879
 31
0.0
  0
LINE
  5
AD
330
264
100
AcDbEntity
  8
1
 62
     7
100
AcDbLine
 10
37.50000000000009
 20
-11.5004605455888
 30
0.0
 11
36.5000000000001
 21
-11.5004605455888
 31
0.0
  0
LINE
  5
AE
330
264
100
AcDbEntity
  8
1
 62
     7
100
AcDbLine
 10
36.5000000000001
 20
-11.0004605455888
 30
0.0
 11
29.00000000000011
 21
-11.0004605455888
 31
0.0
  0
LINE
  5
AF
330
264
100
AcDbEntity
  8
1
 62
     7
100
AcDbLine
 10
9.500000000000111
 20
-23.50046054558879
 30
0.0
 11
12.29279785353151
 21
-23.50046054558879
 31
0.0
  0
LINE
  5
B0
330
264
100
AcDbEntity
  8
1
 62
     7
100
AcDbLine
 10
17.0
 20
-23.50046054558879
 30
0.0
 11
17.0
 21
-21.50046054558879
 31
0.0
  0
LINE
  5
B1
330
264
100
AcDbEntity
  8
1
 62
     7
100
AcDbLine
 10
17.0
 20
-21.50046054558879
 30
0.0
 11
11.0
 21
-21.50046054558879
 31
0.0
  0
LINE
  5
B2
330
264
100
AcDbEntity
  8
1
 62
     7
100
AcDbLine
 10
11.0
 20
-21.50046054558879
 30
0.0
 11
11.0
 21
-23.50046054558879
 31
0.0
  0
LINE
  5
B3
330
264
100
AcDbEntity
  8
1
 62
     7
100
AcDbLine
 10
11.25
 20
-21.50046054558879
 30
0.0
 11
11.25
 21
-21.9004605455888
 31
0.0
  0
LINE
  5
B4
330
264
100
AcDbEntity
  8
1
 62
     7
100
AcDbLine
 10
11.25
 20
-21.9004605455888
 30
0.0
 11
16.75
 21
-21.9004605455888
 31
0.0
  0
LINE
  5
B5
330
264
100
AcDbEntity
  8
1
 62
     7
100
AcDbLine
 10
16.75
 20
-21.9004605455888
 30
0.0
 11
16.75
 21
-21.50046054558879
 31
0.0
  0
LINE
  5
B6
330
264
100
AcDbEntity
  8
1
 62
     7
100
AcDbLine
 10
12.5
 20
-23.6504605455888
 30
0.0
 11
15.5
 21
-23.6504605455888
 31
0.0
  0
LINE
  5
B7
330
264
100
AcDbEntity
  8
1
 62
     7
100
AcDbLine
 10
12.5
 20
-21.50046054558879
 30
0.0
 11
12.5
 21
-14.1004605455888
 31
0.0
  0
LINE
  5
B8
330
264
100
AcDbEntity
  8
1
 62
     7
100
AcDbLine
 10
12.5
 20
-14.1004605455888
 30
0.0
 11
13.09999999999996
 21
-13.5004605455888
 31
0.0
  0
LINE
  5
B9
330
264
100
AcDbEntity
  8
1
 62
     7
100
AcDbLine
 10
13.09999999999996
 20
-13.5004605455888
 30
0.0
 11
14.89999999999998
 21
-13.5004605455888
 31
0.0
  0
LINE
  5
BA
330
264
100
AcDbEntity
  8
1
 62
     7
100
AcDbLine
 10
14.89999999999998
 20
-13.5004605455888
 30
0.0
 11
15.5
 21
-14.1004605455888
 31
0.0
  0
LINE
  5
BB
330
264
100
AcDbEntity
  8
1
 62
     7
100
AcDbLine
 10
15.5
 20
-14.1004605455888
 30
0.0
 11
15.5
 21
-21.50046054558879
 31
0.0
  0
LINE
  5
BC
330
264
100
AcDbEntity
  8
1
 62
     7
100
AcDbLine
 10
12.5
 20
-14.1004605455888
 30
0.0
 11
15.5
 21
-14.1004605455888
 31
0.0
  0
LINE
  5
BD
330
264
100
AcDbEntity
  8
1
 62
     3
100
AcDbLine
 10
13.09999999999996
 20
-13.5004605455888
 30
0.0
 11
13.09999999999996
 21
-19.96123006104745
 31
0.0
  0
LINE
  5
BE
330
264
100
AcDbEntity
  8
1
 62
     3
100
AcDbLine
 10
13.09999999999996
 20
-19.96123006104745
 30
0.0
 11
12.5
 21
-21.00046054558879
 31
0.0
  0
LINE
  5
BF
330
264
100
AcDbEntity
  8
1
 62
     3
100
AcDbLine
 10
14.89999999999998
 20
-13.5004605455888
 30
0.0
 11
14.89999999999998
 21
-19.96123006104745
 31
0.0
  0
LINE
  5
C0
330
264
100
AcDbEntity
  8
1
 62
     3
100
AcDbLine
 10
14.89999999999998
 20
-19.96123006104745
 30
0.0
 11
15.5
 21
-21.00046054558879
 31
0.0
  0
LINE
  5
C1
330
264
100
AcDbEntity
  8
1
 62
     3
100
AcDbLine
 10
12.5
 20
-19.96123006104745
 30
0.0
 11
15.5
 21
-19.96123006104745
 31
0.0
  0
LINE
  5
C2
330
264
100
AcDbEntity
  8
1
 62
     7
100
AcDbLine
 10
28.50000000000011
 20
-10.5004605455888
 30
0.0
 11
29.50000000000011
 21
-9.500460545588797
 31
0.0
  0
LINE
  5
C3
330
264
100
AcDbEntity
  8
1
 62
     7
100
AcDbLine
 10
18.00000000000011
 20
-10.5004605455888
 30
0.0
 11
17.00000000000011
 21
-9.500460545588797
 31
0.0
  0
LINE
  5
C4
330
264
100
AcDbEntity
  8
1
 62
     7
100
AcDbLine
 10
28.50000000000011
 20
-10.5004605455888
 30
0.0
 11
24.89999999999998
 21
-10.5004605455888
 31
0.0
  0
LINE
  5
C5
330
264
100
AcDbEntity
  8
1
 62
     7
100
AcDbLine
 10
9.500000000000111
 20
-23.75046054558878
 30
0.0
 11
7.000000000000112
 21
-23.75046054558878
 31
0.0
  0
LINE
  5
C6
330
264
100
AcDbEntity
  8
1
 62
     7
100
AcDbLine
 10
7.000000000000112
 20
23.7495394544112
 30
0.0
 11
9.500000000000111
 21
23.7495394544112
 31
0.0
  0
LINE
  5
C7
330
264
100
AcDbEntity
  8
1
 62
     7
100
AcDbLine
 10
37.00000000000009
 20
20.49953945441119
 30
0.0
 11
34.00000000000011
 21
20.49953945441119
 31
0.0
  0
LINE
  5
C8
330
264
100
AcDbEntity
  8
1
 62
     7
100
AcDbLine
 10
31.00000000000011
 20
14.09953945441118
 30
0.0
 11
31.00000000000011
 21
21.4995394544112
 31
0.0
  0
LINE
  5
C9
330
264
100
AcDbEntity
  8
1
 62
     7
100
AcDbLine
 10
31.60000000000007
 20
13.4995394544112
 30
0.0
 11
31.00000000000011
 21
14.09953945441118
 31
0.0
  0
LINE
  5
CA
330
264
100
AcDbEntity
  8
1
 62
     7
100
AcDbLine
 10
33.40000000000009
 20
13.4995394544112
 30
0.0
 11
31.60000000000007
 21
13.4995394544112
 31
0.0
  0
LINE
  5
CB
330
264
100
AcDbEntity
  8
1
 62
     7
100
AcDbLine
 10
34.00000000000011
 20
14.09953945441118
 30
0.0
 11
33.40000000000009
 21
13.4995394544112
 31
0.0
  0
LINE
  5
CC
330
264
100
AcDbEntity
  8
1
 62
     7
100
AcDbLine
 10
34.00000000000011
 20
21.4995394544112
 30
0.0
 11
34.00000000000011
 21
14.09953945441118
 31
0.0
  0
LINE
  5
CD
330
264
100
AcDbEntity
  8
1
 62
     7
100
AcDbLine
 10
34.00000000000011
 20
14.09953945441118
 30
0.0
 11
31.00000000000011
 21
14.09953945441118
 31
0.0
  0
LINE
  5
CE
330
264
100
AcDbEntity
  8
1
 62
     3
100
AcDbLine
 10
31.60000000000007
 20
19.96030896986987
 30
0.0
 11
31.60000000000007
 21
13.4995394544112
 31
0.0
  0
LINE
  5
CF
330
264
100
AcDbEntity
  8
1
 62
     3
100
AcDbLine
 10
31.00000000000011
 20
20.99953945441119
 30
0.0
 11
31.60000000000007
 21
19.96030896986987
 31
0.0
  0
LINE
  5
D0
330
264
100
AcDbEntity
  8
1
 62
     3
100
AcDbLine
 10
33.40000000000009
 20
19.96030896986987
 30
0.0
 11
33.40000000000009
 21
13.4995394544112
 31
0.0
  0
LINE
  5
D1
330
264
100
AcDbEntity
  8
1
 62
     3
100
AcDbLine
 10
34.00000000000011
 20
20.99953945441119
 30
0.0
 11
33.40000000000009
 21
19.96030896986987
 31
0.0
  0
LINE
  5
D2
330
264
100
AcDbEntity
  8
1
 62
     3
100
AcDbLine
 10
34.00000000000011
 20
19.96030896986987
 30
0.0
 11
31.00000000000011
 21
19.96030896986987
 31
0.0
  0
LINE
  5
D3
330
264
100
AcDbEntity
  8
1
 62
     7
100
AcDbLine
 10
35.5000000000001
 20
21.4995394544112
 30
0.0
 11
35.5000000000001
 21
23.4995394544112
 31
0.0
  0
LINE
  5
D4
330
264
100
AcDbEntity
  8
1
 62
     7
100
AcDbLine
 10
29.50000000000011
 20
21.4995394544112
 30
0.0
 11
35.5000000000001
 21
21.4995394544112
 31
0.0
  0
LINE
  5
D5
330
264
100
AcDbEntity
  8
1
 62
     7
100
AcDbLine
 10
29.50000000000011
 20
23.4995394544112
 30
0.0
 11
29.50000000000011
 21
21.4995394544112
 31
0.0
  0
LINE
  5
D6
330
264
100
AcDbEntity
  8
1
 62
     7
100
AcDbLine
 10
29.75000000000011
 20
21.8995394544112
 30
0.0
 11
29.75000000000011
 21
21.4995394544112
 31
0.0
  0
LINE
  5
D7
330
264
100
AcDbEntity
  8
1
 62
     7
100
AcDbLine
 10
35.25000000000011
 20
21.8995394544112
 30
0.0
 11
29.75000000000011
 21
21.8995394544112
 31
0.0
  0
LINE
  5
D8
330
264
100
AcDbEntity
  8
1
 62
     7
100
AcDbLine
 10
35.25000000000011
 20
21.4995394544112
 30
0.0
 11
35.25000000000011
 21
21.8995394544112
 31
0.0
  0
LINE
  5
D9
330
264
100
AcDbEntity
  8
1
 62
     7
100
AcDbLine
 10
34.00000000000011
 20
23.6495394544112
 30
0.0
 11
31.00000000000011
 21
23.6495394544112
 31
0.0
  0
LINE
  5
DA
330
264
100
AcDbEntity
  8
1
 62
     7
100
AcDbLine
 10
17.50000000000011
 20
10.9995394544112
 30
0.0
 11
10.00000000000011
 21
10.9995394544112
 31
0.0
  0
LINE
  5
DB
330
264
100
AcDbEntity
  8
1
 62
     7
100
AcDbLine
 10
36.5000000000001
 20
8.9995394544112
 30
0.0
 11
37.50000000000009
 21
8.9995394544112
 31
0.0
  0
LINE
  5
DC
330
264
100
AcDbEntity
  8
1
 62
     7
100
AcDbLine
 10
7.000000000000112
 20
10.9995394544112
 30
0.0
 11
9.000000000000113
 21
10.9995394544112
 31
0.0
  0
LINE
  5
DD
330
264
100
AcDbEntity
  8
1
 62
     7
100
AcDbLine
 10
9.000000000000113
 20
8.9995394544112
 30
0.0
 11
10.00000000000011
 21
8.9995394544112
 31
0.0
  0
LINE
  5
DE
330
264
100
AcDbEntity
  8
1
 62
     7
100
AcDbLine
 10
30.50000000000011
 20
4.999539454411198
 30
0.0
 11
37.50000000000009
 21
4.999539454411198
 31
0.0
  0
LINE
  5
DF
330
264
100
AcDbEntity
  8
1
 62
     7
100
AcDbLine
 10
0.0
 20
2.999539454411198
 30
0.0
 11
37.50000000000009
 21
2.999539454411198
 31
0.0
  0
LINE
  5
E0
330
264
100
AcDbEntity
  8
1
 62
     7
100
AcDbLine
 10
16.00000000000011
 20
7.999539454411197
 30
0.0
 11
17.00000000000011
 21
7.999539454411197
 31
0.0
  0
LINE
  5
E1
330
264
100
AcDbEntity
  8
1
 62
     7
100
AcDbLine
 10
18.00000000000011
 20
10.49953945441119
 30
0.0
 11
21.60000000000007
 21
10.49953945441119
 31
0.0
  0
LINE
  5
E2
330
264
100
AcDbEntity
  8
1
 62
     7
100
AcDbLine
 10
21.60000000000007
 20
19.79953945441119
 30
0.0
 11
21.60000000000007
 21
10.49953945441119
 31
0.0
  0
LINE
  5
E3
330
264
100
AcDbEntity
  8
1
 62
     7
100
AcDbLine
 10
24.89999999999998
 20
19.79953945441119
 30
0.0
 11
21.60000000000007
 21
19.79953945441119
 31
0.0
  0
LINE
  5
E4
330
264
100
AcDbEntity
  8
1
 62
     7
100
AcDbLine
 10
24.89999999999998
 20
10.49953945441119
 30
0.0
 11
24.89999999999998
 21
19.79953945441119
 31
0.0
  0
LINE
  5
E5
330
264
100
AcDbEntity
  8
1
 62
     7
100
AcDbLine
 10
29.50000000000011
 20
7.999539454411197
 30
0.0
 11
30.50000000000011
 21
7.999539454411197
 31
0.0
  0
LINE
  5
E6
330
264
100
AcDbEntity
  8
1
 62
     7
100
AcDbLine
 10
29.50000000000011
 20
9.4995394544112
 30
0.0
 11
29.50000000000011
 21
7.999539454411197
 31
0.0
  0
LINE
  5
E7
330
264
100
AcDbEntity
  8
1
 62
     7
100
AcDbLine
 10
10.00000000000011
 20
9.558385181223178
 30
0.0
 11
12.10000000000008
 21
9.558385181223194
 31
0.0
  0
LINE
  5
E8
330
264
100
AcDbEntity
  8
1
 62
     7
100
AcDbLine
 10
16.00000000000011
 20
9.558385181223178
 30
0.0
 11
13.89999999999998
 21
9.558385181223194
 31
0.0
  0
LINE
  5
E9
330
264
100
AcDbEntity
  8
1
 62
     7
100
AcDbLine
 10
16.00000000000011
 20
6.440693727599216
 30
0.0
 11
13.89999999999998
 21
6.440693727599209
 31
0.0
  0
LINE
  5
EA
330
264
100
AcDbEntity
  8
1
 62
     7
100
AcDbLine
 10
10.00000000000011
 20
6.440693727599216
 30
0.0
 11
12.10000000000008
 21
6.440693727599209
 31
0.0
  0
LINE
  5
EB
330
264
100
AcDbEntity
  8
1
 62
     7
100
AcDbLine
 10
16.00000000000011
 20
4.999539454411198
 30
0.0
 11
16.00000000000011
 21
10.9995394544112
 31
0.0
  0
LINE
  5
EC
330
264
100
AcDbEntity
  8
1
 62
     7
100
AcDbLine
 10
10.00000000000011
 20
11.49953945441119
 30
0.0
 11
10.00000000000011
 21
4.999539454411198
 31
0.0
  0
LINE
  5
ED
330
264
100
AcDbEntity
  8
1
 62
     7
100
AcDbLine
 10
36.5000000000001
 20
10.9995394544112
 30
0.0
 11
29.00000000000011
 21
10.9995394544112
 31
0.0
  0
LINE
  5
EE
330
264
100
AcDbEntity
  8
1
 62
     7
100
AcDbLine
 10
36.5000000000001
 20
4.999539454411198
 30
0.0
 11
36.5000000000001
 21
11.49953945441119
 31
0.0
  0
LINE
  5
EF
330
264
100
AcDbEntity
  8
1
 62
     7
100
AcDbLine
 10
30.50000000000011
 20
9.558385181223178
 30
0.0
 11
32.60000000000008
 21
9.558385181223194
 31
0.0
  0
LINE
  5
F0
330
264
100
AcDbEntity
  8
1
 62
     7
100
AcDbLine
 10
36.5000000000001
 20
9.558385181223178
 30
0.0
 11
34.39999999999998
 21
9.558385181223194
 31
0.0
  0
LINE
  5
F1
330
264
100
AcDbEntity
  8
1
 62
     7
100
AcDbLine
 10
36.5000000000001
 20
6.440693727599216
 30
0.0
 11
34.39999999999998
 21
6.440693727599209
 31
0.0
  0
LINE
  5
F2
330
264
100
AcDbEntity
  8
1
 62
     7
100
AcDbLine
 10
30.50000000000011
 20
6.440693727599216
 30
0.0
 11
32.60000000000008
 21
6.440693727599209
 31
0.0
  0
LINE
  5
F3
330
264
100
AcDbEntity
  8
1
 62
     7
100
AcDbLine
 10
30.50000000000011
 20
10.9995394544112
 30
0.0
 11
30.50000000000011
 21
4.999539454411198
 31
0.0
  0
LINE
  5
F4
330
264
100
AcDbEntity
  8
1
 62
     7
100
AcDbLine
 10
7.000000000000112
 20
23.7495394544112
 30
0.0
 11
7.000000000000112
 21
4.999539454411198
 31
0.0
  0
LINE
  5
F5
330
264
100
AcDbEntity
  8
1
 62
     7
100
AcDbLine
 10
9.500000000000111
 20
23.7495394544112
 30
0.0
 11
9.500000000000111
 21
20.49953945441119
 31
0.0
  0
LINE
  5
F6
330
264
100
AcDbEntity
  8
1
 62
     7
100
AcDbLine
 10
12.5
 20
20.49953945441119
 30
0.0
 11
9.500000000000111
 21
20.49953945441119
 31
0.0
  0
LINE
  5
F7
330
264
100
AcDbEntity
  8
1
 62
     7
100
AcDbLine
 10
17.00000000000011
 20
19.79953945441119
 30
0.0
 11
17.00000000000011
 21
20.49953945441119
 31
0.0
  0
LINE
  5
F8
330
264
100
AcDbEntity
  8
1
 62
     7
100
AcDbLine
 10
9.000000000000113
 20
11.49953945441119
 30
0.0
 11
10.00000000000011
 21
11.49953945441119
 31
0.0
  0
LINE
  5
F9
330
264
100
AcDbEntity
  8
1
 62
     7
100
AcDbLine
 10
9.000000000000113
 20
4.999539454411198
 30
0.0
 11
9.000000000000113
 21
11.49953945441119
 31
0.0
  0
LINE
  5
FA
330
264
100
AcDbEntity
  8
1
 62
     7
100
AcDbLine
 10
20.85000000000007
 20
19.79953945441119
 30
0.0
 11
17.00000000000011
 21
19.79953945441119
 31
0.0
  0
LINE
  5
FB
330
264
100
AcDbEntity
  8
1
 62
     7
100
AcDbLine
 10
20.85000000000007
 20
10.49953945441119
 30
0.0
 11
20.85000000000007
 21
19.79953945441119
 31
0.0
  0
LINE
  5
FC
330
264
100
AcDbEntity
  8
1
 62
     7
100
AcDbLine
 10
17.50000000000011
 20
11.6995394544112
 30
0.0
 11
20.85000000000007
 21
11.6995394544112
 31
0.0
  0
LINE
  5
FD
330
264
100
AcDbEntity
  8
1
 62
     7
100
AcDbLine
 10
29.50000000000011
 20
19.79953945441119
 30
0.0
 11
25.64999999999998
 21
19.79953945441119
 31
0.0
  0
LINE
  5
FE
330
264
100
AcDbEntity
  8
1
 62
     7
100
AcDbLine
 10
25.64999999999998
 20
19.79953945441119
 30
0.0
 11
25.64999999999998
 21
10.49953945441119
 31
0.0
  0
LINE
  5
FF
330
264
100
AcDbEntity
  8
1
 62
     7
100
AcDbLine
 10
31.00000000000011
 20
20.49953945441119
 30
0.0
 11
15.5
 21
20.49953945441119
 31
0.0
  0
LINE
  5
100
330
264
100
AcDbEntity
  8
1
 62
     7
100
AcDbLine
 10
37.00000000000009
 20
23.4995394544112
 30
0.0
 11
37.00000000000009
 21
20.49953945441119
 31
0.0
  0
LINE
  5
101
330
264
100
AcDbEntity
  8
1
 62
     7
100
AcDbLine
 10
39.50000000000009
 20
23.4995394544112
 30
0.0
 11
34.2072021464686
 21
23.4995394544112
 31
0.0
  0
LINE
  5
102
330
264
100
AcDbEntity
  8
1
 62
     7
100
AcDbLine
 10
36.5000000000001
 20
11.49953945441119
 30
0.0
 11
37.50000000000009
 21
11.49953945441119
 31
0.0
  0
LINE
  5
103
330
264
100
AcDbEntity
  8
1
 62
     7
100
AcDbLine
 10
37.50000000000009
 20
11.49953945441119
 30
0.0
 11
37.50000000000009
 21
-11.5004605455888
 31
0.0
  0
LINE
  5
104
330
264
100
AcDbEntity
  8
1
 62
     7
100
AcDbLine
 10
37.50000000000009
 20
10.9995394544112
 30
0.0
 11
39.50000000000009
 21
10.9995394544112
 31
0.0
  0
LINE
  5
105
330
264
100
AcDbEntity
  8
1
 62
     7
100
AcDbLine
 10
6.000000000000112
 20
8.999539454411218
 30
0.0
 11
6.000000000000112
 21
4.99953945441122
 31
0.0
  0
LINE
  5
106
330
264
100
AcDbEntity
  8
1
 62
     7
100
AcDbLine
 10
0.0
 20
8.999539454411218
 30
0.0
 11
6.000000000000112
 21
8.999539454411218
 31
0.0
  0
LINE
  5
107
330
264
100
AcDbEntity
  8
1
 62
     7
100
AcDbLine
 10
7.000000000000112
 20
-5.000460545588796
 30
0.0
 11
7.000000000000112
 21
-23.75046054558878
 31
0.0
  0
LINE
  5
108
330
264
100
AcDbEntity
  8
1
 62
     7
100
AcDbLine
 10
15.70720214646849
 20
-23.50046054558879
 30
0.0
 11
39.50000000000009
 21
-23.50046054558879
 31
0.0
  0
LINE
  5
109
330
264
100
AcDbEntity
  8
1
 62
     7
100
AcDbLine
 10
39.50000000000009
 20
-23.50046054558879
 30
0.0
 11
39.50000000000009
 21
23.4995394544112
 31
0.0
  0
LINE
  5
10A
330
264
100
AcDbEntity
  8
1
 62
     7
100
AcDbLine
 10
6.000000000000112
 20
-5.000460545588778
 30
0.0
 11
6.000000000000112
 21
-9.000460545588781
 31
0.0
  0
LINE
  5
10B
330
264
100
AcDbEntity
  8
1
 62
     7
100
AcDbLine
 10
6.000000000000112
 20
-9.000460545588781
 30
0.0
 11
0.0
 21
-9.000460545588781
 31
0.0
  0
LINE
  5
10C
330
264
100
AcDbEntity
  8
1
 62
     7
100
AcDbLine
 10
0.0
 20
-9.000460545588781
 30
0.0
 11
0.0
 21
8.999539454411218
 31
0.0
  0
LINE
  5
10D
330
264
100
AcDbEntity
  8
1
 62
     7
100
AcDbLine
 10
17.0
 20
21.4995394544112
 30
0.0
 11
17.0
 21
23.4995394544112
 31
0.0
  0
LINE
  5
10E
330
264
100
AcDbEntity
  8
1
 62
     7
100
AcDbLine
 10
11.0
 20
21.4995394544112
 30
0.0
 11
17.0
 21
21.4995394544112
 31
0.0
  0
LINE
  5
10F
330
264
100
AcDbEntity
  8
1
 62
     7
100
AcDbLine
 10
11.0
 20
23.4995394544112
 30
0.0
 11
11.0
 21
21.4995394544112
 31
0.0
  0
LINE
  5
110
330
264
100
AcDbEntity
  8
1
 62
     7
100
AcDbLine
 10
11.25
 20
21.8995394544112
 30
0.0
 11
11.25
 21
21.4995394544112
 31
0.0
  0
LINE
  5
111
330
264
100
AcDbEntity
  8
1
 62
     7
100
AcDbLine
 10
16.75
 20
21.8995394544112
 30
0.0
 11
11.25
 21
21.8995394544112
 31
0.0
  0
LINE
  5
112
330
264
100
AcDbEntity
  8
1
 62
     7
100
AcDbLine
 10
16.75
 20
21.4995394544112
 30
0.0
 11
16.75
 21
21.8995394544112
 31
0.0
  0
LINE
  5
113
330
264
100
AcDbEntity
  8
1
 62
     7
100
AcDbLine
 10
15.5
 20
23.6495394544112
 30
0.0
 11
12.5
 21
23.6495394544112
 31
0.0
  0
LINE
  5
114
330
264
100
AcDbEntity
  8
1
 62
     7
100
AcDbLine
 10
12.5
 20
14.09953945441118
 30
0.0
 11
12.5
 21
21.4995394544112
 31
0.0
  0
LINE
  5
115
330
264
100
AcDbEntity
  8
1
 62
     7
100
AcDbLine
 10
13.09999999999996
 20
13.4995394544112
 30
0.0
 11
12.5
 21
14.09953945441118
 31
0.0
  0
LINE
  5
116
330
264
100
AcDbEntity
  8
1
 62
     7
100
AcDbLine
 10
14.89999999999998
 20
13.4995394544112
 30
0.0
 11
13.09999999999996
 21
13.4995394544112
 31
0.0
  0
LINE
  5
117
330
264
100
AcDbEntity
  8
1
 62
     7
100
AcDbLine
 10
15.5
 20
14.09953945441118
 30
0.0
 11
14.89999999999998
 21
13.4995394544112
 31
0.0
  0
LINE
  5
118
330
264
100
AcDbEntity
  8
1
 62
     7
100
AcDbLine
 10
15.5
 20
21.4995394544112
 30
0.0
 11
15.5
 21
14.09953945441118
 31
0.0
  0
LINE
  5
119
330
264
100
AcDbEntity
  8
1
 62
     7
100
AcDbLine
 10
15.5
 20
14.09953945441118
 30
0.0
 11
12.5
 21
14.09953945441118
 31
0.0
  0
LINE
  5
11A
330
264
100
AcDbEntity
  8
1
 62
     3
100
AcDbLine
 10
13.09999999999996
 20
19.96030896986987
 30
0.0
 11
13.09999999999996
 21
13.4995394544112
 31
0.0
  0
LINE
  5
11B
330
264
100
AcDbEntity
  8
1
 62
     3
100
AcDbLine
 10
12.5
 20
20.99953945441119
 30
0.0
 11
13.09999999999996
 21
19.96030896986987
 31
0.0
  0
LINE
  5
11C
330
264
100
AcDbEntity
  8
1
 62
     3
100
AcDbLine
 10
14.89999999999998
 20
19.96030896986987
 30
0.0
 11
14.89999999999998
 21
13.4995394544112
 31
0.0
  0
LINE
  5
11D
330
264
100
AcDbEntity
  8
1
 62
     3
100
AcDbLine
 10
15.5
 20
20.99953945441119
 30
0.0
 11
14.89999999999998
 21
19.96030896986987
 31
0.0
  0
LINE
  5
11E
330
264
100
AcDbEntity
  8
1
 62
     3
100
AcDbLine
 10
15.5
 20
19.96030896986987
 30
0.0
 11
12.5
 21
19.96030896986987
 31
0.0
  0
LINE
  5
11F
330
264
100
AcDbEntity
  8
1
 62
     7
100
AcDbLine
 10
30.79279785353151
 20
23.4995394544112
 30
0.0
 11
15.70720214646849
 21
23.4995394544112
 31
0.0
  0
LINE
  5
120
330
264
100
AcDbEntity
  8
1
 62
     7
100
AcDbLine
 10
1.5
 20
7.699539454411271
 30
0.0
 11
2.019615242270675
 21
7.999539454411219
 31
0.0
  0
LINE
  5
121
330
264
100
AcDbEntity
  8
1
 62
     7
100
AcDbLine
 10
4.5
 20
7.699539454411271
 30
0.0
 11
1.5
 21
7.699539454411271
 31
0.0
  0
LINE
  5
122
330
264
100
AcDbEntity
  8
1
 62
     7
100
AcDbLine
 10
3.98038475772938
 20
7.999539454411219
 30
0.0
 11
4.5
 21
7.699539454411271
 31
0.0
  0
LINE
  5
123
330
264
100
AcDbEntity
  8
1
 62
     7
100
AcDbLine
 10
2.019615242270675
 20
7.999539454411219
 30
0.0
 11
3.98038475772938
 21
7.999539454411219
 31
0.0
  0
LINE
  5
124
330
264
100
AcDbEntity
  8
1
 62
     7
100
AcDbLine
 10
1.5
 20
3.599539454411242
 30
0.0
 11
1.5
 21
7.699539454411271
 31
0.0
  0
LINE
  5
125
330
264
100
AcDbEntity
  8
1
 62
     7
100
AcDbLine
 10
2.10000000000008
 20
2.99953945441122
 30
0.0
 11
1.5
 21
3.599539454411242
 31
0.0
  0
LINE
  5
126
330
264
100
AcDbEntity
  8
1
 62
     7
100
AcDbLine
 10
4.5
 20
3.599539454411242
 30
0.0
 11
3.899999999999975
 21
2.99953945441122
 31
0.0
  0
LINE
  5
127
330
264
100
AcDbEntity
  8
1
 62
     7
100
AcDbLine
 10
4.5
 20
7.699539454411271
 30
0.0
 11
4.5
 21
3.599539454411242
 31
0.0
  0
LINE
  5
128
330
264
100
AcDbEntity
  8
1
 62
     7
100
AcDbLine
 10
4.5
 20
3.599539454411242
 30
0.0
 11
1.5
 21
3.599539454411242
 31
0.0
  0
LINE
  5
129
330
264
100
AcDbEntity
  8
1
 62
     3
100
AcDbLine
 10
2.10000000000008
 20
2.99953945441122
 30
0.0
 11
2.10000000000008
 21
7.999539454411219
 31
0.0
  0
LINE
  5
12A
330
264
100
AcDbEntity
  8
1
 62
     3
100
AcDbLine
 10
3.899999999999975
 20
2.99953945441122
 30
0.0
 11
3.899999999999975
 21
7.999539454411219
 31
0.0
  0
LINE
  5
12B
330
264
100
AcDbEntity
  8
1
 62
     3
100
AcDbLine
 10
4.5
 20
8.999539454411218
 30
0.0
 11
4.5
 21
7.699539454411271
 31
0.0
  0
LINE
  5
12C
330
264
100
AcDbEntity
  8
1
 62
     3
100
AcDbLine
 10
1.5
 20
8.999539454411218
 30
0.0
 11
1.5
 21
7.699539454411271
 31
0.0
  0
LINE
  5
12D
330
264
100
AcDbEntity
  8
1
 62
     7
100
AcDbLine
 10
3.899999999999975
 20
8.999539454411218
 30
0.0
 11
3.899999999999975
 21
7.999539454411219
 31
0.0
  0
LINE
  5
12E
330
264
100
AcDbEntity
  8
1
 62
     7
100
AcDbLine
 10
2.10000000000008
 20
8.999539454411218
 30
0.0
 11
2.10000000000008
 21
7.999539454411219
 31
0.0
  0
LINE
  5
12F
330
264
100
AcDbEntity
  8
1
 62
     7
100
AcDbLine
 10
0.0
 20
4.99953945441122
 30
0.0
 11
1.5
 21
4.99953945441122
 31
0.0
  0
LINE
  5
130
330
264
100
AcDbEntity
  8
1
 62
     7
100
AcDbLine
 10
29.50000000000011
 20
9.4995394544112
 30
0.0
 11
28.50000000000011
 21
10.49953945441119
 31
0.0
  0
LINE
  5
131
330
264
100
AcDbEntity
  8
1
 62
     7
100
AcDbLine
 10
17.00000000000011
 20
9.4995394544112
 30
0.0
 11
18.00000000000011
 21
10.49953945441119
 31
0.0
  0
LINE
  5
132
330
264
100
AcDbEntity
  8
1
 62
     7
100
AcDbLine
 10
24.89999999999998
 20
10.49953945441119
 30
0.0
 11
28.50000000000011
 21
10.49953945441119
 31
0.0
  0
LINE
  5
133
330
264
100
AcDbEntity
  8
1
  6
DASHED
 62
     3
100
AcDbLine
 10
-61.86322733849613
 20
7.999539454411197
 30
0.0
 11
-61.34361209622539
 21
7.699539454411201
 31
0.0
  0
LINE
  5
134
330
264
100
AcDbEntity
  8
1
  6
DASHED
 62
     3
100
AcDbLine
 10
-61.34361209622539
 20
7.699539454411201
 30
0.0
 11
-64.3436120962254
 21
7.699539454411201
 31
0.0
  0
LINE
  5
135
330
264
100
AcDbEntity
  8
1
  6
DASHED
 62
     3
100
AcDbLine
 10
-64.3436120962254
 20
7.699539454411201
 30
0.0
 11
-63.82399685395472
 21
7.999539454411197
 31
0.0
  0
LINE
  5
136
330
264
100
AcDbEntity
  8
1
  6
DASHED
 62
     3
100
AcDbLine
 10
-63.82399685395472
 20
7.999539454411197
 30
0.0
 11
-61.86322733849613
 21
7.999539454411197
 31
0.0
  0
LINE
  5
137
330
264
100
AcDbEntity
  8
1
  6
DASHED
 62
     3
100
AcDbLine
 10
-61.34361209622539
 20
7.699539454411201
 30
0.0
 11
-61.34361209622539
 21
3.599539454411199
 31
0.0
  0
LINE
  5
138
330
264
100
AcDbEntity
  8
1
  6
DASHED
 62
     3
100
AcDbLine
 10
-61.34361209622539
 20
3.599539454411199
 30
0.0
 11
-61.94361209622542
 21
2.999539454411198
 31
0.0
  0
LINE
  5
139
330
264
100
AcDbEntity
  8
1
  6
DASHED
 62
     3
100
AcDbLine
 10
-61.94361209622542
 20
2.999539454411198
 30
0.0
 11
-63.74361209622532
 21
2.999539454411198
 31
0.0
  0
LINE
  5
13A
330
264
100
AcDbEntity
  8
1
  6
DASHED
 62
     3
100
AcDbLine
 10
-63.74361209622532
 20
2.999539454411198
 30
0.0
 11
-64.3436120962254
 21
3.599539454411199
 31
0.0
  0
LINE
  5
13B
330
264
100
AcDbEntity
  8
1
  6
DASHED
 62
     3
100
AcDbLine
 10
-64.3436120962254
 20
3.599539454411199
 30
0.0
 11
-64.3436120962254
 21
7.699539454411201
 31
0.0
  0
LINE
  5
13C
330
264
100
AcDbEntity
  8
1
  6
DASHED
 62
     3
100
AcDbLine
 10
-61.34361209622539
 20
3.599539454411199
 30
0.0
 11
-64.3436120962254
 21
3.599539454411199
 31
0.0
  0
LINE
  5
13D
330
264
100
AcDbEntity
  8
1
  6
DASHED
 62
     3
100
AcDbLine
 10
-61.94361209622542
 20
7.999539454411197
 30
0.0
 11
-61.94361209622542
 21
2.999539454411198
 31
0.0
  0
LINE
  5
13E
330
264
100
AcDbEntity
  8
1
  6
DASHED
 62
     3
100
AcDbLine
 10
-63.74361209622532
 20
7.999539454411197
 30
0.0
 11
-63.74361209622532
 21
2.999539454411198
 31
0.0
  0
LINE
  5
13F
330
264
100
AcDbEntity
  8
1
  6
DASHED
 62
     3
100
AcDbLine
 10
-61.94361209622542
 20
7.999539454411197
 30
0.0
 11
-61.94361209622542
 21
8.954426388370784
 31
0.0
  0
LINE
  5
140
330
264
100
AcDbEntity
  8
1
  6
DASHED
 62
     3
100
AcDbLine
 10
-61.34361209622539
 20
7.699539454411201
 30
0.0
 11
-61.34361209622539
 21
8.873659129060632
 31
0.0
  0
LINE
  5
141
330
264
100
AcDbEntity
  8
1
  6
DASHED
 62
     3
100
AcDbLine
 10
-63.74361209622532
 20
8.954426388370784
 30
0.0
 11
-63.74361209622532
 21
7.999539454411197
 31
0.0
  0
LINE
  5
142
330
264
100
AcDbEntity
  8
1
  6
DASHED
 62
     3
100
AcDbLine
 10
-64.3436120962254
 20
8.873659129060632
 30
0.0
 11
-64.3436120962254
 21
7.699539454411201
 31
0.0
  0
LINE
  5
143
330
264
100
AcDbEntity
  8
1
  6
DASHED
 62
     3
100
AcDbLine
 10
-64.49361209622532
 20
4.71944411446526
 30
0.0
 11
-64.49361209622532
 21
2.505033417684709
 31
0.0
  0
LINE
  5
144
330
264
100
AcDbEntity
  8
1
  6
DASHED
 62
     3
100
AcDbLine
 10
-61.19361209622542
 20
2.505033417684709
 30
0.0
 11
-61.19361209622542
 21
4.71944411446526
 31
0.0
  0
LINE
  5
145
330
264
100
AcDbEntity
  8
1
  6
DASHED
 62
     3
100
AcDbLine
 10
-54.84361209622539
 20
-0.9808453033181088
 30
0.0
 11
-55.14361209622539
 21
-1.50046054558879
 31
0.0
  0
LINE
  5
146
330
264
100
AcDbEntity
  8
1
  6
DASHED
 62
     3
100
AcDbLine
 10
-55.14361209622539
 20
-1.50046054558879
 30
0.0
 11
-55.14361209622539
 21
1.499539454411209
 31
0.0
  0
LINE
  5
147
330
264
100
AcDbEntity
  8
1
  6
DASHED
 62
     3
100
AcDbLine
 10
-55.14361209622539
 20
1.499539454411209
 30
0.0
 11
-54.84361209622539
 21
0.9799242121405418
 31
0.0
  0
LINE
  5
148
330
264
100
AcDbEntity
  8
1
  6
DASHED
 62
     3
100
AcDbLine
 10
-54.84361209622539
 20
0.9799242121405418
 30
0.0
 11
-54.84361209622539
 21
-0.9808453033181088
 31
0.0
  0
LINE
  5
149
330
264
100
AcDbEntity
  8
1
  6
DASHED
 62
     3
100
AcDbLine
 10
-55.14361209622539
 20
-1.50046054558879
 30
0.0
 11
-59.24361209622531
 21
-1.50046054558879
 31
0.0
  0
LINE
  5
14A
330
264
100
AcDbEntity
  8
1
  6
DASHED
 62
     3
100
AcDbLine
 10
-59.24361209622531
 20
-1.50046054558879
 30
0.0
 11
-59.84361209622539
 21
-0.9004605455887892
 31
0.0
  0
LINE
  5
14B
330
264
100
AcDbEntity
  8
1
  6
DASHED
 62
     3
100
AcDbLine
 10
-59.84361209622539
 20
-0.9004605455887892
 30
0.0
 11
-59.84361209622539
 21
0.8995394544112221
 31
0.0
  0
LINE
  5
14C
330
264
100
AcDbEntity
  8
1
  6
DASHED
 62
     3
100
AcDbLine
 10
-59.84361209622539
 20
0.8995394544112221
 30
0.0
 11
-59.24361209622531
 21
1.499539454411209
 31
0.0
  0
LINE
  5
14D
330
264
100
AcDbEntity
  8
1
  6
DASHED
 62
     3
100
AcDbLine
 10
-59.24361209622531
 20
1.499539454411209
 30
0.0
 11
-55.14361209622539
 21
1.499539454411209
 31
0.0
  0
LINE
  5
14E
330
264
100
AcDbEntity
  8
1
  6
DASHED
 62
     3
100
AcDbLine
 10
-59.24361209622531
 20
-1.50046054558879
 30
0.0
 11
-59.24361209622531
 21
1.499539454411209
 31
0.0
  0
LINE
  5
14F
330
264
100
AcDbEntity
  8
1
  6
DASHED
 62
     3
100
AcDbLine
 10
-54.84361209622539
 20
-0.9004605455887892
 30
0.0
 11
-59.84361209622539
 21
-0.9004605455887892
 31
0.0
  0
LINE
  5
150
330
264
100
AcDbEntity
  8
1
  6
DASHED
 62
     3
100
AcDbLine
 10
-54.84361209622539
 20
0.8995394544112221
 30
0.0
 11
-59.84361209622539
 21
0.8995394544112221
 31
0.0
  0
LINE
  5
151
330
264
100
AcDbEntity
  8
1
  6
DASHED
 62
     3
100
AcDbLine
 10
-54.84361209622539
 20
-0.9004605455887892
 30
0.0
 11
-53.88872516226581
 21
-0.9004605455887892
 31
0.0
  0
LINE
  5
152
330
264
100
AcDbEntity
  8
1
  6
DASHED
 62
     3
100
AcDbLine
 10
-55.14361209622539
 20
-1.50046054558879
 30
0.0
 11
-53.96949242157604
 21
-1.50046054558879
 31
0.0
  0
LINE
  5
153
330
264
100
AcDbEntity
  8
1
  6
DASHED
 62
     3
100
AcDbLine
 10
-53.88872516226581
 20
0.8995394544112221
 30
0.0
 11
-54.84361209622539
 21
0.8995394544112221
 31
0.0
  0
LINE
  5
154
330
264
100
AcDbEntity
  8
1
  6
DASHED
 62
     3
100
AcDbLine
 10
-53.96949242157604
 20
1.499539454411209
 30
0.0
 11
-55.14361209622539
 21
1.499539454411209
 31
0.0
  0
LINE
  5
155
330
264
100
AcDbEntity
  8
1
  6
DASHED
 62
     3
100
AcDbLine
 10
-58.12370743617123
 20
1.649539454411222
 30
0.0
 11
-60.33811813295193
 21
1.649539454411222
 31
0.0
  0
LINE
  5
156
330
264
100
AcDbEntity
  8
1
  6
DASHED
 62
     3
100
AcDbLine
 10
-60.33811813295193
 20
-1.650460545588789
 30
0.0
 11
-58.12370743617123
 21
-1.650460545588789
 31
0.0
  0
LINE
  5
157
330
264
100
AcDbEntity
  8
1
  6
DASHED
 62
     3
100
AcDbLine
 10
-66.15756558459754
 20
23.51719691166884
 30
0.0
 11
-65.8436120962254
 21
21.28920831045497
 31
0.0
  0
LINE
  5
158
330
264
100
AcDbEntity
  8
1
  6
DASHED
 62
     3
100
AcDbLine
 10
-42.9062180287331
 20
8.046297671079784
 30
0.0
 11
-40.81974655655357
 21
8.888400275149749
 31
0.0
  0
LINE
  5
159
330
264
100
AcDbEntity
  8
1
  6
DASHED
 62
     3
100
AcDbLine
 10
-61.34361209622522
 20
19.96030896986992
 30
0.0
 11
-64.34361209622522
 21
19.96030896986991
 31
0.0
  0
LINE
  5
15A
330
264
100
AcDbEntity
  8
1
  6
DASHED
 62
     3
100
AcDbLine
 10
-63.74361209622532
 20
19.96030896986995
 30
0.0
 11
-64.34361209622522
 21
20.99953945441123
 31
0.0
  0
LINE
  5
15B
330
264
100
AcDbEntity
  8
1
  6
DASHED
 62
     3
100
AcDbLine
 10
-63.74361209622532
 20
13.49953945441122
 30
0.0
 11
-63.74361209622532
 21
19.96030896986995
 31
0.0
  0
LINE
  5
15C
330
264
100
AcDbEntity
  8
1
  6
DASHED
 62
     3
100
AcDbLine
 10
-61.9436120962253
 20
19.96030896986995
 30
0.0
 11
-61.34361209622522
 21
20.99953945441126
 31
0.0
  0
LINE
  5
15D
330
264
100
AcDbEntity
  8
1
  6
DASHED
 62
     3
100
AcDbLine
 10
-61.9436120962253
 20
13.49953945441126
 30
0.0
 11
-61.9436120962253
 21
19.96030896986995
 31
0.0
  0
LINE
  5
15E
330
264
100
AcDbEntity
  8
1
  6
DASHED
 62
     3
100
AcDbLine
 10
-61.34361209622522
 20
14.09953945441124
 30
0.0
 11
-64.34361209622522
 21
14.09953945441126
 31
0.0
  0
LINE
  5
15F
330
264
100
AcDbEntity
  8
1
  6
DASHED
 62
     3
100
AcDbLine
 10
-64.34361209622522
 20
14.09953945441126
 30
0.0
 11
-64.34361209622522
 21
21.49953945441124
 31
0.0
  0
LINE
  5
160
330
264
100
AcDbEntity
  8
1
  6
DASHED
 62
     3
100
AcDbLine
 10
-63.74361209622532
 20
13.49953945441122
 30
0.0
 11
-64.34361209622522
 21
14.09953945441126
 31
0.0
  0
LINE
  5
161
330
264
100
AcDbEntity
  8
1
  6
DASHED
 62
     3
100
AcDbLine
 10
-61.9436120962253
 20
13.49953945441126
 30
0.0
 11
-63.74361209622532
 21
13.49953945441122
 31
0.0
  0
LINE
  5
162
330
264
100
AcDbEntity
  8
1
  6
DASHED
 62
     3
100
AcDbLine
 10
-61.34361209622522
 20
14.09953945441124
 30
0.0
 11
-61.9436120962253
 21
13.49953945441126
 31
0.0
  0
LINE
  5
163
330
264
100
AcDbEntity
  8
1
  6
DASHED
 62
     3
100
AcDbLine
 10
-61.34361209622522
 20
21.49953945441127
 30
0.0
 11
-61.34361209622522
 21
14.09953945441124
 31
0.0
  0
LINE
  5
164
330
264
100
AcDbEntity
  8
1
  6
DASHED
 62
     3
100
AcDbLine
 10
-61.34361209622522
 20
23.64953945441123
 30
0.0
 11
-64.34361209622522
 21
23.64953945441127
 31
0.0
  0
LINE
  5
165
330
264
100
AcDbEntity
  8
1
  6
DASHED
 62
     3
100
AcDbLine
 10
-65.59361209622522
 20
21.49953945441124
 30
0.0
 11
-60.09361209622522
 21
21.49953945441127
 31
0.0
  0
LINE
  5
166
330
264
100
AcDbEntity
  8
1
  6
DASHED
 62
     3
100
AcDbLine
 10
-65.59361209622522
 20
21.89953945441127
 30
0.0
 11
-65.59361209622522
 21
21.49953945441124
 31
0.0
  0
LINE
  5
167
330
264
100
AcDbEntity
  8
1
  6
DASHED
 62
     3
100
AcDbLine
 10
-60.09361209622522
 20
21.89953945441123
 30
0.0
 11
-65.59361209622522
 21
21.89953945441127
 31
0.0
  0
LINE
  5
168
330
264
100
AcDbEntity
  8
1
  6
DASHED
 62
     3
100
AcDbLine
 10
-60.09361209622522
 20
21.49953945441127
 30
0.0
 11
-60.09361209622522
 21
21.89953945441123
 31
0.0
  0
LINE
  5
169
330
264
100
AcDbEntity
  8
1
  6
DASHED
 62
     3
100
AcDbLine
 10
-59.52965860785321
 20
-23.51811800284644
 30
0.0
 11
-59.84361209622539
 21
-21.29012940163258
 31
0.0
  0
LINE
  5
16A
330
264
100
AcDbEntity
  8
1
  6
DASHED
 62
     3
100
AcDbLine
 10
-82.78100616371762
 20
-8.047218762257381
 30
0.0
 11
-84.86747763589709
 21
-8.889321366327347
 31
0.0
  0
LINE
  5
16B
330
264
100
AcDbEntity
  8
1
  6
DASHED
 62
     3
100
AcDbLine
 10
-64.34361209622551
 20
-19.96123006104751
 30
0.0
 11
-61.34361209622551
 21
-19.96123006104748
 31
0.0
  0
LINE
  5
16C
330
264
100
AcDbEntity
  8
1
  6
DASHED
 62
     3
100
AcDbLine
 10
-61.94361209622542
 20
-19.96123006104752
 30
0.0
 11
-61.34361209622551
 21
-21.0004605455888
 31
0.0
  0
LINE
  5
16D
330
264
100
AcDbEntity
  8
1
  6
DASHED
 62
     3
100
AcDbLine
 10
-61.94361209622542
 20
-13.50046054558879
 30
0.0
 11
-61.94361209622542
 21
-19.96123006104752
 31
0.0
  0
LINE
  5
16E
330
264
100
AcDbEntity
  8
1
  6
DASHED
 62
     3
100
AcDbLine
 10
-63.74361209622543
 20
-19.96123006104751
 30
0.0
 11
-64.34361209622551
 21
-21.00046054558882
 31
0.0
  0
LINE
  5
16F
330
264
100
AcDbEntity
  8
1
  6
DASHED
 62
     3
100
AcDbLine
 10
-63.74361209622543
 20
-13.50046054558885
 30
0.0
 11
-63.74361209622543
 21
-19.96123006104751
 31
0.0
  0
LINE
  5
170
330
264
100
AcDbEntity
  8
1
  6
DASHED
 62
     3
100
AcDbLine
 10
-64.34361209622551
 20
-14.1004605455888
 30
0.0
 11
-61.34361209622551
 21
-14.10046054558883
 31
0.0
  0
LINE
  5
171
330
264
100
AcDbEntity
  8
1
  6
DASHED
 62
     3
100
AcDbLine
 10
-61.34361209622551
 20
-14.10046054558883
 30
0.0
 11
-61.34361209622551
 21
-21.50046054558879
 31
0.0
  0
LINE
  5
172
330
264
100
AcDbEntity
  8
1
  6
DASHED
 62
     3
100
AcDbLine
 10
-61.94361209622542
 20
-13.50046054558879
 30
0.0
 11
-61.34361209622551
 21
-14.10046054558883
 31
0.0
  0
LINE
  5
173
330
264
100
AcDbEntity
  8
1
  6
DASHED
 62
     3
100
AcDbLine
 10
-63.74361209622543
 20
-13.50046054558885
 30
0.0
 11
-61.94361209622542
 21
-13.50046054558879
 31
0.0
  0
LINE
  5
174
330
264
100
AcDbEntity
  8
1
  6
DASHED
 62
     3
100
AcDbLine
 10
-64.34361209622551
 20
-14.1004605455888
 30
0.0
 11
-63.74361209622543
 21
-13.50046054558885
 31
0.0
  0
LINE
  5
175
330
264
100
AcDbEntity
  8
1
  6
DASHED
 62
     3
100
AcDbLine
 10
-64.34361209622551
 20
-21.50046054558882
 30
0.0
 11
-64.34361209622551
 21
-14.1004605455888
 31
0.0
  0
LINE
  5
176
330
264
100
AcDbEntity
  8
1
  6
DASHED
 62
     3
100
AcDbLine
 10
-64.34361209622551
 20
-23.6504605455888
 30
0.0
 11
-61.34361209622551
 21
-23.65046054558882
 31
0.0
  0
LINE
  5
177
330
264
100
AcDbEntity
  8
1
  6
DASHED
 62
     3
100
AcDbLine
 10
-60.09361209622551
 20
-21.50046054558879
 30
0.0
 11
-65.59361209622551
 21
-21.50046054558882
 31
0.0
  0
LINE
  5
178
330
264
100
AcDbEntity
  8
1
  6
DASHED
 62
     3
100
AcDbLine
 10
-60.09361209622551
 20
-21.90046054558882
 30
0.0
 11
-60.09361209622551
 21
-21.50046054558879
 31
0.0
  0
LINE
  5
179
330
264
100
AcDbEntity
  8
1
  6
DASHED
 62
     3
100
AcDbLine
 10
-65.59361209622551
 20
-21.9004605455888
 30
0.0
 11
-60.09361209622551
 21
-21.90046054558882
 31
0.0
  0
LINE
  5
17A
330
264
100
AcDbEntity
  8
1
  6
DASHED
 62
     3
100
AcDbLine
 10
-65.59361209622551
 20
-21.50046054558882
 30
0.0
 11
-65.59361209622551
 21
-21.9004605455888
 31
0.0
  0
LINE
  5
17B
330
264
100
AcDbEntity
  8
1
 62
     7
100
AcDbLine
 10
104.1932616002797
 20
5.000016172993483
 30
0.0
 11
104.1932616002797
 21
-22.89686749721112
 31
0.0
  0
LINE
  5
17C
330
264
100
AcDbEntity
  8
1
 62
     7
100
AcDbLine
 10
104.1932616002797
 20
-22.89686749721112
 30
0.0
 11
98.19326160027969
 21
-22.89686749721112
 31
0.0
  0
LINE
  5
17D
330
264
100
AcDbEntity
  8
1
 62
     7
100
AcDbLine
 10
98.19326160027969
 20
-22.89686749721112
 30
0.0
 11
98.19326160027969
 21
5.000016172993483
 31
0.0
  0
LINE
  5
17E
330
264
100
AcDbEntity
  8
1
 62
     7
100
AcDbLine
 10
98.19326160027969
 20
5.000016172993483
 30
0.0
 11
104.1932616002797
 21
5.000016172993483
 31
0.0
  0
LINE
  5
17F
330
264
100
AcDbEntity
  8
1
 62
     7
100
AcDbLine
 10
100.1932616002797
 20
0.0000161729934796
 30
0.0
 11
98.19326160027969
 21
0.0000161729934796
 31
0.0
  0
LINE
  5
180
330
264
100
AcDbEntity
  8
1
 62
     7
100
AcDbLine
 10
93.6932616002797
 20
-9.000348017261547
 30
0.0
 11
87.6932616002797
 21
-9.000348017261547
 31
0.0
  0
LINE
  5
181
330
264
100
AcDbEntity
  8
1
 62
     7
100
AcDbLine
 10
87.6932616002797
 20
-9.000348017261547
 30
0.0
 11
87.6932616002797
 21
8.999651982738447
 31
0.0
  0
LINE
  5
182
330
264
100
AcDbEntity
  8
1
 62
     7
100
AcDbLine
 10
93.6932616002797
 20
4.999651982738448
 30
0.0
 11
94.6932616002797
 21
4.999651982738448
 31
0.0
  0
LINE
  5
183
330
264
100
AcDbEntity
  8
1
 62
     7
100
AcDbLine
 10
94.6932616002797
 20
-5.000293589508017
 30
0.0
 11
93.6932616002797
 21
-5.000293589508017
 31
0.0
  0
LINE
  5
184
330
264
100
AcDbEntity
  8
1
 62
     7
100
AcDbLine
 10
-39.09887583742483
 20
0.4995394544112024
 30
0.0
 11
-39.5936120962254
 21
0.4995394544112024
 31
0.0
  0
LINE
  5
185
330
264
100
AcDbEntity
  8
1
 62
     7
100
AcDbLine
 10
-39.5936120962254
 20
0.4995394544112024
 30
0.0
 11
-39.5936120962254
 21
-0.5004605455887976
 31
0.0
  0
LINE
  5
186
330
264
100
AcDbEntity
  8
1
 62
     7
100
AcDbLine
 10
-39.5936120962254
 20
-0.5004605455887976
 30
0.0
 11
-39.09887583742483
 21
-0.5004605455887976
 31
0.0
  0
LINE
  5
187
330
264
100
AcDbEntity
  8
1
 62
     7
100
AcDbLine
 10
93.6932616002797
 20
8.999651982738447
 30
0.0
 11
93.6932616002797
 21
-9.000348017261547
 31
0.0
  0
LINE
  5
188
330
264
100
AcDbEntity
  8
1
  6
DASHDOT
 62
     3
100
AcDbLine
 10
92.45904859869854
 20
0.0
 30
0.0
 11
88.92747460186082
 21
0.0
 31
0.0
  0
LINE
  5
189
330
264
100
AcDbEntity
  8
1
  6
DASHDOT
 62
     3
100
AcDbLine
 10
90.69326160027969
 20
1.765786998418847
 30
0.0
 11
90.69326160027969
 21
-1.765786998418847
 31
0.0
  0
LINE
  5
18A
330
264
100
AcDbEntity
  8
1
 62
     7
100
AcDbLine
 10
87.6932616002797
 20
8.999651982738447
 30
0.0
 11
89.19326160027969
 21
8.999651982738447
 31
0.0
  0
LINE
  5
18B
330
264
100
AcDbEntity
  8
1
 62
     7
100
AcDbLine
 10
92.1932616002797
 20
8.999651982738447
 30
0.0
 11
93.6932616002797
 21
8.999651982738447
 31
0.0
  0
LINE
  5
18C
330
264
100
AcDbEntity
  8
1
 62
     3
100
AcDbLine
 10
94.6932616002797
 20
-23.67222204489589
 30
0.0
 11
97.19326160027964
 21
-23.67222204489589
 31
0.0
  0
LINE
  5
18D
330
264
100
AcDbEntity
  8
1
 62
     3
100
AcDbLine
 10
94.6932616002797
 20
-23.17222204489589
 30
0.0
 11
97.19326160027964
 21
-23.17222204489589
 31
0.0
  0
LINE
  5
18E
330
264
100
AcDbEntity
  8
1
 62
     3
100
AcDbLine
 10
94.6932616002797
 20
-22.67222204489589
 30
0.0
 11
97.19326160027964
 21
-22.67222204489589
 31
0.0
  0
LINE
  5
18F
330
264
100
AcDbEntity
  8
1
 62
     3
100
AcDbLine
 10
94.6932616002797
 20
-22.17222204489589
 30
0.0
 11
97.19326160027964
 21
-22.17222204489589
 31
0.0
  0
LINE
  5
190
330
264
100
AcDbEntity
  8
1
 62
     3
100
AcDbLine
 10
94.6932616002797
 20
-21.67222204489589
 30
0.0
 11
97.19326160027964
 21
-21.67222204489589
 31
0.0
  0
LINE
  5
191
330
264
100
AcDbEntity
  8
1
 62
     3
100
AcDbLine
 10
94.6932616002797
 20
-21.17222204489589
 30
0.0
 11
97.19326160027964
 21
-21.17222204489589
 31
0.0
  0
LINE
  5
192
330
264
100
AcDbEntity
  8
1
 62
     3
100
AcDbLine
 10
94.6932616002797
 20
-20.67222204489588
 30
0.0
 11
97.19326160027964
 21
-20.67222204489588
 31
0.0
  0
LINE
  5
193
330
264
100
AcDbEntity
  8
1
 62
     3
100
AcDbLine
 10
94.6932616002797
 20
-20.17222204489589
 30
0.0
 11
97.19326160027964
 21
-20.17222204489589
 31
0.0
  0
LINE
  5
194
330
264
100
AcDbEntity
  8
1
 62
     3
100
AcDbLine
 10
94.6932616002797
 20
-19.67222204489588
 30
0.0
 11
97.19326160027964
 21
-19.67222204489588
 31
0.0
  0
LINE
  5
195
330
264
100
AcDbEntity
  8
1
 62
     3
100
AcDbLine
 10
94.6932616002797
 20
-19.17222204489588
 30
0.0
 11
97.19326160027964
 21
-19.17222204489588
 31
0.0
  0
LINE
  5
196
330
264
100
AcDbEntity
  8
1
 62
     3
100
AcDbLine
 10
94.6932616002797
 20
-18.67222204489588
 30
0.0
 11
97.19326160027964
 21
-18.67222204489588
 31
0.0
  0
LINE
  5
197
330
264
100
AcDbEntity
  8
1
 62
     3
100
AcDbLine
 10
94.6932616002797
 20
-18.17222204489588
 30
0.0
 11
97.19326160027964
 21
-18.17222204489588
 31
0.0
  0
LINE
  5
198
330
264
100
AcDbEntity
  8
1
 62
     3
100
AcDbLine
 10
94.6932616002797
 20
-17.67222204489588
 30
0.0
 11
97.19326160027964
 21
-17.67222204489588
 31
0.0
  0
LINE
  5
199
330
264
100
AcDbEntity
  8
1
 62
     3
100
AcDbLine
 10
94.6932616002797
 20
-17.17222204489588
 30
0.0
 11
97.19326160027964
 21
-17.17222204489588
 31
0.0
  0
LINE
  5
19A
330
264
100
AcDbEntity
  8
1
 62
     3
100
AcDbLine
 10
94.6932616002797
 20
-16.67222204489588
 30
0.0
 11
97.19326160027964
 21
-16.67222204489588
 31
0.0
  0
LINE
  5
19B
330
264
100
AcDbEntity
  8
1
 62
     3
100
AcDbLine
 10
94.6932616002797
 20
-16.17222204489588
 30
0.0
 11
97.19326160027964
 21
-16.17222204489588
 31
0.0
  0
LINE
  5
19C
330
264
100
AcDbEntity
  8
1
 62
     3
100
AcDbLine
 10
94.6932616002797
 20
-15.67222204489588
 30
0.0
 11
97.19326160027964
 21
-15.67222204489588
 31
0.0
  0
LINE
  5
19D
330
264
100
AcDbEntity
  8
1
 62
     3
100
AcDbLine
 10
94.6932616002797
 20
-15.17222204489589
 30
0.0
 11
97.19326160027964
 21
-15.17222204489589
 31
0.0
  0
LINE
  5
19E
330
264
100
AcDbEntity
  8
1
 62
     3
100
AcDbLine
 10
94.6932616002797
 20
-14.67222204489589
 30
0.0
 11
97.19326160027964
 21
-14.67222204489589
 31
0.0
  0
LINE
  5
19F
330
264
100
AcDbEntity
  8
1
 62
     3
100
AcDbLine
 10
94.6932616002797
 20
-14.17222204489589
 30
0.0
 11
97.19326160027964
 21
-14.17222204489589
 31
0.0
  0
LINE
  5
1A0
330
264
100
AcDbEntity
  8
1
 62
     3
100
AcDbLine
 10
94.6932616002797
 20
-13.67222204489588
 30
0.0
 11
97.19326160027964
 21
-13.67222204489588
 31
0.0
  0
LINE
  5
1A1
330
264
100
AcDbEntity
  8
1
 62
     3
100
AcDbLine
 10
94.6932616002797
 20
-13.17222204489588
 30
0.0
 11
97.19326160027964
 21
-13.17222204489588
 31
0.0
  0
LINE
  5
1A2
330
264
100
AcDbEntity
  8
1
 62
     3
100
AcDbLine
 10
94.6932616002797
 20
-12.67222204489589
 30
0.0
 11
97.19326160027964
 21
-12.67222204489589
 31
0.0
  0
LINE
  5
1A3
330
264
100
AcDbEntity
  8
1
 62
     3
100
AcDbLine
 10
94.6932616002797
 20
-12.17222204489589
 30
0.0
 11
97.19326160027964
 21
-12.17222204489589
 31
0.0
  0
LINE
  5
1A4
330
264
100
AcDbEntity
  8
1
 62
     3
100
AcDbLine
 10
94.6932616002797
 20
-11.67222204489589
 30
0.0
 11
97.19326160027964
 21
-11.67222204489589
 31
0.0
  0
LINE
  5
1A5
330
264
100
AcDbEntity
  8
1
 62
     3
100
AcDbLine
 10
94.6932616002797
 20
-11.17222204489588
 30
0.0
 11
97.19326160027964
 21
-11.17222204489588
 31
0.0
  0
LINE
  5
1A6
330
264
100
AcDbEntity
  8
1
 62
     3
100
AcDbLine
 10
94.6932616002797
 20
-10.67222204489588
 30
0.0
 11
97.19326160027964
 21
-10.67222204489588
 31
0.0
  0
LINE
  5
1A7
330
264
100
AcDbEntity
  8
1
 62
     3
100
AcDbLine
 10
94.6932616002797
 20
-10.17222204489588
 30
0.0
 11
97.19326160027964
 21
-10.17222204489588
 31
0.0
  0
LINE
  5
1A8
330
264
100
AcDbEntity
  8
1
 62
     3
100
AcDbLine
 10
94.6932616002797
 20
-9.672222044895883
 30
0.0
 11
97.19326160027964
 21
-9.672222044895883
 31
0.0
  0
LINE
  5
1A9
330
264
100
AcDbEntity
  8
1
 62
     3
100
AcDbLine
 10
94.6932616002797
 20
-9.172222044895883
 30
0.0
 11
97.19326160027964
 21
-9.172222044895883
 31
0.0
  0
LINE
  5
1AA
330
264
100
AcDbEntity
  8
1
 62
     3
100
AcDbLine
 10
94.6932616002797
 20
-8.672222044895889
 30
0.0
 11
97.19326160027964
 21
-8.672222044895889
 31
0.0
  0
LINE
  5
1AB
330
264
100
AcDbEntity
  8
1
 62
     3
100
AcDbLine
 10
94.6932616002797
 20
-8.172222044895889
 30
0.0
 11
97.19326160027964
 21
-8.172222044895889
 31
0.0
  0
LINE
  5
1AC
330
264
100
AcDbEntity
  8
1
 62
     3
100
AcDbLine
 10
94.6932616002797
 20
-7.672222044895888
 30
0.0
 11
97.19326160027964
 21
-7.672222044895888
 31
0.0
  0
LINE
  5
1AD
330
264
100
AcDbEntity
  8
1
 62
     3
100
AcDbLine
 10
94.6932616002797
 20
-7.172222044895888
 30
0.0
 11
97.19326160027964
 21
-7.172222044895888
 31
0.0
  0
LINE
  5
1AE
330
264
100
AcDbEntity
  8
1
 62
     3
100
AcDbLine
 10
94.6932616002797
 20
-6.672222044895888
 30
0.0
 11
97.19326160027964
 21
-6.672222044895888
 31
0.0
  0
LINE
  5
1AF
330
264
100
AcDbEntity
  8
1
 62
     3
100
AcDbLine
 10
94.6932616002797
 20
-6.172222044895888
 30
0.0
 11
97.19326160027964
 21
-6.172222044895888
 31
0.0
  0
LINE
  5
1B0
330
264
100
AcDbEntity
  8
1
 62
     3
100
AcDbLine
 10
94.6932616002797
 20
-5.672222044895888
 30
0.0
 11
97.19326160027964
 21
-5.672222044895888
 31
0.0
  0
LINE
  5
1B1
330
264
100
AcDbEntity
  8
1
 62
     3
100
AcDbLine
 10
94.6932616002797
 20
-5.172222044895888
 30
0.0
 11
97.19326160027964
 21
-5.172222044895888
 31
0.0
  0
LINE
  5
1B2
330
264
100
AcDbEntity
  8
1
 62
     3
100
AcDbLine
 10
94.6932616002797
 20
-4.672222044895888
 30
0.0
 11
97.19326160027964
 21
-4.672222044895888
 31
0.0
  0
LINE
  5
1B3
330
264
100
AcDbEntity
  8
1
 62
     3
100
AcDbLine
 10
94.6932616002797
 20
-4.172222044895888
 30
0.0
 11
97.19326160027964
 21
-4.172222044895888
 31
0.0
  0
LINE
  5
1B4
330
264
100
AcDbEntity
  8
1
 62
     3
100
AcDbLine
 10
94.6932616002797
 20
-3.672222044895887
 30
0.0
 11
97.19326160027964
 21
-3.672222044895887
 31
0.0
  0
LINE
  5
1B5
330
264
100
AcDbEntity
  8
1
 62
     3
100
AcDbLine
 10
94.6932616002797
 20
-3.172222044895887
 30
0.0
 11
97.19326160027964
 21
-3.172222044895887
 31
0.0
  0
LINE
  5
1B6
330
264
100
AcDbEntity
  8
1
 62
     3
100
AcDbLine
 10
94.6932616002797
 20
-2.672222044895888
 30
0.0
 11
97.19326160027964
 21
-2.672222044895888
 31
0.0
  0
LINE
  5
1B7
330
264
100
AcDbEntity
  8
1
 62
     3
100
AcDbLine
 10
94.6932616002797
 20
-2.172222044895888
 30
0.0
 11
97.19326160027964
 21
-2.172222044895888
 31
0.0
  0
LINE
  5
1B8
330
264
100
AcDbEntity
  8
1
 62
     3
100
AcDbLine
 10
94.6932616002797
 20
-1.672222044895889
 30
0.0
 11
97.19326160027964
 21
-1.672222044895889
 31
0.0
  0
LINE
  5
1B9
330
264
100
AcDbEntity
  8
1
 62
     3
100
AcDbLine
 10
94.6932616002797
 20
-1.172222044895889
 30
0.0
 11
97.19326160027964
 21
-1.172222044895889
 31
0.0
  0
LINE
  5
1BA
330
264
100
AcDbEntity
  8
1
 62
     3
100
AcDbLine
 10
94.6932616002797
 20
-0.6722220448958895
 30
0.0
 11
97.19326160027964
 21
-0.6722220448958895
 31
0.0
  0
LINE
  5
1BB
330
264
100
AcDbEntity
  8
1
 62
     3
100
AcDbLine
 10
94.69326160027979
 20
0.8277779551041104
 30
0.0
 11
97.19326160027979
 21
0.8277779551041104
 31
0.0
  0
LINE
  5
1BC
330
264
100
AcDbEntity
  8
1
 62
     3
100
AcDbLine
 10
94.69326160027979
 20
1.32777795510411
 30
0.0
 11
97.19326160027979
 21
1.32777795510411
 31
0.0
  0
LINE
  5
1BD
330
264
100
AcDbEntity
  8
1
 62
     3
100
AcDbLine
 10
94.69326160027979
 20
1.82777795510411
 30
0.0
 11
97.19326160027979
 21
1.82777795510411
 31
0.0
  0
LINE
  5
1BE
330
264
100
AcDbEntity
  8
1
 62
     3
100
AcDbLine
 10
94.69326160027979
 20
2.327777955104109
 30
0.0
 11
97.19326160027979
 21
2.327777955104109
 31
0.0
  0
LINE
  5
1BF
330
264
100
AcDbEntity
  8
1
 62
     3
100
AcDbLine
 10
94.69326160027979
 20
2.827777955104111
 30
0.0
 11
97.19326160027979
 21
2.827777955104111
 31
0.0
  0
LINE
  5
1C0
330
264
100
AcDbEntity
  8
1
 62
     3
100
AcDbLine
 10
94.69326160027979
 20
3.327777955104111
 30
0.0
 11
97.19326160027979
 21
3.327777955104111
 31
0.0
  0
LINE
  5
1C1
330
264
100
AcDbEntity
  8
1
 62
     3
100
AcDbLine
 10
94.69326160027979
 20
3.827777955104111
 30
0.0
 11
97.19326160027979
 21
3.827777955104111
 31
0.0
  0
LINE
  5
1C2
330
264
100
AcDbEntity
  8
1
 62
     3
100
AcDbLine
 10
94.69326160027979
 20
4.327777955104111
 30
0.0
 11
97.19326160027979
 21
4.327777955104111
 31
0.0
  0
LINE
  5
1C3
330
264
100
AcDbEntity
  8
1
 62
     3
100
AcDbLine
 10
94.69326160027979
 20
4.827777955104111
 30
0.0
 11
97.19326160027979
 21
4.827777955104111
 31
0.0
  0
LINE
  5
1C4
330
264
100
AcDbEntity
  8
1
 62
     3
100
AcDbLine
 10
94.69326160027979
 20
5.327777955104111
 30
0.0
 11
97.19326160027979
 21
5.327777955104111
 31
0.0
  0
LINE
  5
1C5
330
264
100
AcDbEntity
  8
1
 62
     3
100
AcDbLine
 10
94.69326160027979
 20
5.827777955104111
 30
0.0
 11
97.19326160027979
 21
5.827777955104111
 31
0.0
  0
LINE
  5
1C6
330
264
100
AcDbEntity
  8
1
 62
     3
100
AcDbLine
 10
94.69326160027979
 20
6.327777955104111
 30
0.0
 11
97.19326160027979
 21
6.327777955104111
 31
0.0
  0
LINE
  5
1C7
330
264
100
AcDbEntity
  8
1
 62
     3
100
AcDbLine
 10
94.69326160027979
 20
6.827777955104111
 30
0.0
 11
97.19326160027979
 21
6.827777955104111
 31
0.0
  0
LINE
  5
1C8
330
264
100
AcDbEntity
  8
1
 62
     3
100
AcDbLine
 10
94.69326160027979
 20
7.32777795510411
 30
0.0
 11
97.19326160027979
 21
7.32777795510411
 31
0.0
  0
LINE
  5
1C9
330
264
100
AcDbEntity
  8
1
 62
     3
100
AcDbLine
 10
94.69326160027979
 20
7.82777795510411
 30
0.0
 11
97.19326160027979
 21
7.82777795510411
 31
0.0
  0
LINE
  5
1CA
330
264
100
AcDbEntity
  8
1
 62
     3
100
AcDbLine
 10
94.69326160027979
 20
8.32777795510411
 30
0.0
 11
97.19326160027979
 21
8.32777795510411
 31
0.0
  0
LINE
  5
1CB
330
264
100
AcDbEntity
  8
1
 62
     3
100
AcDbLine
 10
94.69326160027979
 20
8.82777795510411
 30
0.0
 11
97.19326160027979
 21
8.82777795510411
 31
0.0
  0
LINE
  5
1CC
330
264
100
AcDbEntity
  8
1
 62
     3
100
AcDbLine
 10
94.69326160027979
 20
9.327777955104114
 30
0.0
 11
97.19326160027979
 21
9.327777955104114
 31
0.0
  0
LINE
  5
1CD
330
264
100
AcDbEntity
  8
1
 62
     3
100
AcDbLine
 10
94.69326160027979
 20
9.827777955104114
 30
0.0
 11
97.19326160027979
 21
9.827777955104114
 31
0.0
  0
LINE
  5
1CE
330
264
100
AcDbEntity
  8
1
 62
     3
100
AcDbLine
 10
94.69326160027979
 20
10.3277779551041
 30
0.0
 11
97.19326160027979
 21
10.3277779551041
 31
0.0
  0
LINE
  5
1CF
330
264
100
AcDbEntity
  8
1
 62
     3
100
AcDbLine
 10
94.69326160027979
 20
10.82777795510411
 30
0.0
 11
97.19326160027979
 21
10.82777795510411
 31
0.0
  0
LINE
  5
1D0
330
264
100
AcDbEntity
  8
1
 62
     3
100
AcDbLine
 10
94.69326160027979
 20
11.32777795510411
 30
0.0
 11
97.19326160027979
 21
11.32777795510411
 31
0.0
  0
LINE
  5
1D1
330
264
100
AcDbEntity
  8
1
 62
     3
100
AcDbLine
 10
94.69326160027979
 20
11.82777795510411
 30
0.0
 11
97.19326160027979
 21
11.82777795510411
 31
0.0
  0
LINE
  5
1D2
330
264
100
AcDbEntity
  8
1
 62
     3
100
AcDbLine
 10
94.69326160027979
 20
12.32777795510411
 30
0.0
 11
97.19326160027979
 21
12.32777795510411
 31
0.0
  0
LINE
  5
1D3
330
264
100
AcDbEntity
  8
1
 62
     3
100
AcDbLine
 10
94.69326160027979
 20
12.82777795510411
 30
0.0
 11
97.19326160027979
 21
12.82777795510411
 31
0.0
  0
LINE
  5
1D4
330
264
100
AcDbEntity
  8
1
 62
     3
100
AcDbLine
 10
94.69326160027979
 20
13.32777795510411
 30
0.0
 11
97.19326160027979
 21
13.32777795510411
 31
0.0
  0
LINE
  5
1D5
330
264
100
AcDbEntity
  8
1
 62
     3
100
AcDbLine
 10
94.69326160027979
 20
13.82777795510411
 30
0.0
 11
97.19326160027979
 21
13.82777795510411
 31
0.0
  0
LINE
  5
1D6
330
264
100
AcDbEntity
  8
1
 62
     3
100
AcDbLine
 10
94.69326160027979
 20
14.32777795510411
 30
0.0
 11
97.19326160027979
 21
14.32777795510411
 31
0.0
  0
LINE
  5
1D7
330
264
100
AcDbEntity
  8
1
 62
     3
100
AcDbLine
 10
94.69326160027979
 20
14.82777795510411
 30
0.0
 11
97.19326160027979
 21
14.82777795510411
 31
0.0
  0
LINE
  5
1D8
330
264
100
AcDbEntity
  8
1
 62
     3
100
AcDbLine
 10
94.69326160027979
 20
15.32777795510411
 30
0.0
 11
97.19326160027979
 21
15.32777795510411
 31
0.0
  0
LINE
  5
1D9
330
264
100
AcDbEntity
  8
1
 62
     3
100
AcDbLine
 10
94.69326160027979
 20
15.82777795510411
 30
0.0
 11
97.19326160027979
 21
15.82777795510411
 31
0.0
  0
LINE
  5
1DA
330
264
100
AcDbEntity
  8
1
 62
     3
100
AcDbLine
 10
94.69326160027979
 20
16.32777795510411
 30
0.0
 11
97.19326160027979
 21
16.32777795510411
 31
0.0
  0
LINE
  5
1DB
330
264
100
AcDbEntity
  8
1
 62
     3
100
AcDbLine
 10
94.69326160027979
 20
16.82777795510411
 30
0.0
 11
97.19326160027979
 21
16.82777795510411
 31
0.0
  0
LINE
  5
1DC
330
264
100
AcDbEntity
  8
1
 62
     3
100
AcDbLine
 10
94.69326160027979
 20
17.32777795510411
 30
0.0
 11
97.19326160027979
 21
17.32777795510411
 31
0.0
  0
LINE
  5
1DD
330
264
100
AcDbEntity
  8
1
 62
     3
100
AcDbLine
 10
94.69326160027979
 20
17.82777795510411
 30
0.0
 11
97.19326160027979
 21
17.82777795510411
 31
0.0
  0
LINE
  5
1DE
330
264
100
AcDbEntity
  8
1
 62
     3
100
AcDbLine
 10
94.69326160027979
 20
18.32777795510411
 30
0.0
 11
97.19326160027979
 21
18.32777795510411
 31
0.0
  0
LINE
  5
1DF
330
264
100
AcDbEntity
  8
1
 62
     3
100
AcDbLine
 10
94.69326160027979
 20
18.82777795510411
 30
0.0
 11
97.19326160027979
 21
18.82777795510411
 31
0.0
  0
LINE
  5
1E0
330
264
100
AcDbEntity
  8
1
 62
     3
100
AcDbLine
 10
94.69326160027979
 20
19.32777795510411
 30
0.0
 11
97.19326160027979
 21
19.32777795510411
 31
0.0
  0
LINE
  5
1E1
330
264
100
AcDbEntity
  8
1
 62
     3
100
AcDbLine
 10
94.69326160027979
 20
19.82777795510411
 30
0.0
 11
97.19326160027979
 21
19.82777795510411
 31
0.0
  0
LINE
  5
1E2
330
264
100
AcDbEntity
  8
1
 62
     3
100
AcDbLine
 10
94.69326160027979
 20
20.32777795510412
 30
0.0
 11
97.19326160027979
 21
20.32777795510412
 31
0.0
  0
LINE
  5
1E3
330
264
100
AcDbEntity
  8
1
 62
     3
100
AcDbLine
 10
94.69326160027979
 20
20.8277779551041
 30
0.0
 11
97.19326160027979
 21
20.8277779551041
 31
0.0
  0
LINE
  5
1E4
330
264
100
AcDbEntity
  8
1
 62
     3
100
AcDbLine
 10
94.69326160027979
 20
21.32777795510412
 30
0.0
 11
97.19326160027979
 21
21.32777795510412
 31
0.0
  0
LINE
  5
1E5
330
264
100
AcDbEntity
  8
1
 62
     3
100
AcDbLine
 10
94.69326160027979
 20
21.82777795510411
 30
0.0
 11
97.19326160027979
 21
21.82777795510411
 31
0.0
  0
LINE
  5
1E6
330
264
100
AcDbEntity
  8
1
 62
     3
100
AcDbLine
 10
94.69326160027979
 20
22.3277779551041
 30
0.0
 11
97.19326160027979
 21
22.3277779551041
 31
0.0
  0
LINE
  5
1E7
330
264
100
AcDbEntity
  8
1
 62
     3
100
AcDbLine
 10
94.69326160027979
 20
22.8277779551041
 30
0.0
 11
97.19326160027979
 21
22.8277779551041
 31
0.0
  0
LINE
  5
1E8
330
264
100
AcDbEntity
  8
1
 62
     3
100
AcDbLine
 10
94.69326160027979
 20
23.3277779551041
 30
0.0
 11
97.19326160027979
 21
23.3277779551041
 31
0.0
  0
ARC
  5
1E9
330
264
100
AcDbEntity
  8
1
  6
DASHDOT
 62
     3
100
AcDbCircle
 10
-62.84361209622539
 20
-0.0004605455887976
 30
0.0
 40
16.00000000000009
100
AcDbArc
 50
290.6604099632052
 51
309.339590036795
  0
ARC
  5
1EA
330
264
100
AcDbEntity
  8
1
  6
DASHDOT
 62
     3
100
AcDbCircle
 10
-62.84361209622539
 20
-0.0004605455887976
 30
0.0
 40
15.99999999999997
100
AcDbArc
 50
170.6604099632054
 51
189.339590036795
  0
ARC
  5
1EB
330
264
100
AcDbEntity
  8
1
  6
DASHDOT
 62
     3
100
AcDbCircle
 10
-62.84361209622539
 20
-0.0004605455887976
 30
0.0
 40
16.00000000000004
100
AcDbArc
 50
50.66040996320523
 51
69.33959003679522
  0
ARC
  5
1EC
330
264
100
AcDbEntity
  8
1
 62
     7
100
AcDbCircle
 10
101.5392630352387
 20
21.14724268794218
 30
0.0
 40
2.99999999999998
100
AcDbArc
 50
14.53385610839349
 51
56.54149947555599
  0
ARC
  5
1ED
330
264
100
AcDbEntity
  8
1
 62
     7
100
AcDbCircle
 10
101.8472601653209
 20
21.14724268794218
 30
0.0
 40
3.000000000000003
100
AcDbArc
 50
123.4585005244442
 51
165.4661438916065
  0
ARC
  5
1EE
330
264
100
AcDbEntity
  8
1
 62
     7
100
AcDbCircle
 10
101.6932616002797
 20
11.79539267055949
 30
0.0
 40
2.999999999999985
100
AcDbArc
 50
180.0
 51
0.0
  0
ARC
  5
1EF
330
264
100
AcDbEntity
  8
1
 62
     7
100
AcDbCircle
 10
101.6932616002797
 20
10.94419827909021
 30
0.0
 40
1.699999999999918
100
AcDbArc
 50
180.0
 51
0.0
  0
ARC
  5
1F0
330
264
100
AcDbEntity
  8
1
 62
     7
100
AcDbCircle
 10
14.15399856504097
 20
-21.14760442770228
 30
0.0
 40
2.999999999999872
100
AcDbArc
 50
194.533856108394
 51
236.5414994755576
  0
ARC
  5
1F1
330
264
100
AcDbEntity
  8
1
 62
     7
100
AcDbCircle
 10
13.84600143495891
 20
-21.14760442770228
 30
0.0
 40
2.999999999999995
100
AcDbArc
 50
303.4585005244439
 51
345.4661438916066
  0
ARC
  5
1F2
330
264
100
AcDbEntity
  8
1
 62
     7
100
AcDbCircle
 10
32.65399856504121
 20
21.14668333652468
 30
0.0
 40
3.0
100
AcDbArc
 50
123.4585005244442
 51
165.4661438916066
  0
ARC
  5
1F3
330
264
100
AcDbEntity
  8
1
 62
     7
100
AcDbCircle
 10
32.34600143495895
 20
21.14668333652468
 30
0.0
 40
3.000000000000036
100
AcDbArc
 50
14.53385610839323
 51
56.54149947555509
  0
ARC
  5
1F4
330
264
100
AcDbEntity
  8
1
 62
     7
100
AcDbCircle
 10
14.15399856504097
 20
21.14668333652468
 30
0.0
 40
2.999999999999932
100
AcDbArc
 50
123.4585005244422
 51
165.466143891606
  0
ARC
  5
1F5
330
264
100
AcDbEntity
  8
1
 62
     7
100
AcDbCircle
 10
13.84600143495891
 20
21.14668333652468
 30
0.0
 40
2.999999999999979
100
AcDbArc
 50
14.53385610839351
 51
56.54149947555602
  0
ARC
  5
1F6
330
264
100
AcDbEntity
  8
1
 62
     7
100
AcDbCircle
 10
-65.77766982118288
 20
-10.17147267390734
 30
0.0
 40
2.872948469370023
100
AcDbArc
 50
123.6440977051218
 51
130.3608873812262
  0
ARC
  5
1F7
330
264
100
AcDbEntity
  8
1
 62
     7
100
AcDbCircle
 10
-62.84361209622539
 20
-0.6879605455887905
 30
0.0
 40
9.687500000000227
100
AcDbArc
 50
311.2647618018649
 51
228.7352381981352
  0
ARC
  5
1F8
330
264
100
AcDbEntity
  8
1
 62
     7
100
AcDbCircle
 10
-54.63065074725921
 20
-8.73852420453732
 30
0.0
 40
6.718903624008568
100
AcDbArc
 50
181.1668517664104
 51
198.2856078012432
  0
ARC
  5
1F9
330
264
100
AcDbEntity
  8
1
 62
     7
100
AcDbCircle
 10
-59.90955437126793
 20
-10.17147267390734
 30
0.0
 40
2.872948469370032
100
AcDbArc
 50
49.63911261877433
 51
56.3559022948772
  0
ARC
  5
1FA
330
264
100
AcDbEntity
  8
1
 62
     7
100
AcDbCircle
 10
-59.5762210379345
 20
-9.071857537870659
 30
0.0
 40
1.000000000000025
100
AcDbArc
 50
157.5570666249425
 51
62.05956324799987
  0
ARC
  5
1FB
330
264
100
AcDbEntity
  8
1
 62
     7
100
AcDbCircle
 10
-66.11100315451619
 20
-9.071857537870659
 30
0.0
 40
1.000000000000045
100
AcDbArc
 50
117.9404367520088
 51
22.44293337506085
  0
ARC
  5
1FC
330
264
100
AcDbEntity
  8
1
 62
     7
100
AcDbCircle
 10
-71.05657344519156
 20
-8.73852420453732
 30
0.0
 40
6.718903624008655
100
AcDbArc
 50
341.7143921987567
 51
358.8331482335897
  0
ARC
  5
1FD
330
264
100
AcDbEntity
  8
1
  6
DASHED
 62
     3
100
AcDbCircle
 10
-62.84361209622539
 20
-0.0004605455887976
 30
0.0
 40
21.49999999999999
100
AcDbArc
 50
21.97906712475551
 51
98.02093287524456
  0
ARC
  5
1FE
330
264
100
AcDbEntity
  8
1
  6
DASHED
 62
     3
100
AcDbCircle
 10
-62.68961353118413
 20
21.14668333652474
 30
0.0
 40
2.999999999999991
100
AcDbArc
 50
123.4585005244439
 51
165.4661438916065
  0
ARC
  5
1FF
330
264
100
AcDbEntity
  8
1
  6
DASHED
 62
     3
100
AcDbCircle
 10
-62.99761066126631
 20
21.1466833365247
 30
0.0
 40
2.99999999999998
100
AcDbArc
 50
14.53385610839349
 51
56.54149947555599
  0
ARC
  5
200
330
264
100
AcDbEntity
  8
1
  6
DASHED
 62
     3
100
AcDbCircle
 10
-62.84361209622539
 20
-0.0004605455887976
 30
0.0
 40
21.49999999999995
100
AcDbArc
 50
201.9790671247556
 51
278.0209328752444
  0
ARC
  5
201
330
264
100
AcDbEntity
  8
1
  6
DASHED
 62
     3
100
AcDbCircle
 10
-62.99761066126661
 20
-21.14760442770232
 30
0.0
 40
2.999999999999992
100
AcDbArc
 50
303.4585005244442
 51
345.4661438916069
  0
ARC
  5
202
330
264
100
AcDbEntity
  8
1
  6
DASHED
 62
     3
100
AcDbCircle
 10
-62.68961353118442
 20
-21.14760442770228
 30
0.0
 40
2.99999999999998
100
AcDbArc
 50
194.5338561083935
 51
236.541499475556
  0
ARC
  5
203
330
264
100
AcDbEntity
  8
1
 62
     7
100
AcDbCircle
 10
-62.84361209622539
 20
-0.0004605455887976
 30
0.0
 40
23.74999999999996
100
AcDbArc
 50
1.206316057529543
 51
358.7936839424704
  0
ARC
  5
204
330
264
100
AcDbEntity
  8
1
 62
     7
100
AcDbCircle
 10
15.27999999999997
 20
-5.7204605455888
 30
0.0
 40
0.720000000000141
100
AcDbArc
 50
0.0
 51
90.0
  0
ARC
  5
205
330
264
100
AcDbEntity
  8
1
 62
     7
100
AcDbCircle
 10
10.72000000000008
 20
-10.2804605455888
 30
0.0
 40
0.7199999999999706
100
AcDbArc
 50
180.0
 51
270.0
  0
ARC
  5
206
330
264
100
AcDbEntity
  8
1
 62
     7
100
AcDbCircle
 10
15.27999999999997
 20
-10.2804605455888
 30
0.0
 40
0.7199999999999989
100
AcDbArc
 50
270.0
 51
0.0
  0
ARC
  5
207
330
264
100
AcDbEntity
  8
1
 62
     7
100
AcDbCircle
 10
10.72000000000008
 20
-5.7204605455888
 30
0.0
 40
0.7200000000000025
100
AcDbArc
 50
90.0
 51
180.0
  0
ARC
  5
208
330
264
100
AcDbEntity
  8
1
 62
     7
100
AcDbCircle
 10
35.77999999999996
 20
-5.7204605455888
 30
0.0
 40
0.7200000000001339
100
AcDbArc
 50
0.0
 51
90.0
  0
ARC
  5
209
330
264
100
AcDbEntity
  8
1
 62
     7
100
AcDbCircle
 10
31.21999999999996
 20
-10.2804605455888
 30
0.0
 40
0.7199999999998603
100
AcDbArc
 50
180.0
 51
270.0
  0
ARC
  5
20A
330
264
100
AcDbEntity
  8
1
 62
     7
100
AcDbCircle
 10
35.77999999999996
 20
-10.2804605455888
 30
0.0
 40
0.7199999999999989
100
AcDbArc
 50
270.0
 51
0.0
  0
ARC
  5
20B
330
264
100
AcDbEntity
  8
1
 62
     7
100
AcDbCircle
 10
31.21999999999996
 20
-5.7204605455888
 30
0.0
 40
0.7200000000000025
100
AcDbArc
 50
90.0
 51
180.0
  0
ARC
  5
20C
330
264
100
AcDbEntity
  8
1
 62
     7
100
AcDbCircle
 10
15.27999999999997
 20
5.719539454411195
 30
0.0
 40
0.7199999999999989
100
AcDbArc
 50
270.0
 51
0.0
  0
ARC
  5
20D
330
264
100
AcDbEntity
  8
1
 62
     7
100
AcDbCircle
 10
10.72000000000008
 20
10.27953945441119
 30
0.0
 40
0.7200000000000008
100
AcDbArc
 50
90.0
 51
180.0
  0
ARC
  5
20E
330
264
100
AcDbEntity
  8
1
 62
     7
100
AcDbCircle
 10
15.27999999999997
 20
10.27953945441119
 30
0.0
 40
0.720000000000141
100
AcDbArc
 50
0.0
 51
90.0
  0
ARC
  5
20F
330
264
100
AcDbEntity
  8
1
 62
     7
100
AcDbCircle
 10
10.72000000000008
 20
5.719539454411195
 30
0.0
 40
0.7199999999999706
100
AcDbArc
 50
180.0
 51
270.0
  0
ARC
  5
210
330
264
100
AcDbEntity
  8
1
 62
     7
100
AcDbCircle
 10
35.77999999999996
 20
5.719539454411195
 30
0.0
 40
0.7199999999999989
100
AcDbArc
 50
270.0
 51
0.0
  0
ARC
  5
211
330
264
100
AcDbEntity
  8
1
 62
     7
100
AcDbCircle
 10
31.21999999999996
 20
10.27953945441119
 30
0.0
 40
0.7200000000000008
100
AcDbArc
 50
90.0
 51
180.0
  0
ARC
  5
212
330
264
100
AcDbEntity
  8
1
 62
     7
100
AcDbCircle
 10
35.77999999999996
 20
10.27953945441119
 30
0.0
 40
0.7200000000001339
100
AcDbArc
 50
0.0
 51
90.0
  0
ARC
  5
213
330
264
100
AcDbEntity
  8
1
 62
     7
100
AcDbCircle
 10
31.21999999999996
 20
5.719539454411195
 30
0.0
 40
0.7199999999998603
100
AcDbArc
 50
180.0
 51
270.0
  0
ARC
  5
214
330
264
100
AcDbEntity
  8
1
 62
     7
100
AcDbCircle
 10
-57.2589613904687
 20
-7.052725485843288
 30
0.0
 40
1.220000000000126
100
AcDbArc
 50
229.6391126187689
 51
311.2647618018635
  0
ARC
  5
215
330
264
100
AcDbEntity
  8
1
 62
     7
100
AcDbCircle
 10
-68.42826280198199
 20
-7.052725485843288
 30
0.0
 40
1.220000000000053
100
AcDbArc
 50
228.7352381981343
 51
310.3608873812253
  0
CIRCLE
  5
216
330
264
100
AcDbEntity
  8
1
 62
     7
100
AcDbCircle
 10
-54.84361209622529
 20
-13.8568670061398
 30
0.0
 40
0.8999999999998491
  0
CIRCLE
  5
217
330
264
100
AcDbEntity
  8
1
 62
     3
100
AcDbCircle
 10
-54.84361209622529
 20
-13.8568670061398
 30
0.0
 40
1.499999999999749
  0
CIRCLE
  5
218
330
264
100
AcDbEntity
  8
1
 62
     7
100
AcDbCircle
 10
-78.8436120962253
 20
-0.000460545588858
 30
0.0
 40
0.8999999999999204
  0
CIRCLE
  5
219
330
264
100
AcDbEntity
  8
1
 62
     3
100
AcDbCircle
 10
-78.8436120962253
 20
-0.000460545588858
 30
0.0
 40
1.499999999999829
  0
CIRCLE
  5
21A
330
264
100
AcDbEntity
  8
1
 62
     7
100
AcDbCircle
 10
13.00000000000011
 20
-8.000460545588797
 30
0.0
 40
1.800000000000119
  0
CIRCLE
  5
21B
330
264
100
AcDbEntity
  8
1
 62
     7
100
AcDbCircle
 10
33.50000000000009
 20
-8.000460545588797
 30
0.0
 40
1.800000000000123
  0
CIRCLE
  5
21C
330
264
100
AcDbEntity
  8
1
 62
     7
100
AcDbCircle
 10
13.00000000000011
 20
7.999539454411197
 30
0.0
 40
1.800000000000119
  0
CIRCLE
  5
21D
330
264
100
AcDbEntity
  8
1
 62
     7
100
AcDbCircle
 10
33.50000000000009
 20
7.999539454411197
 30
0.0
 40
1.800000000000123
  0
CIRCLE
  5
21E
330
264
100
AcDbEntity
  8
1
 62
     7
100
AcDbCircle
 10
-62.84361209622539
 20
-0.0004605455887976
 30
0.0
 40
9.0
  0
CIRCLE
  5
21F
330
264
100
AcDbEntity
  8
1
 62
     7
100
AcDbCircle
 10
-62.84361209622539
 20
-0.0004605455887976
 30
0.0
 40
3.0
  0
CIRCLE
  5
220
330
264
100
AcDbEntity
  8
1
 62
     7
100
AcDbCircle
 10
-62.84361209622539
 20
-0.0004605455887976
 30
0.0
 40
5.0
  0
CIRCLE
  5
221
330
264
100
AcDbEntity
  8
1
 62
     7
100
AcDbCircle
 10
-62.84361209622539
 20
-0.0004605455887976
 30
0.0
 40
11.0
  0
CIRCLE
  5
222
330
264
100
AcDbEntity
  8
1
 62
     7
100
AcDbCircle
 10
-62.84361209622539
 20
-0.0004605455887976
 30
0.0
 40
11.0
  0
CIRCLE
  5
223
330
264
100
AcDbEntity
  8
1
 62
     7
100
AcDbCircle
 10
-54.84361209622552
 20
13.8559459149622
 30
0.0
 40
0.8999999999999346
  0
CIRCLE
  5
224
330
264
100
AcDbEntity
  8
1
 62
     3
100
AcDbCircle
 10
-54.84361209622552
 20
13.8559459149622
 30
0.0
 40
1.499999999999884
  0
CIRCLE
  5
225
330
264
100
AcDbEntity
  8
1
 62
     3
100
AcDbCircle
 10
90.69326160027969
 20
0.0
 30
0.0
 40
0.9000000000000055
  0
CIRCLE
  5
226
330
264
100
AcDbEntity
  8
1
 62
     7
100
AcDbCircle
 10
90.69326160027969
 20
0.0
 30
0.0
 40
1.5
  0
TEXT
  5
228
330
264
100
AcDbEntity
  8
1
 62
     7
100
AcDbText
 10
-86.13345312761259
 20
48.56111830289021
 30
0.0
 40
3.0
  1
PHT 1.2D
 41
0.9
  7
SIMPLEX
 72
     1
 11
-77.13345312761259
 21
48.56111830289021
 31
0.0
100
AcDbText
  0
ENDSEC
  0
SECTION
  2
OBJECTS
  0
DICTIONARY
  5
250
330
0
100
AcDbDictionary
281
     1
  3
ACAD_COLOR
350
25F
  3
ACAD_GROUP
350
251
  3
ACAD_LAYOUT
350
25D
  3
ACAD_MATERIAL
350
25E
  3
ACAD_MLINESTYLE
350
25A
  3
ACAD_PLOTSETTINGS
350
25C
  3
ACAD_PLOTSTYLENAME
350
252
  0
DICTIONARY
  5
25F
102
{ACAD_REACTORS
330
250
102
}
330
250
100
AcDbDictionary
281
     1
  0
DICTIONARY
  5
251
102
{ACAD_REACTORS
330
250
102
}
330
250
100
AcDbDictionary
281
     1
  0
DICTIONARY
  5
25D
102
{ACAD_REACTORS
330
250
102
}
330
250
100
AcDbDictionary
281
     1
  3
Layout1
350
263
  3
Model
350
267
  0
DICTIONARY
  5
25E
102
{ACAD_REACTORS
330
250
102
}
330
250
100
AcDbDictionary
281
     1
  0
DICTIONARY
  5
25A
102
{ACAD_REACTORS
330
250
102
}
330
250
100
AcDbDictionary
281
     1
  3
Standard
350
25B
  0
DICTIONARY
  5
25C
102
{ACAD_REACTORS
330
250
102
}
330
250
100
AcDbDictionary
281
     1
  0
ACDBDICTIONARYWDFLT
  5
252
102
{ACAD_REACTORS
330
250
102
}
330
250
100
AcDbDictionary
281
     1
  3
Normal
350
253
100
AcDbDictionaryWithDefault
340
253
  0
LAYOUT
  5
263
102
{ACAD_REACTORS
330
25D
102
}
330
25D
100
AcDbPlotSettings
  1

  2
\\Ogura1\HP Color LaserJet 4600 PCL 5c
  4

  6

 40
0.0
 41
0.0
 42
0.0
 43
0.0
 44
0.0
 45
0.0
 46
0.0
 47
0.0
 48
0.0
 49
0.0
140
0.0
141
0.0
142
1.0
143
1.0
 70
   688
 72
     0
 73
     0
 74
     5
  7

 75
    16
147
1.0
 76
     0
 77
     2
 78
   300
148
0.0
149
0.0
100
AcDbLayout
  1
Layout1
 70
     1
 71
     1
 10
0.0
 20
0.0
 11
12.0
 21
9.0
 12
0.0
 22
0.0
 32
0.0
 14
1.000000000000000E+20
 24
1.000000000000000E+20
 34
1.000000000000000E+20
 15
-1.000000000000000E+20
 25
-1.000000000000000E+20
 35
-1.000000000000000E+20
146
0.0
 13
0.0
 23
0.0
 33
0.0
 16
1.0
 26
0.0
 36
0.0
 17
0.0
 27
1.0
 37
0.0
 76
     0
330
260
  0
LAYOUT
  5
267
102
{ACAD_REACTORS
330
25D
102
}
330
25D
100
AcDbPlotSettings
  1

  2
\\Ogura1\HP Color LaserJet 4600 PCL 5c
  4

  6

 40
0.0
 41
0.0
 42
0.0
 43
0.0
 44
0.0
 45
0.0
 46
0.0
 47
0.0
 48
0.0
 49
0.0
140
0.0
141
0.0
142
1.0
143
1.0
 70
  1712
 72
     0
 73
     0
 74
     0
  7

 75
     0
147
1.0
 76
     0
 77
     2
 78
   300
148
0.0
149
0.0
100
AcDbLayout
  1
Model
 70
     1
 71
     0
 10
0.0
 20
0.0
 11
12.0
 21
9.0
 12
0.0
 22
0.0
 32
0.0
 14
0.0
 24
0.0
 34
0.0
 15
0.0
 25
0.0
 35
0.0
146
0.0
 13
0.0
 23
0.0
 33
0.0
 16
1.0
 26
0.0
 36
0.0
 17
0.0
 27
1.0
 37
0.0
 76
     0
330
264
  0
MLINESTYLE
  5
25B
102
{ACAD_REACTORS
330
25A
102
}
330
25A
100
AcDbMlineStyle
  2
STANDARD
 70
     0
  3

 62
   256
 51
90.0
 52
90.0
 71
     2
 49
0.5
 62
   256
  6
BYLAYER
 49
-0.5
 62
   256
  6
BYLAYER
  0
ACDBPLACEHOLDER
  5
253
102
{ACAD_REACTORS
330
252
102
}
330
252
  0
ENDSEC
  0
EOF
