  0
SECTION
  2
HEADER
  9
$ACADVER
  1
AC1018
  9
$ACADMAINTVER
 70
     0
  9
$DWGCODEPAGE
  3
ANSI_932
  9
$INSBASE
 10
0.0
 20
0.0
 30
0.0
  9
$EXTMIN
 10
-114.3283687334158
 20
-15.00138701494029
 30
-0.0015258207003583
  9
$EXTMAX
 10
27.92525251586676
 20
30.45456053918652
 30
0.0000000349246037
  9
$LIMMIN
 10
-114.7485228483343
 20
-15.0
  9
$LIMMAX
 10
27.92089825847893
 20
30.45317331258839
  9
$ORTHOMODE
 70
     0
  9
$REGENMODE
 70
     1
  9
$FILLMODE
 70
     1
  9
$QTEXTMODE
 70
     0
  9
$MIRRTEXT
 70
     1
  9
$LTSCALE
 40
1.0
  9
$ATTMODE
 70
     1
  9
$TEXTSIZE
 40
3.5
  9
$TRACEWID
 40
0.5
  9
$TEXTSTYLE
  7
STANDARD
  9
$CLAYER
  8
0
  9
$CELTYPE
  6
ByLayer
  9
$CECOLOR
 62
   256
  9
$CELTSCALE
 40
1.0
  9
$DISPSILH
 70
     0
  9
$DIMSCALE
 40
1.0
  9
$DIMASZ
 40
0.18
  9
$DIMEXO
 40
0.0625
  9
$DIMDLI
 40
0.38
  9
$DIMRND
 40
0.0
  9
$DIMDLE
 40
0.0
  9
$DIMEXE
 40
0.18
  9
$DIMTP
 40
0.0
  9
$DIMTM
 40
0.0
  9
$DIMTXT
 40
0.18
  9
$DIMCEN
 40
0.09
  9
$DIMTSZ
 40
0.0
  9
$DIMTOL
 70
     0
  9
$DIMLIM
 70
     0
  9
$DIMTIH
 70
     1
  9
$DIMTOH
 70
     1
  9
$DIMSE1
 70
     0
  9
$DIMSE2
 70
     0
  9
$DIMTAD
 70
     0
  9
$DIMZIN
 70
     0
  9
$DIMBLK
  1

  9
$DIMASO
 70
     1
  9
$DIMSHO
 70
     1
  9
$DIMPOST
  1

  9
$DIMAPOST
  1

  9
$DIMALT
 70
     0
  9
$DIMALTD
 70
     2
  9
$DIMALTF
 40
25.4
  9
$DIMLFAC
 40
1.0
  9
$DIMTOFL
 70
     0
  9
$DIMTVP
 40
0.0
  9
$DIMTIX
 70
     0
  9
$DIMSOXD
 70
     0
  9
$DIMSAH
 70
     0
  9
$DIMBLK1
  1

  9
$DIMBLK2
  1

  9
$DIMSTYLE
  2
STANDARD
  9
$DIMCLRD
 70
     0
  9
$DIMCLRE
 70
     0
  9
$DIMCLRT
 70
     0
  9
$DIMTFAC
 40
1.0
  9
$DIMGAP
 40
0.09
  9
$DIMJUST
 70
     0
  9
$DIMSD1
 70
     0
  9
$DIMSD2
 70
     0
  9
$DIMTOLJ
 70
     1
  9
$DIMTZIN
 70
     0
  9
$DIMALTZ
 70
     0
  9
$DIMALTTZ
 70
     0
  9
$DIMUPT
 70
     0
  9
$DIMDEC
 70
     4
  9
$DIMTDEC
 70
     4
  9
$DIMALTU
 70
     2
  9
$DIMALTTD
 70
     2
  9
$DIMTXSTY
  7
STANDARD
  9
$DIMAUNIT
 70
     0
  9
$DIMADEC
 70
     0
  9
$DIMALTRND
 40
0.0
  9
$DIMAZIN
 70
     0
  9
$DIMDSEP
 70
    46
  9
$DIMATFIT
 70
     3
  9
$DIMFRAC
 70
     0
  9
$DIMLDRBLK
  1

  9
$DIMLUNIT
 70
     2
  9
$DIMLWD
 70
    -2
  9
$DIMLWE
 70
    -2
  9
$DIMTMOVE
 70
     0
  9
$LUNITS
 70
     2
  9
$LUPREC
 70
     4
  9
$SKETCHINC
 40
0.1
  9
$FILLETRAD
 40
2.0
  9
$AUNITS
 70
     0
  9
$AUPREC
 70
     0
  9
$MENU
  1
ACAD
  9
$ELEVATION
 40
0.0
  9
$PELEVATION
 40
0.0
  9
$THICKNESS
 40
0.0
  9
$LIMCHECK
 70
     0
  9
$CHAMFERA
 40
0.0
  9
$CHAMFERB
 40
0.0
  9
$CHAMFERC
 40
0.0
  9
$CHAMFERD
 40
0.0
  9
$SKPOLY
 70
     0
  9
$TDCREATE
 40
2452095.335042245
  9
$TDUCREATE
 40
2452095.501708912
  9
$TDUPDATE
 40
2453209.449613021
  9
$TDUUPDATE
 40
2453209.616279688
  9
$TDINDWG
 40
0.0007216782
  9
$TDUSRTIMER
 40
0.0007221875
  9
$USRTIMER
 70
     1
  9
$ANGBASE
 50
0.0
  9
$ANGDIR
 70
     0
  9
$PDMODE
 70
     0
  9
$PDSIZE
 40
0.0
  9
$PLINEWID
 40
0.0
  9
$SPLFRAME
 70
     0
  9
$SPLINETYPE
 70
     6
  9
$SPLINESEGS
 70
     8
  9
$HANDSEED
  5
11E
  9
$SURFTAB1
 70
     6
  9
$SURFTAB2
 70
     6
  9
$SURFTYPE
 70
     6
  9
$SURFU
 70
     6
  9
$SURFV
 70
     6
  9
$UCSBASE
  2

  9
$UCSNAME
  2

  9
$UCSORG
 10
0.0
 20
0.0
 30
0.0
  9
$UCSXDIR
 10
1.0
 20
0.0
 30
0.0
  9
$UCSYDIR
 10
0.0
 20
1.0
 30
0.0
  9
$UCSORTHOREF
  2

  9
$UCSORTHOVIEW
 70
     0
  9
$UCSORGTOP
 10
0.0
 20
0.0
 30
0.0
  9
$UCSORGBOTTOM
 10
0.0
 20
0.0
 30
0.0
  9
$UCSORGLEFT
 10
0.0
 20
0.0
 30
0.0
  9
$UCSORGRIGHT
 10
0.0
 20
0.0
 30
0.0
  9
$UCSORGFRONT
 10
0.0
 20
0.0
 30
0.0
  9
$UCSORGBACK
 10
0.0
 20
0.0
 30
0.0
  9
$PUCSBASE
  2

  9
$PUCSNAME
  2

  9
$PUCSORG
 10
0.0
 20
0.0
 30
0.0
  9
$PUCSXDIR
 10
1.0
 20
0.0
 30
0.0
  9
$PUCSYDIR
 10
0.0
 20
1.0
 30
0.0
  9
$PUCSORTHOREF
  2

  9
$PUCSORTHOVIEW
 70
     0
  9
$PUCSORGTOP
 10
0.0
 20
0.0
 30
0.0
  9
$PUCSORGBOTTOM
 10
0.0
 20
0.0
 30
0.0
  9
$PUCSORGLEFT
 10
0.0
 20
0.0
 30
0.0
  9
$PUCSORGRIGHT
 10
0.0
 20
0.0
 30
0.0
  9
$PUCSORGFRONT
 10
0.0
 20
0.0
 30
0.0
  9
$PUCSORGBACK
 10
0.0
 20
0.0
 30
0.0
  9
$USERI1
 70
     0
  9
$USERI2
 70
     0
  9
$USERI3
 70
     0
  9
$USERI4
 70
     0
  9
$USERI5
 70
     0
  9
$USERR1
 40
0.0
  9
$USERR2
 40
0.0
  9
$USERR3
 40
0.0
  9
$USERR4
 40
0.0
  9
$USERR5
 40
0.0
  9
$WORLDVIEW
 70
     1
  9
$SHADEDGE
 70
     3
  9
$SHADEDIF
 70
    70
  9
$TILEMODE
 70
     1
  9
$MAXACTVP
 70
    64
  9
$PINSBASE
 10
0.0
 20
0.0
 30
0.0
  9
$PLIMCHECK
 70
     0
  9
$PEXTMIN
 10
1.000000000000000E+20
 20
1.000000000000000E+20
 30
1.000000000000000E+20
  9
$PEXTMAX
 10
-1.000000000000000E+20
 20
-1.000000000000000E+20
 30
-1.000000000000000E+20
  9
$PLIMMIN
 10
0.0
 20
0.0
  9
$PLIMMAX
 10
12.0
 20
9.0
  9
$UNITMODE
 70
     0
  9
$VISRETAIN
 70
     1
  9
$PLINEGEN
 70
     0
  9
$PSLTSCALE
 70
     1
  9
$TREEDEPTH
 70
  3020
  9
$CMLSTYLE
  2
Standard
  9
$CMLJUST
 70
     0
  9
$CMLSCALE
 40
1.0
  9
$PROXYGRAPHICS
 70
     1
  9
$MEASUREMENT
 70
     0
  9
$CELWEIGHT
370
    -1
  9
$ENDCAPS
280
     0
  9
$JOINSTYLE
280
     0
  9
$LWDISPLAY
290
     0
  9
$INSUNITS
 70
     0
  9
$HYPERLINKBASE
  1

  9
$STYLESHEET
  1

  9
$XEDIT
290
     1
  9
$CEPSNTYPE
380
     0
  9
$PSTYLEMODE
290
     1
  9
$FINGERPRINTGUID
  2
{7F414E98-BA2B-4E3D-B053-6BEDC04047BB}
  9
$VERSIONGUID
  2
{40ADAD1C-7B1E-4C63-AF82-990F293DCFC3}
  9
$EXTNAMES
290
     1
  9
$PSVPSCALE
 40
0.0
  9
$OLESTARTUP
290
     0
  9
$SORTENTS
280
   127
  9
$INDEXCTL
280
     0
  9
$HIDETEXT
280
     0
  9
$XCLIPFRAME
290
     0
  9
$HALOGAP
280
     0
  9
$OBSCOLOR
 70
   257
  9
$OBSLTYPE
280
     0
  9
$INTERSECTIONDISPLAY
280
     0
  9
$INTERSECTIONCOLOR
 70
   257
  9
$DIMASSOC
280
     1
  9
$PROJECTNAME
  1

  0
ENDSEC
  0
SECTION
  2
CLASSES
  0
CLASS
  1
ACDBDICTIONARYWDFLT
  2
AcDbDictionaryWithDefault
  3
ObjectDBX Classes
 90
        0
 91
        1
280
     0
281
     0
  0
ENDSEC
  0
SECTION
  2
TABLES
  0
TABLE
  2
VPORT
  5
EB
330
0
100
AcDbSymbolTable
 70
     2
  0
VPORT
  5
11D
330
EB
100
AcDbSymbolTableRecord
100
AcDbViewportTableRecord
  2
*Active
 70
     0
 10
0.0
 20
0.0
 11
1.0
 21
1.0
 12
-43.20155810877454
 22
7.726586762123112
 13
0.0
 23
0.0
 14
1.0
 24
1.0
 15
0.0
 25
0.0
 16
0.0
 26
0.0
 36
1.0
 17
0.0
 27
0.0
 37
0.0
 40
88.02674588388228
 41
1.624999999999999
 42
50.0
 43
0.0
 44
0.0
 50
0.0
 51
0.0
 71
     0
 72
   100
 73
     1
 74
     1
 75
     0
 76
     0
 77
     0
 78
     0
281
     0
 65
     1
110
0.0
120
0.0
130
0.0
111
1.0
121
0.0
131
0.0
112
0.0
122
1.0
132
0.0
 79
     0
146
0.0
  0
ENDTAB
  0
TABLE
  2
LTYPE
  5
E8
330
0
100
AcDbSymbolTable
 70
     9
  0
LTYPE
  5
F6
330
E8
100
AcDbSymbolTableRecord
100
AcDbLinetypeTableRecord
  2
ByBlock
 70
     0
  3

 72
    65
 73
     0
 40
0.0
  0
LTYPE
  5
F7
330
E8
100
AcDbSymbolTableRecord
100
AcDbLinetypeTableRecord
  2
ByLayer
 70
     0
  3

 72
    65
 73
     0
 40
0.0
  0
LTYPE
  5
F8
330
E8
100
AcDbSymbolTableRecord
100
AcDbLinetypeTableRecord
  2
CONTINUOUS
 70
     0
  3
Solid line
 72
    65
 73
     0
 40
0.0
  0
LTYPE
  5
108
330
E8
100
AcDbSymbolTableRecord
100
AcDbLinetypeTableRecord
  2
BORDER
 70
     0
  3
__ __ . __ __ .
 72
    65
 73
     6
 40
6.570302287813768
 49
1.877229225089648
 74
     0
 49
-0.9386146125448238
 74
     0
 49
1.877229225089648
 74
     0
 49
-0.9386146125448238
 74
     0
 49
0.0
 74
     0
 49
-0.9386146125448238
 74
     0
  0
LTYPE
  5
109
330
E8
100
AcDbSymbolTableRecord
100
AcDbLinetypeTableRecord
  2
CENTER
 70
     0
  3
____ _ ____ _
 72
    65
 73
     4
 40
7.50891690035859
 49
4.693073062724119
 74
     0
 49
-0.9386146125448238
 74
     0
 49
0.9386146125448238
 74
     0
 49
-0.9386146125448238
 74
     0
  0
LTYPE
  5
10A
330
E8
100
AcDbSymbolTableRecord
100
AcDbLinetypeTableRecord
  2
DASHDOT
 70
     0
  3
__ . __ . __ .
 72
    65
 73
     4
 40
3.754458450179293
 49
1.877229225089648
 74
     0
 49
-0.9386146125448238
 74
     0
 49
0.0
 74
     0
 49
-0.9386146125448238
 74
     0
  0
LTYPE
  5
10B
330
E8
100
AcDbSymbolTableRecord
100
AcDbLinetypeTableRecord
  2
DASHED
 70
     0
  3
__ __ __ __ __
 72
    65
 73
     2
 40
2.815843837634471
 49
1.877229225089648
 74
     0
 49
-0.9386146125448238
 74
     0
  0
LTYPE
  5
10C
330
E8
100
AcDbSymbolTableRecord
100
AcDbLinetypeTableRecord
  2
DIVIDE
 70
     0
  3
__ . . __ . . 
 72
    65
 73
     6
 40
4.693073062724119
 49
1.877229225089648
 74
     0
 49
-0.9386146125448238
 74
     0
 49
0.0
 74
     0
 49
-0.9386146125448238
 74
     0
 49
0.0
 74
     0
 49
-0.9386146125448238
 74
     0
  0
LTYPE
  5
10D
330
E8
100
AcDbSymbolTableRecord
100
AcDbLinetypeTableRecord
  2
DOT
 70
     0
  3
..............
 72
    65
 73
     4
 40
1.877229225089648
 49
0.0
 74
     0
 49
-0.9386146125448238
 74
     0
 49
0.0
 74
     0
 49
-0.9386146125448238
 74
     0
  0
LTYPE
  5
10E
330
E8
100
AcDbSymbolTableRecord
100
AcDbLinetypeTableRecord
  2
HIDDEN
 70
     0
  3
_ _ _ _ _ _ _
 72
    65
 73
     2
 40
1.407921918817234
 49
0.9386146125448238
 74
     0
 49
-0.4693073062724121
 74
     0
  0
LTYPE
  5
10F
330
E8
100
AcDbSymbolTableRecord
100
AcDbLinetypeTableRecord
  2
PHANTOM
 70
     0
  3
_____ _ _ _____ _ _ 
 72
    65
 73
     6
 40
9.38614612544824
 49
4.693073062724119
 74
     0
 49
-0.9386146125448238
 74
     0
 49
0.9386146125448238
 74
     0
 49
-0.9386146125448238
 74
     0
 49
0.9386146125448238
 74
     0
 49
-0.9386146125448238
 74
     0
  0
ENDTAB
  0
TABLE
  2
LAYER
  5
E5
330
0
100
AcDbSymbolTable
 70
     2
  0
LAYER
  5
F3
330
E5
100
AcDbSymbolTableRecord
100
AcDbLayerTableRecord
  2
0
 70
     0
 62
     7
  6
CONTINUOUS
370
    -3
390
F2
  0
LAYER
  5
110
330
E5
100
AcDbSymbolTableRecord
100
AcDbLayerTableRecord
  2
1
 70
     0
 62
     7
  6
CONTINUOUS
370
    -3
390
F2
  0
ENDTAB
  0
TABLE
  2
STYLE
  5
E6
330
0
100
AcDbSymbolTable
 70
     4
  0
STYLE
  5
F4
330
E6
100
AcDbSymbolTableRecord
100
AcDbTextStyleTableRecord
  2
STANDARD
 70
     0
 40
0.0
 41
1.0
 50
0.0
 71
     0
 42
3.5
  3
txt
  4

  0
STYLE
  5
111
330
E6
100
AcDbSymbolTableRecord
100
AcDbTextStyleTableRecord
  2
SIMPLEX
 70
     0
 40
0.0
 41
1.0
 50
0.0
 71
     0
 42
3.5
  3
simplex
  4

  0
STYLE
  5
112
330
E6
100
AcDbSymbolTableRecord
100
AcDbTextStyleTableRecord
  2
COMPLEX
 70
     0
 40
0.0
 41
1.0
 50
0.0
 71
     0
 42
3.5
  3
complex
  4

  0
STYLE
  5
113
330
E6
100
AcDbSymbolTableRecord
100
AcDbTextStyleTableRecord
  2
ITALIC
 70
     0
 40
0.0
 41
1.0
 50
0.0
 71
     0
 42
3.5
  3
italic
  4

  0
ENDTAB
  0
TABLE
  2
VIEW
  5
E9
330
0
100
AcDbSymbolTable
 70
     0
  0
ENDTAB
  0
TABLE
  2
UCS
  5
EA
330
0
100
AcDbSymbolTable
 70
     0
  0
ENDTAB
  0
TABLE
  2
APPID
  5
EC
330
0
100
AcDbSymbolTable
 70
     1
  0
APPID
  5
F5
330
EC
100
AcDbSymbolTableRecord
100
AcDbRegAppTableRecord
  2
ACAD
 70
     0
  0
ENDTAB
  0
TABLE
  2
DIMSTYLE
  5
ED
330
0
100
AcDbSymbolTable
 70
     1
100
AcDbDimStyleTable
 71
     0
  0
DIMSTYLE
105
114
330
ED
100
AcDbSymbolTableRecord
100
AcDbDimStyleTableRecord
  2
STANDARD
 70
     0
279
     2
340
F4
  0
ENDTAB
  0
TABLE
  2
BLOCK_RECORD
  5
E4
330
0
100
AcDbSymbolTable
 70
     2
  0
BLOCK_RECORD
  5
103
330
E4
100
AcDbSymbolTableRecord
100
AcDbBlockTableRecord
  2
*Model_Space
340
106
  0
BLOCK_RECORD
  5
FF
330
E4
100
AcDbSymbolTableRecord
100
AcDbBlockTableRecord
  2
*Paper_Space
340
102
  0
BLOCK_RECORD
  5
119
330
E4
100
AcDbSymbolTableRecord
100
AcDbBlockTableRecord
  2
$MODEL_SPACE
340
0
  0
BLOCK_RECORD
  5
11B
330
E4
100
AcDbSymbolTableRecord
100
AcDbBlockTableRecord
  2
$PAPER_SPACE
340
0
  0
ENDTAB
  0
ENDSEC
  0
SECTION
  2
BLOCKS
  0
BLOCK
  5
104
330
103
100
AcDbEntity
  8
0
100
AcDbBlockBegin
  2
*Model_Space
 70
     0
 10
0.0
 20
0.0
 30
0.0
  3
*Model_Space
  1

  0
ENDBLK
  5
105
330
103
100
AcDbEntity
  8
0
100
AcDbBlockEnd
  0
BLOCK
  5
100
330
FF
100
AcDbEntity
 67
     1
  8
0
100
AcDbBlockBegin
  2
*Paper_Space
 70
     0
 10
0.0
 20
0.0
 30
0.0
  3
*Paper_Space
  1

  0
ENDBLK
  5
101
330
FF
100
AcDbEntity
 67
     1
  8
0
100
AcDbBlockEnd
  0
BLOCK
  5
11A
330
119
100
AcDbEntity
  8
0
100
AcDbBlockBegin
  2
$MODEL_SPACE
 70
     0
 10
0.0
 20
0.0
 30
0.0
  3
$MODEL_SPACE
  1

  0
ENDBLK
  5
20
330
119
100
AcDbEntity
  8
0
100
AcDbBlockEnd
  0
BLOCK
  5
11C
330
11B
100
AcDbEntity
  8
0
100
AcDbBlockBegin
  2
$PAPER_SPACE
 70
     0
 10
0.0
 20
0.0
 30
0.0
  3
$PAPER_SPACE
  1

  0
ENDBLK
  5
1C
330
11B
100
AcDbEntity
  8
0
100
AcDbBlockEnd
  0
ENDSEC
  0
SECTION
  2
ENTITIES
  0
LINE
  5
33
330
103
100
AcDbEntity
  8
1
 62
     7
100
AcDbLine
 10
-30.82541660886489
 20
13.0
 30
0.0
 11
-30.82541660886489
 21
-13.0
 31
0.0
  0
LINE
  5
34
330
103
100
AcDbEntity
  8
1
 62
     7
100
AcDbLine
 10
-96.97910174152108
 20
1.019803902718563
 30
0.0
 11
-96.97910174152108
 21
-1.019803902718563
 31
0.0
  0
LINE
  5
35
330
103
100
AcDbEntity
  8
1
 62
     7
100
AcDbLine
 10
-90.12256548632578
 20
-4.818874953737945
 30
0.0
 11
-89.92756548632581
 21
-4.481125046262034
 31
0.0
  0
LINE
  5
36
330
103
100
AcDbEntity
  8
1
 62
     7
100
AcDbLine
 10
-91.96977346498352
 20
-5.028333024919759
 30
0.0
 11
-91.6320235575076
 21
-5.223333024919782
 31
0.0
  0
LINE
  5
37
330
103
100
AcDbEntity
  8
1
 62
     7
100
AcDbLine
 10
-92.17923153616535
 20
-3.181125046262038
 30
0.0
 11
-92.37423153616536
 21
-3.518874953737948
 31
0.0
  0
LINE
  5
38
330
103
100
AcDbEntity
  8
1
 62
     7
100
AcDbLine
 10
-90.33202355750759
 20
-2.971666975080225
 30
0.0
 11
-90.66977346498353
 21
-2.776666975080232
 31
0.0
  0
LINE
  5
39
330
103
100
AcDbEntity
  8
1
 62
     7
100
AcDbLine
 10
-106.2306379967162
 20
-4.481125046262034
 30
0.0
 11
-106.0356379967162
 21
-4.818874953737945
 31
0.0
  0
LINE
  5
3A
330
103
100
AcDbEntity
  8
1
 62
     7
100
AcDbLine
 10
-105.4884300180585
 20
-2.776666975080232
 30
0.0
 11
-105.8261799255344
 21
-2.971666975080225
 31
0.0
  0
LINE
  5
3B
330
103
100
AcDbEntity
  8
1
 62
     7
100
AcDbLine
 10
-103.7839719468767
 20
-3.518874953737948
 30
0.0
 11
-103.9789719468767
 21
-3.181125046262024
 31
0.0
  0
LINE
  5
3C
330
103
100
AcDbEntity
  8
1
 62
     7
100
AcDbLine
 10
-104.5261799255345
 20
-5.223333024919752
 30
0.0
 11
-104.1884300180585
 21
-5.028333024919759
 31
0.0
  0
LINE
  5
3D
330
103
100
AcDbEntity
  8
1
 62
     7
100
AcDbLine
 10
-97.8841017415211
 20
9.3
 30
0.0
 11
-98.2741017415211
 21
9.3
 31
0.0
  0
LINE
  5
3E
330
103
100
AcDbEntity
  8
1
 62
     7
100
AcDbLine
 10
-96.77910174152108
 20
7.804999999999999
 30
0.0
 11
-96.77910174152108
 21
8.195
 31
0.0
  0
LINE
  5
3F
330
103
100
AcDbEntity
  8
1
 62
     7
100
AcDbLine
 10
-98.2741017415211
 20
6.7
 30
0.0
 11
-97.8841017415211
 21
6.7
 31
0.0
  0
LINE
  5
40
330
103
100
AcDbEntity
  8
1
 62
     7
100
AcDbLine
 10
-99.37910174152108
 20
8.195
 30
0.0
 11
-99.37910174152108
 21
7.804999999999999
 31
0.0
  0
LINE
  5
41
330
103
100
AcDbEntity
  8
1
 62
     7
100
AcDbLine
 10
-83.07910174152103
 20
2.75
 30
0.0
 11
-81.77910174152106
 21
2.75
 31
0.0
  0
LINE
  5
42
330
103
100
AcDbEntity
  8
1
 62
     7
100
AcDbLine
 10
-83.07910174152103
 20
14.0
 30
0.0
 11
-83.07910174152103
 21
-14.0
 31
0.0
  0
LINE
  5
43
330
103
100
AcDbEntity
  8
1
  6
DASHDOT
 62
     3
100
AcDbLine
 10
-95.63709276963304
 20
0.0
 30
0.0
 11
-100.5211107134091
 21
0.0
 31
0.0
  0
LINE
  5
44
330
103
100
AcDbEntity
  8
1
  6
DASHDOT
 62
     3
100
AcDbLine
 10
-98.07910174152107
 20
-2.442008971887984
 30
0.0
 11
-98.07910174152107
 21
2.442008971888014
 31
0.0
  0
LINE
  5
45
330
103
100
AcDbEntity
  8
1
 62
     7
100
AcDbLine
 10
-112.079101741521
 20
15.0
 30
0.0
 11
-84.07910174152105
 21
15.0
 31
0.0
  0
LINE
  5
46
330
103
100
AcDbEntity
  8
1
 62
     7
100
AcDbLine
 10
-113.079101741521
 20
-14.0
 30
0.0
 11
-113.079101741521
 21
14.0
 31
0.0
  0
LINE
  5
47
330
103
100
AcDbEntity
  8
1
 62
     7
100
AcDbLine
 10
-84.07910174152105
 20
-15.0
 30
0.0
 11
-112.079101741521
 21
-15.0
 31
0.0
  0
LINE
  5
48
330
103
100
AcDbEntity
  8
1
 62
     7
100
AcDbLine
 10
-113.079101741521
 20
-14.0
 30
0.0
 11
-112.079101741521
 21
-15.0
 31
0.0
  0
LINE
  5
49
330
103
100
AcDbEntity
  8
1
 62
     7
100
AcDbLine
 10
-112.079101741521
 20
15.0
 30
0.0
 11
-113.079101741521
 21
14.0
 31
0.0
  0
LINE
  5
4A
330
103
100
AcDbEntity
  8
1
 62
     7
100
AcDbLine
 10
-84.07910174152105
 20
15.0
 30
0.0
 11
-83.07910174152103
 21
14.0
 31
0.0
  0
LINE
  5
4B
330
103
100
AcDbEntity
  8
1
 62
     7
100
AcDbLine
 10
-84.07910174152105
 20
-15.0
 30
0.0
 11
-83.07910174152103
 21
-14.0
 31
0.0
  0
LINE
  5
4C
330
103
100
AcDbEntity
  8
1
  6
DASHDOT
 62
     3
100
AcDbLine
 10
-108.2762881155375
 20
10.1971863740165
 30
0.0
 11
-111.9994008087325
 21
13.92029906721149
 31
0.0
  0
LINE
  5
4D
330
103
100
AcDbEntity
  8
1
  6
DASHDOT
 62
     3
100
AcDbLine
 10
-87.88191536750453
 20
10.1971863740165
 30
0.0
 11
-84.15880267430955
 21
13.92029906721149
 31
0.0
  0
LINE
  5
4E
330
103
100
AcDbEntity
  8
1
  6
DASHDOT
 62
     3
100
AcDbLine
 10
-87.88191536750458
 20
-10.1971863740166
 30
0.0
 11
-84.15880267430958
 21
-13.92029906721149
 31
0.0
  0
LINE
  5
4F
330
103
100
AcDbEntity
  8
1
  6
DASHDOT
 62
     3
100
AcDbLine
 10
-108.2762881155375
 20
-10.1971863740166
 30
0.0
 11
-111.9994008087325
 21
-13.92029906721149
 31
0.0
  0
LINE
  5
50
330
103
100
AcDbEntity
  8
1
 62
     7
100
AcDbLine
 10
-81.77910174152106
 20
-2.75
 30
0.0
 11
-83.07910174152103
 21
-2.75
 31
0.0
  0
LINE
  5
51
330
103
100
AcDbEntity
  8
1
 62
     7
100
AcDbLine
 10
-81.57910174152105
 20
-2.403589838486198
 30
0.0
 11
-81.77910174152106
 21
-2.75
 31
0.0
  0
LINE
  5
52
330
103
100
AcDbEntity
  8
1
 62
     7
100
AcDbLine
 10
-81.57910174152105
 20
2.403589838486198
 30
0.0
 11
-81.57910174152105
 21
-2.403589838486198
 31
0.0
  0
LINE
  5
53
330
103
100
AcDbEntity
  8
1
 62
     7
100
AcDbLine
 10
-81.77910174152106
 20
2.75
 30
0.0
 11
-81.57910174152105
 21
2.403589838486198
 31
0.0
  0
LINE
  5
54
330
103
100
AcDbEntity
  8
1
 62
     7
100
AcDbLine
 10
-81.77910174152106
 20
2.75
 30
0.0
 11
-81.77910174152106
 21
-2.75
 31
0.0
  0
LINE
  5
55
330
103
100
AcDbEntity
  8
1
 62
     7
100
AcDbLine
 10
-29.52541660886489
 20
9.5
 30
0.0
 11
-29.52541660886489
 21
-9.5
 31
0.0
  0
LINE
  5
56
330
103
100
AcDbEntity
  8
1
 62
     7
100
AcDbLine
 10
-30.52541660886489
 20
-3.25
 30
0.0
 11
-30.82541660886489
 21
-3.25
 31
0.0
  0
LINE
  5
57
330
103
100
AcDbEntity
  8
1
 62
     7
100
AcDbLine
 10
-30.52541660886489
 20
3.25
 30
0.0
 11
-30.82541660886489
 21
3.25
 31
0.0
  0
LINE
  5
58
330
103
100
AcDbEntity
  8
1
  6
DASHDOT
 62
     3
100
AcDbLine
 10
-28.12541660886489
 20
0.0
 30
0.0
 11
-26.12541660886488
 21
0.0
 31
0.0
  0
LINE
  5
59
330
103
100
AcDbEntity
  8
1
 62
     7
100
AcDbLine
 10
-30.52541660886489
 20
-9.5
 30
0.0
 11
-30.52541660886489
 21
9.5
 31
0.0
  0
LINE
  5
5A
330
103
100
AcDbEntity
  8
1
 62
     7
100
AcDbLine
 10
-28.12541660886489
 20
-6.0
 30
0.0
 11
-29.52541660886489
 21
-6.0
 31
0.0
  0
LINE
  5
5B
330
103
100
AcDbEntity
  8
1
 62
     7
100
AcDbLine
 10
-29.52541660886489
 20
-9.5
 30
0.0
 11
-30.52541660886489
 21
-9.5
 31
0.0
  0
LINE
  5
5C
330
103
100
AcDbEntity
  8
1
 62
     7
100
AcDbLine
 10
-28.12541660886489
 20
6.0
 30
0.0
 11
-28.12541660886489
 21
-6.0
 31
0.0
  0
LINE
  5
5D
330
103
100
AcDbEntity
  8
1
 62
     7
100
AcDbLine
 10
-29.52541660886489
 20
6.0
 30
0.0
 11
-28.12541660886489
 21
6.0
 31
0.0
  0
LINE
  5
5E
330
103
100
AcDbEntity
  8
1
 62
     7
100
AcDbLine
 10
-30.52541660886489
 20
9.5
 30
0.0
 11
-29.52541660886489
 21
9.5
 31
0.0
  0
LINE
  5
5F
330
103
100
AcDbEntity
  8
1
  6
DASHDOT
 62
     3
100
AcDbLine
 10
15.36290723036693
 20
0.0
 30
0.0
 11
10.47888928659093
 21
0.0
 31
0.0
  0
LINE
  5
60
330
103
100
AcDbEntity
  8
1
  6
DASHDOT
 62
     3
100
AcDbLine
 10
12.92089825847893
 20
2.442008971888014
 30
0.0
 11
12.92089825847893
 21
-2.442008971887984
 31
0.0
  0
LINE
  5
61
330
103
100
AcDbEntity
  8
1
  6
DASHDOT
 62
     3
100
AcDbLine
 10
-39.82541660886488
 20
3.806351931161287
 30
0.0
 11
-39.82541660886488
 21
-14.28490016277339
 31
0.0
  0
LINE
  5
62
330
103
100
AcDbEntity
  8
1
 62
     7
100
AcDbLine
 10
-2.07910174152107
 20
2.75
 30
0.0
 11
-2.07910174152107
 21
14.0
 31
0.0
  0
LINE
  5
63
330
103
100
AcDbEntity
  8
1
 62
     7
100
AcDbLine
 10
-38.12541660886488
 20
-2.1615966321217
 30
0.0
 11
-38.12541660886488
 21
-13.0000000000001
 31
0.0
  0
LINE
  5
64
330
103
100
AcDbEntity
  8
1
 62
     7
100
AcDbLine
 10
-39.10372877237789
 20
-1.25
 30
0.0
 11
-38.38204093589079
 21
0.0
 31
0.0
  0
LINE
  5
65
330
103
100
AcDbEntity
  8
1
 62
     7
100
AcDbLine
 10
-40.5471044453519
 20
-1.25
 30
0.0
 11
-39.10372877237789
 21
-1.25
 31
0.0
  0
LINE
  5
66
330
103
100
AcDbEntity
  8
1
 62
     7
100
AcDbLine
 10
-41.26879228183898
 20
0.0
 30
0.0
 11
-40.5471044453519
 21
-1.25
 31
0.0
  0
LINE
  5
67
330
103
100
AcDbEntity
  8
1
 62
     7
100
AcDbLine
 10
-40.5471044453519
 20
1.25
 30
0.0
 11
-41.26879228183898
 21
0.0
 31
0.0
  0
LINE
  5
68
330
103
100
AcDbEntity
  8
1
 62
     7
100
AcDbLine
 10
-39.10372877237789
 20
1.25
 30
0.0
 11
-40.5471044453519
 21
1.25
 31
0.0
  0
LINE
  5
69
330
103
100
AcDbEntity
  8
1
 62
     7
100
AcDbLine
 10
-38.38204093589079
 20
0.0
 30
0.0
 11
-39.10372877237789
 21
1.25
 31
0.0
  0
LINE
  5
6A
330
103
100
AcDbEntity
  8
1
 62
     7
100
AcDbLine
 10
-30.82541660886489
 20
-13.0
 30
0.0
 11
-42.82541660886488
 21
-13.0000000000001
 31
0.0
  0
LINE
  5
6B
330
103
100
AcDbEntity
  8
1
 62
     7
100
AcDbLine
 10
-31.30202866939389
 20
-13.0000000000001
 30
0.0
 11
-31.30202866939389
 21
1.699999999999902
 31
0.0
  0
LINE
  5
6C
330
103
100
AcDbEntity
  8
1
 62
     7
100
AcDbLine
 10
-31.30202866939389
 20
1.699999999999902
 30
0.0
 11
-36.30202866939389
 21
1.699999999999902
 31
0.0
  0
LINE
  5
6D
330
103
100
AcDbEntity
  8
1
 62
     7
100
AcDbLine
 10
-36.30202866939389
 20
1.699999999999902
 30
0.0
 11
-36.30202866939389
 21
-13.0000000000001
 31
0.0
  0
LINE
  5
6E
330
103
100
AcDbEntity
  8
1
 62
     7
100
AcDbLine
 10
-36.30202866939389
 20
-12.80250078915879
 30
0.0
 11
-34.30202866939389
 21
-12.80250078915879
 31
0.0
  0
LINE
  5
6F
330
103
100
AcDbEntity
  8
1
 62
     7
100
AcDbLine
 10
-36.30202866939389
 20
-12.2160040702169
 30
0.0
 11
-34.30202866939389
 21
-12.2160040702169
 31
0.0
  0
LINE
  5
70
330
103
100
AcDbEntity
  8
1
 62
     7
100
AcDbLine
 10
-36.30202866939389
 20
-11.2583302491978
 30
0.0
 11
-34.30202866939389
 21
-11.2583302491978
 31
0.0
  0
LINE
  5
71
330
103
100
AcDbEntity
  8
1
 62
     7
100
AcDbLine
 10
-36.30202866939389
 20
-9.958577760546701
 30
0.0
 11
-34.30202866939389
 21
-9.958577760546701
 31
0.0
  0
LINE
  5
72
330
103
100
AcDbEntity
  8
1
 62
     7
100
AcDbLine
 10
-36.30202866939389
 20
-8.35623892592511
 30
0.0
 11
-34.30202866939389
 21
-8.35623892592511
 31
0.0
  0
LINE
  5
73
330
103
100
AcDbEntity
  8
1
 62
     7
100
AcDbLine
 10
-36.30202866939389
 20
-6.500000000000084
 30
0.0
 11
-34.30202866939389
 21
-6.500000000000084
 31
0.0
  0
LINE
  5
74
330
103
100
AcDbEntity
  8
1
 62
     7
100
AcDbLine
 10
-36.30202866939389
 20
-4.446261863233785
 30
0.0
 11
-34.30202866939389
 21
-4.446261863233785
 31
0.0
  0
LINE
  5
75
330
103
100
AcDbEntity
  8
1
 62
     7
100
AcDbLine
 10
-36.30202866939389
 20
-2.257426309670192
 30
0.0
 11
-34.30202866939389
 21
-2.257426309670192
 31
0.0
  0
LINE
  5
76
330
103
100
AcDbEntity
  8
1
 62
     7
100
AcDbLine
 10
-41.52541660886487
 20
-13.0000000000001
 30
0.0
 11
-41.52541660886487
 21
-2.1615966321217
 31
0.0
  0
LINE
  5
77
330
103
100
AcDbEntity
  8
1
 62
     7
100
AcDbLine
 10
-42.82541660886488
 20
13.0
 30
0.0
 11
-30.82541660886489
 21
13.0
 31
0.0
  0
LINE
  5
78
330
103
100
AcDbEntity
  8
1
 62
     7
100
AcDbLine
 10
-38.12541660886488
 20
-11.0000000000001
 30
0.0
 11
-41.52541660886487
 21
-11.0000000000001
 31
0.0
  0
LINE
  5
79
330
103
100
AcDbEntity
  8
1
 62
     7
100
AcDbLine
 10
-44.82541660886488
 20
15.0
 30
0.0
 11
-42.82541660886488
 21
15.0
 31
0.0
  0
LINE
  5
7A
330
103
100
AcDbEntity
  8
1
 62
     7
100
AcDbLine
 10
-44.82541660886488
 20
-15.0
 30
0.0
 11
-44.82541660886488
 21
15.0
 31
0.0
  0
LINE
  5
7B
330
103
100
AcDbEntity
  8
1
 62
     7
100
AcDbLine
 10
-42.82541660886488
 20
-15.0
 30
0.0
 11
-44.82541660886488
 21
-15.0
 31
0.0
  0
LINE
  5
7C
330
103
100
AcDbEntity
  8
1
 62
     7
100
AcDbLine
 10
-42.82541660886488
 20
15.0
 30
0.0
 11
-42.82541660886488
 21
-15.0
 31
0.0
  0
LINE
  5
7D
330
103
100
AcDbEntity
  8
1
 62
     7
100
AcDbLine
 10
-1.079101741521072
 20
15.0
 30
0.0
 11
26.92089825847892
 21
15.0
 31
0.0
  0
LINE
  5
7E
330
103
100
AcDbEntity
  8
1
 62
     7
100
AcDbLine
 10
27.92089825847893
 20
14.0
 30
0.0
 11
27.92089825847893
 21
-14.0
 31
0.0
  0
LINE
  5
7F
330
103
100
AcDbEntity
  8
1
 62
     7
100
AcDbLine
 10
26.92089825847892
 20
-15.0
 30
0.0
 11
-1.079101741521072
 21
-15.0
 31
0.0
  0
LINE
  5
80
330
103
100
AcDbEntity
  8
1
 62
     7
100
AcDbLine
 10
-2.07910174152107
 20
-14.0
 30
0.0
 11
-2.07910174152107
 21
-2.75
 31
0.0
  0
LINE
  5
81
330
103
100
AcDbEntity
  8
1
 62
     7
100
AcDbLine
 10
26.92089825847892
 20
-15.0
 30
0.0
 11
27.92089825847893
 21
-14.0
 31
0.0
  0
LINE
  5
82
330
103
100
AcDbEntity
  8
1
 62
     7
100
AcDbLine
 10
27.92089825847893
 20
14.0
 30
0.0
 11
26.92089825847892
 21
15.0
 31
0.0
  0
LINE
  5
83
330
103
100
AcDbEntity
  8
1
 62
     7
100
AcDbLine
 10
-2.07910174152107
 20
14.0
 30
0.0
 11
-1.079101741521072
 21
15.0
 31
0.0
  0
LINE
  5
84
330
103
100
AcDbEntity
  8
1
 62
     7
100
AcDbLine
 10
-2.07910174152107
 20
-14.0
 30
0.0
 11
-1.079101741521072
 21
-15.0
 31
0.0
  0
LINE
  5
85
330
103
100
AcDbEntity
  8
1
  6
DASHDOT
 62
     3
100
AcDbLine
 10
26.84119732569044
 20
13.92029906721149
 30
0.0
 11
23.11808463249545
 21
10.1971863740165
 31
0.0
  0
LINE
  5
86
330
103
100
AcDbEntity
  8
1
  6
DASHDOT
 62
     3
100
AcDbLine
 10
-0.9994008087326731
 20
13.92029906721149
 30
0.0
 11
2.723711884462345
 21
10.1971863740165
 31
0.0
  0
LINE
  5
87
330
103
100
AcDbEntity
  8
1
  6
DASHDOT
 62
     3
100
AcDbLine
 10
-0.9994008087325596
 20
-13.92029906721149
 30
0.0
 11
2.723711884462431
 21
-10.1971863740166
 31
0.0
  0
LINE
  5
88
330
103
100
AcDbEntity
  8
1
  6
DASHDOT
 62
     3
100
AcDbLine
 10
26.84119732569044
 20
-13.92029906721149
 30
0.0
 11
23.11808463249545
 21
-10.1971863740166
 31
0.0
  0
LINE
  5
89
330
103
100
AcDbEntity
  8
1
 62
     7
100
AcDbLine
 10
-0.0791017415210718
 20
-2.75
 30
0.0
 11
-3.379101741521055
 21
-2.75
 31
0.0
  0
LINE
  5
8A
330
103
100
AcDbEntity
  8
1
 62
     7
100
AcDbLine
 10
-3.379101741521055
 20
-2.75
 30
0.0
 11
-3.57910174152107
 21
-2.403589838486198
 31
0.0
  0
LINE
  5
8B
330
103
100
AcDbEntity
  8
1
 62
     7
100
AcDbLine
 10
-3.57910174152107
 20
-2.403589838486198
 30
0.0
 11
-3.57910174152107
 21
2.403589838486198
 31
0.0
  0
LINE
  5
8C
330
103
100
AcDbEntity
  8
1
 62
     7
100
AcDbLine
 10
-3.57910174152107
 20
2.403589838486198
 30
0.0
 11
-3.379101741521055
 21
2.75
 31
0.0
  0
LINE
  5
8D
330
103
100
AcDbEntity
  8
1
 62
     7
100
AcDbLine
 10
-3.379101741521055
 20
2.75
 30
0.0
 11
-0.0791017415210718
 21
2.75
 31
0.0
  0
LINE
  5
8E
330
103
100
AcDbEntity
  8
1
 62
     7
100
AcDbLine
 10
-0.0791017415210718
 20
2.75
 30
0.0
 11
-0.0791017415210718
 21
-2.75
 31
0.0
  0
LINE
  5
8F
330
103
100
AcDbEntity
  8
1
 62
     7
100
AcDbLine
 10
-3.379101741521055
 20
-2.75
 30
0.0
 11
-3.379101741521055
 21
2.75
 31
0.0
  0
LINE
  5
90
330
103
100
AcDbEntity
  8
1
 62
     7
100
AcDbLine
 10
12.17089825847893
 20
12.97834735241739
 30
0.0
 11
12.17089825847893
 21
9.470348462437895
 31
0.0
  0
LINE
  5
91
330
103
100
AcDbEntity
  8
1
 62
     7
100
AcDbLine
 10
13.67089825847893
 20
12.97834735241739
 30
0.0
 11
13.67089825847893
 21
9.470348462437895
 31
0.0
  0
LINE
  5
92
330
103
100
AcDbEntity
  8
1
 62
     7
100
AcDbLine
 10
12.17089825847893
 20
-9.470348462437895
 30
0.0
 11
12.17089825847893
 21
-12.9783473524174
 31
0.0
  0
LINE
  5
93
330
103
100
AcDbEntity
  8
1
 62
     7
100
AcDbLine
 10
13.67089825847893
 20
-9.470348462437895
 30
0.0
 11
13.67089825847893
 21
-12.9783473524174
 31
0.0
  0
LINE
  5
94
330
103
100
AcDbEntity
  8
1
  6
DASHDOT
 62
     3
100
AcDbLine
 10
-56.12541660886488
 20
0.0
 30
0.0
 11
-58.12541660886488
 21
0.0
 31
0.0
  0
LINE
  5
95
330
103
100
AcDbEntity
  8
1
 62
     3
100
AcDbLine
 10
-56.12541660886488
 20
1.019803902718593
 30
0.0
 11
-48.12541660886488
 21
-1.019803902718593
 31
0.0
  0
LINE
  5
96
330
103
100
AcDbEntity
  8
1
 62
     3
100
AcDbLine
 10
-48.12541660886488
 20
1.019803902718593
 30
0.0
 11
-56.12541660886488
 21
-1.019803902718593
 31
0.0
  0
LINE
  5
97
330
103
100
AcDbEntity
  8
1
 62
     7
100
AcDbLine
 10
-48.12541660886488
 20
-1.019803902718593
 30
0.0
 11
-56.12541660886488
 21
-1.019803902718593
 31
0.0
  0
LINE
  5
98
330
103
100
AcDbEntity
  8
1
 62
     7
100
AcDbLine
 10
-48.12541660886488
 20
1.019803902718593
 30
0.0
 11
-48.12541660886488
 21
-1.019803902718593
 31
0.0
  0
LINE
  5
99
330
103
100
AcDbEntity
  8
1
 62
     7
100
AcDbLine
 10
-56.12541660886488
 20
1.019803902718593
 30
0.0
 11
-48.12541660886488
 21
1.019803902718593
 31
0.0
  0
LINE
  5
9A
330
103
100
AcDbEntity
  8
1
 62
     7
100
AcDbLine
 10
-56.12541660886488
 20
-1.5
 30
0.0
 11
-56.12541660886488
 21
1.5
 31
0.0
  0
LINE
  5
9B
330
103
100
AcDbEntity
  8
1
 62
     7
100
AcDbLine
 10
-56.12541660886488
 20
1.5
 30
0.0
 11
-44.82541660886488
 21
1.5
 31
0.0
  0
LINE
  5
9C
330
103
100
AcDbEntity
  8
1
 62
     7
100
AcDbLine
 10
-56.12541660886488
 20
-1.5
 30
0.0
 11
-44.82541660886488
 21
-1.5
 31
0.0
  0
LINE
  5
9D
330
103
100
AcDbEntity
  8
1
 62
     7
100
AcDbLine
 10
-99.27910174152108
 20
-2.392481155659933
 30
0.0
 11
-99.27910174152108
 21
-1.847295320191118
 31
0.0
  0
LINE
  5
9E
330
103
100
AcDbEntity
  8
1
 62
     7
100
AcDbLine
 10
-98.82910174152108
 20
-2.842481155659931
 30
0.0
 11
-98.22910174152108
 21
-2.842481155659931
 31
0.0
  0
LINE
  5
9F
330
103
100
AcDbEntity
  8
1
 62
     7
100
AcDbLine
 10
-98.22910174152108
 20
-2.442481155659931
 30
0.0
 11
-98.22910174152108
 21
-2.842481155659931
 31
0.0
  0
LINE
  5
A0
330
103
100
AcDbEntity
  8
1
 62
     7
100
AcDbLine
 10
-98.60410174152105
 20
-2.442481155659934
 30
0.0
 11
-98.22910174152108
 21
-2.442481155659931
 31
0.0
  0
LINE
  5
A1
330
103
100
AcDbEntity
  8
1
 62
     7
100
AcDbLine
 10
-98.22910174152108
 20
-1.892481155659933
 30
0.0
 11
-98.60410174152105
 21
-1.892481155659933
 31
0.0
  0
LINE
  5
A2
330
103
100
AcDbEntity
  8
1
 62
     7
100
AcDbLine
 10
-98.22910174152108
 20
-1.49248115565993
 30
0.0
 11
-98.22910174152108
 21
-1.892481155659933
 31
0.0
  0
LINE
  5
A3
330
103
100
AcDbEntity
  8
1
 62
     7
100
AcDbLine
 10
-97.92910174152105
 20
-1.892481155659933
 30
0.0
 11
-97.92910174152105
 21
-1.49248115565993
 31
0.0
  0
LINE
  5
A4
330
103
100
AcDbEntity
  8
1
 62
     7
100
AcDbLine
 10
-97.55410174152105
 20
-1.892481155659933
 30
0.0
 11
-97.92910174152105
 21
-1.892481155659933
 31
0.0
  0
LINE
  5
A5
330
103
100
AcDbEntity
  8
1
 62
     7
100
AcDbLine
 10
-97.92910174152105
 20
-2.442481155659931
 30
0.0
 11
-97.55410174152105
 21
-2.442481155659934
 31
0.0
  0
LINE
  5
A6
330
103
100
AcDbEntity
  8
1
 62
     7
100
AcDbLine
 10
-97.92910174152105
 20
-2.842481155659931
 30
0.0
 11
-97.92910174152105
 21
-2.442481155659931
 31
0.0
  0
LINE
  5
A7
330
103
100
AcDbEntity
  8
1
 62
     7
100
AcDbLine
 10
-97.92910174152105
 20
-2.842481155659931
 30
0.0
 11
-97.32910174152108
 21
-2.842481155659931
 31
0.0
  0
LINE
  5
A8
330
103
100
AcDbEntity
  8
1
 62
     7
100
AcDbLine
 10
-96.87910174152108
 20
-1.847295320191118
 30
0.0
 11
-96.87910174152108
 21
-2.392481155659933
 31
0.0
  0
ARC
  5
A9
330
103
100
AcDbEntity
  8
1
 62
     7
100
AcDbCircle
 10
-99.97910174152108
 20
-1.847295320191118
 30
0.0
 40
0.6999999999999888
100
AcDbArc
 50
0.0
 51
44.19420372292977
  0
ARC
  5
AA
330
103
100
AcDbEntity
  8
1
 62
     7
100
AcDbCircle
 10
-98.82910174152108
 20
-2.392481155659933
 30
0.0
 40
0.4500000000000028
100
AcDbArc
 50
180.0
 51
270.0
  0
ARC
  5
AB
330
103
100
AcDbEntity
  8
1
 62
     7
100
AcDbCircle
 10
-97.32910174152108
 20
-2.392481155659933
 30
0.0
 40
0.449999999999999
100
AcDbArc
 50
270.0
 51
0.0
  0
ARC
  5
AC
330
103
100
AcDbEntity
  8
1
 62
     7
100
AcDbCircle
 10
-96.17910174152108
 20
-1.847295320191118
 30
0.0
 40
0.7000000000000034
100
AcDbArc
 50
135.8057962770718
 51
180.0
  0
ARC
  5
AD
330
103
100
AcDbEntity
  8
1
 62
     7
100
AcDbCircle
 10
-90.67506548632579
 20
-5.775833024919761
 30
0.0
 40
1.105000000000014
100
AcDbArc
 50
59.99999999999992
 51
150.0000000000008
  0
ARC
  5
AE
330
103
100
AcDbEntity
  8
1
 62
     7
100
AcDbCircle
 10
-92.92673153616535
 20
-4.475833024919766
 30
0.0
 40
1.105000000000007
100
AcDbArc
 50
330.0000000000006
 51
60.00000000000058
  0
ARC
  5
AF
330
103
100
AcDbEntity
  8
1
 62
     7
100
AcDbCircle
 10
-91.62673153616536
 20
-2.224166975080235
 30
0.0
 40
1.104999999999995
100
AcDbArc
 50
240.0000000000002
 51
330.0000000000006
  0
ARC
  5
B0
330
103
100
AcDbEntity
  8
1
 62
     7
100
AcDbCircle
 10
-89.3750654863258
 20
-3.524166975080234
 30
0.0
 40
1.105000000000014
100
AcDbArc
 50
149.9999999999998
 51
239.9999999999995
  0
ARC
  5
B1
330
103
100
AcDbEntity
  8
1
 62
     7
100
AcDbCircle
 10
-106.7831379967163
 20
-3.524166975080219
 30
0.0
 40
1.105000000000014
100
AcDbArc
 50
300.0
 51
29.99999999999984
  0
ARC
  5
B2
330
103
100
AcDbEntity
  8
1
 62
     7
100
AcDbCircle
 10
-104.5314719468767
 20
-2.224166975080223
 30
0.0
 40
1.104999999999989
100
AcDbArc
 50
210.0000000000008
 51
300.0000000000005
  0
ARC
  5
B3
330
103
100
AcDbEntity
  8
1
 62
     7
100
AcDbCircle
 10
-103.2314719468768
 20
-4.47583302491975
 30
0.0
 40
1.105000000000003
100
AcDbArc
 50
120.0000000000005
 51
210.0000000000004
  0
ARC
  5
B4
330
103
100
AcDbEntity
  8
1
 62
     7
100
AcDbCircle
 10
-105.4831379967164
 20
-5.775833024919761
 30
0.0
 40
1.105000000000075
100
AcDbArc
 50
29.99999999999826
 51
119.9999999999955
  0
ARC
  5
B5
330
103
100
AcDbEntity
  8
1
 62
     7
100
AcDbCircle
 10
-96.77910174152108
 20
9.3
 30
0.0
 40
1.105000000000004
100
AcDbArc
 50
180.0
 51
270.0
  0
ARC
  5
B6
330
103
100
AcDbEntity
  8
1
 62
     7
100
AcDbCircle
 10
-96.77910174152108
 20
6.7
 30
0.0
 40
1.104999999999999
100
AcDbArc
 50
90.0
 51
180.0
  0
ARC
  5
B7
330
103
100
AcDbEntity
  8
1
 62
     7
100
AcDbCircle
 10
-99.37910174152108
 20
6.7
 30
0.0
 40
1.105000000000004
100
AcDbArc
 50
0.0
 51
90.0
  0
ARC
  5
B8
330
103
100
AcDbEntity
  8
1
 62
     7
100
AcDbCircle
 10
-99.37910174152108
 20
9.3
 30
0.0
 40
1.104999999999999
100
AcDbArc
 50
270.0
 51
0.0
  0
ARC
  5
B9
330
103
100
AcDbEntity
  8
1
  6
DASHDOT
 62
     3
100
AcDbCircle
 10
-98.07910174152107
 20
0.0
 30
0.0
 40
17.00000000000001
100
AcDbArc
 50
125.6689285294411
 51
145.3516421540997
  0
ARC
  5
BA
330
103
100
AcDbEntity
  8
1
  6
DASHDOT
 62
     3
100
AcDbCircle
 10
-98.07910174152107
 20
0.0
 30
0.0
 40
16.99999999999999
100
AcDbArc
 50
35.668928529441
 51
55.35164215409972
  0
ARC
  5
BB
330
103
100
AcDbEntity
  8
1
  6
DASHDOT
 62
     3
100
AcDbCircle
 10
-98.07910174152107
 20
0.0
 30
0.0
 40
17.00000000000006
100
AcDbArc
 50
305.6689285294413
 51
325.3516421541001
  0
ARC
  5
BC
330
103
100
AcDbEntity
  8
1
  6
DASHDOT
 62
     3
100
AcDbCircle
 10
-98.07910174152107
 20
0.0
 30
0.0
 40
17.00000000000008
100
AcDbArc
 50
215.6689285294414
 51
235.3516421540998
  0
ARC
  5
BD
330
103
100
AcDbEntity
  8
1
  6
DASHDOT
 62
     3
100
AcDbCircle
 10
12.92089825847893
 20
0.0
 30
0.0
 40
17.0
100
AcDbArc
 50
34.64835784590035
 51
54.33107147055885
  0
ARC
  5
BE
330
103
100
AcDbEntity
  8
1
  6
DASHDOT
 62
     3
100
AcDbCircle
 10
12.92089825847893
 20
0.0
 30
0.0
 40
16.99999999999999
100
AcDbArc
 50
124.6483578459002
 51
144.331071470559
  0
ARC
  5
BF
330
103
100
AcDbEntity
  8
1
  6
DASHDOT
 62
     3
100
AcDbCircle
 10
12.92089825847893
 20
0.0
 30
0.0
 40
17.00000000000006
100
AcDbArc
 50
214.6483578459001
 51
234.3310714705586
  0
ARC
  5
C0
330
103
100
AcDbEntity
  8
1
  6
DASHDOT
 62
     3
100
AcDbCircle
 10
12.92089825847893
 20
0.0
 30
0.0
 40
17.00000000000009
100
AcDbArc
 50
304.6483578459001
 51
324.3310714705585
  0
ARC
  5
C1
330
103
100
AcDbEntity
  8
1
 62
     7
100
AcDbCircle
 10
-98.07910174152107
 20
0.0
 30
0.0
 40
1.949999999999979
100
AcDbArc
 50
315.8057962770708
 51
224.194203722928
  0
ARC
  5
C2
330
103
100
AcDbEntity
  8
1
 62
     7
100
AcDbCircle
 10
-98.60410174152105
 20
-2.167481155659932
 30
0.0
 40
0.274999999999999
100
AcDbArc
 50
90.0
 51
270.0
  0
ARC
  5
C3
330
103
100
AcDbEntity
  8
1
 62
     7
100
AcDbCircle
 10
-97.55410174152105
 20
-2.167481155659932
 30
0.0
 40
0.2750000000000021
100
AcDbArc
 50
270.0
 51
90.0
  0
CIRCLE
  5
C4
330
103
100
AcDbEntity
  8
1
 62
     7
100
AcDbCircle
 10
-98.07910174152107
 20
0.0
 30
0.0
 40
1.5
  0
CIRCLE
  5
C5
330
103
100
AcDbEntity
  8
1
 62
     7
100
AcDbCircle
 10
-91.15089851124556
 20
-3.999999999999985
 30
0.0
 40
2.599999999999992
  0
CIRCLE
  5
C6
330
103
100
AcDbEntity
  8
1
 62
     7
100
AcDbCircle
 10
-91.15089851124556
 20
-3.999999999999985
 30
0.0
 40
2.900000000000006
  0
CIRCLE
  5
C7
330
103
100
AcDbEntity
  8
1
 62
     7
100
AcDbCircle
 10
-105.0073049717965
 20
-4.0
 30
0.0
 40
2.599999999999992
  0
CIRCLE
  5
C8
330
103
100
AcDbEntity
  8
1
 62
     7
100
AcDbCircle
 10
-105.0073049717965
 20
-4.0
 30
0.0
 40
2.900000000000006
  0
CIRCLE
  5
C9
330
103
100
AcDbEntity
  8
1
 62
     7
100
AcDbCircle
 10
-98.07910174152107
 20
8.0
 30
0.0
 40
2.600000000000021
  0
CIRCLE
  5
CA
330
103
100
AcDbEntity
  8
1
 62
     7
100
AcDbCircle
 10
-98.07910174152107
 20
8.0
 30
0.0
 40
2.900000000000034
  0
CIRCLE
  5
CB
330
103
100
AcDbEntity
  8
1
 62
     7
100
AcDbCircle
 10
-98.07910174152107
 20
0.0
 30
0.0
 40
5.000000000000028
  0
CIRCLE
  5
CC
330
103
100
AcDbEntity
  8
1
 62
     7
100
AcDbCircle
 10
-110.0999170216924
 20
12.02081528017129
 30
0.0
 40
1.700000000000003
  0
CIRCLE
  5
CD
330
103
100
AcDbEntity
  8
1
 62
     7
100
AcDbCircle
 10
-86.05828646134973
 20
12.02081528017129
 30
0.0
 40
1.69999999999996
  0
CIRCLE
  5
CE
330
103
100
AcDbEntity
  8
1
 62
     7
100
AcDbCircle
 10
-86.05828646134973
 20
-12.0208152801714
 30
0.0
 40
1.699999999999846
  0
CIRCLE
  5
CF
330
103
100
AcDbEntity
  8
1
 62
     7
100
AcDbCircle
 10
-110.0999170216924
 20
-12.02081528017131
 30
0.0
 40
1.700000000000003
  0
CIRCLE
  5
D0
330
103
100
AcDbEntity
  8
1
 62
     7
100
AcDbCircle
 10
-39.82541660886488
 20
0.0
 30
0.0
 40
2.75
  0
CIRCLE
  5
D1
330
103
100
AcDbEntity
  8
1
 62
     7
100
AcDbCircle
 10
12.92089825847893
 20
0.0
 30
0.0
 40
1.5
  0
CIRCLE
  5
D2
330
103
100
AcDbEntity
  8
1
 62
     7
100
AcDbCircle
 10
12.92089825847893
 20
0.0
 30
0.0
 40
5.999999999999996
  0
CIRCLE
  5
D3
330
103
100
AcDbEntity
  8
1
 62
     7
100
AcDbCircle
 10
12.92089825847893
 20
0.0
 30
0.0
 40
13.0
  0
CIRCLE
  5
D4
330
103
100
AcDbEntity
  8
1
 62
     7
100
AcDbCircle
 10
12.92089825847893
 20
0.0
 30
0.0
 40
9.499999999999998
  0
CIRCLE
  5
D5
330
103
100
AcDbEntity
  8
1
 62
     7
100
AcDbCircle
 10
12.92089825847893
 20
0.0
 30
0.0
 40
9.999999999999998
  0
CIRCLE
  5
D6
330
103
100
AcDbEntity
  8
1
 62
     7
100
AcDbCircle
 10
24.94171353865025
 20
12.02081528017129
 30
0.0
 40
1.699999999999989
  0
CIRCLE
  5
D7
330
103
100
AcDbEntity
  8
1
 62
     7
100
AcDbCircle
 10
0.9000829783075515
 20
12.02081528017129
 30
0.0
 40
1.700000000000017
  0
CIRCLE
  5
D8
330
103
100
AcDbEntity
  8
1
 62
     7
100
AcDbCircle
 10
0.9000829783075515
 20
-12.02081528017131
 30
0.0
 40
1.699999999999902
  0
CIRCLE
  5
D9
330
103
100
AcDbEntity
  8
1
 62
     7
100
AcDbCircle
 10
24.94171353865025
 20
-12.0208152801714
 30
0.0
 40
1.699999999999989
  0
CIRCLE
  5
DA
330
103
100
AcDbEntity
  8
1
 62
     7
100
AcDbCircle
 10
-98.07910174152107
 20
0.0
 30
0.0
 40
3.0
  0
TEXT
  5
DC
330
103
100
AcDbEntity
  8
1
 62
     7
100
AcDbText
 10
-114.3270942769056
 20
28.4531733125884
 30
0.0
 40
2.0
  1
PHT 0.02S
 41
0.9
  7
SIMPLEX
 72
     1
 11
-107.2985228483342
 21
28.4531733125884
 31
0.0
100
AcDbText
  0
ENDSEC
  0
SECTION
  2
OBJECTS
  0
DICTIONARY
  5
EF
330
0
100
AcDbDictionary
281
     1
  3
ACAD_COLOR
350
FE
  3
ACAD_GROUP
350
F0
  3
ACAD_LAYOUT
350
FC
  3
ACAD_MATERIAL
350
FD
  3
ACAD_MLINESTYLE
350
F9
  3
ACAD_PLOTSETTINGS
350
FB
  3
ACAD_PLOTSTYLENAME
350
F1
  0
DICTIONARY
  5
FE
102
{ACAD_REACTORS
330
EF
102
}
330
EF
100
AcDbDictionary
281
     1
  0
DICTIONARY
  5
F0
102
{ACAD_REACTORS
330
EF
102
}
330
EF
100
AcDbDictionary
281
     1
  0
DICTIONARY
  5
FC
102
{ACAD_REACTORS
330
EF
102
}
330
EF
100
AcDbDictionary
281
     1
  3
Layout1
350
102
  3
Model
350
106
  0
DICTIONARY
  5
FD
102
{ACAD_REACTORS
330
EF
102
}
330
EF
100
AcDbDictionary
281
     1
  0
DICTIONARY
  5
F9
102
{ACAD_REACTORS
330
EF
102
}
330
EF
100
AcDbDictionary
281
     1
  3
Standard
350
FA
  0
DICTIONARY
  5
FB
102
{ACAD_REACTORS
330
EF
102
}
330
EF
100
AcDbDictionary
281
     1
  0
ACDBDICTIONARYWDFLT
  5
F1
102
{ACAD_REACTORS
330
EF
102
}
330
EF
100
AcDbDictionary
281
     1
  3
Normal
350
F2
100
AcDbDictionaryWithDefault
340
F2
  0
LAYOUT
  5
102
102
{ACAD_REACTORS
330
FC
102
}
330
FC
100
AcDbPlotSettings
  1

  2
\\Ogura1\HP Color LaserJet 4600 PCL 5c
  4

  6

 40
0.0
 41
0.0
 42
0.0
 43
0.0
 44
0.0
 45
0.0
 46
0.0
 47
0.0
 48
0.0
 49
0.0
140
0.0
141
0.0
142
1.0
143
1.0
 70
   688
 72
     0
 73
     0
 74
     5
  7

 75
    16
147
1.0
 76
     0
 77
     2
 78
   300
148
0.0
149
0.0
100
AcDbLayout
  1
Layout1
 70
     1
 71
     1
 10
0.0
 20
0.0
 11
12.0
 21
9.0
 12
0.0
 22
0.0
 32
0.0
 14
1.000000000000000E+20
 24
1.000000000000000E+20
 34
1.000000000000000E+20
 15
-1.000000000000000E+20
 25
-1.000000000000000E+20
 35
-1.000000000000000E+20
146
0.0
 13
0.0
 23
0.0
 33
0.0
 16
1.0
 26
0.0
 36
0.0
 17
0.0
 27
1.0
 37
0.0
 76
     0
330
FF
  0
LAYOUT
  5
106
102
{ACAD_REACTORS
330
FC
102
}
330
FC
100
AcDbPlotSettings
  1

  2
\\Ogura1\HP Color LaserJet 4600 PCL 5c
  4

  6

 40
0.0
 41
0.0
 42
0.0
 43
0.0
 44
0.0
 45
0.0
 46
0.0
 47
0.0
 48
0.0
 49
0.0
140
0.0
141
0.0
142
1.0
143
1.0
 70
  1712
 72
     0
 73
     0
 74
     0
  7

 75
     0
147
1.0
 76
     0
 77
     2
 78
   300
148
0.0
149
0.0
100
AcDbLayout
  1
Model
 70
     1
 71
     0
 10
0.0
 20
0.0
 11
12.0
 21
9.0
 12
0.0
 22
0.0
 32
0.0
 14
0.0
 24
0.0
 34
0.0
 15
0.0
 25
0.0
 35
0.0
146
0.0
 13
0.0
 23
0.0
 33
0.0
 16
1.0
 26
0.0
 36
0.0
 17
0.0
 27
1.0
 37
0.0
 76
     0
330
103
  0
MLINESTYLE
  5
FA
102
{ACAD_REACTORS
330
F9
102
}
330
F9
100
AcDbMlineStyle
  2
STANDARD
 70
     0
  3

 62
   256
 51
90.0
 52
90.0
 71
     2
 49
0.5
 62
   256
  6
BYLAYER
 49
-0.5
 62
   256
  6
BYLAYER
  0
ACDBPLACEHOLDER
  5
F2
102
{ACAD_REACTORS
330
F1
102
}
330
F1
  0
ENDSEC
  0
EOF
