  0
SECTION
  2
HEADER
  9
$ACADVER
  1
AC1018
  9
$ACADMAINTVER
 70
     0
  9
$DWGCODEPAGE
  3
ANSI_932
  9
$INSBASE
 10
0.0
 20
0.0
 30
0.0
  9
$EXTMIN
 10
-41.39515220992609
 20
-38.0032124050104
 30
-0.0015258207003583
  9
$EXTMAX
 10
261.0087758034374
 20
67.27533177810065
 30
0.0000000349246037
  9
$LIMMIN
 10
-41.7092428357402
 20
-38.00000000000002
  9
$LIMMAX
 10
260.999537159785
 20
67.2721188828787
  9
$ORTHOMODE
 70
     0
  9
$REGENMODE
 70
     1
  9
$FILLMODE
 70
     1
  9
$QTEXTMODE
 70
     0
  9
$MIRRTEXT
 70
     1
  9
$LTSCALE
 40
1.0
  9
$ATTMODE
 70
     1
  9
$TEXTSIZE
 40
3.5
  9
$TRACEWID
 40
0.5
  9
$TEXTSTYLE
  7
STANDARD
  9
$CLAYER
  8
0
  9
$CELTYPE
  6
ByLayer
  9
$CECOLOR
 62
   256
  9
$CELTSCALE
 40
1.0
  9
$DISPSILH
 70
     0
  9
$DIMSCALE
 40
1.0
  9
$DIMASZ
 40
0.18
  9
$DIMEXO
 40
0.0625
  9
$DIMDLI
 40
0.38
  9
$DIMRND
 40
0.0
  9
$DIMDLE
 40
0.0
  9
$DIMEXE
 40
0.18
  9
$DIMTP
 40
0.0
  9
$DIMTM
 40
0.0
  9
$DIMTXT
 40
0.18
  9
$DIMCEN
 40
0.09
  9
$DIMTSZ
 40
0.0
  9
$DIMTOL
 70
     0
  9
$DIMLIM
 70
     0
  9
$DIMTIH
 70
     1
  9
$DIMTOH
 70
     1
  9
$DIMSE1
 70
     0
  9
$DIMSE2
 70
     0
  9
$DIMTAD
 70
     0
  9
$DIMZIN
 70
     0
  9
$DIMBLK
  1

  9
$DIMASO
 70
     1
  9
$DIMSHO
 70
     1
  9
$DIMPOST
  1

  9
$DIMAPOST
  1

  9
$DIMALT
 70
     0
  9
$DIMALTD
 70
     2
  9
$DIMALTF
 40
25.4
  9
$DIMLFAC
 40
1.0
  9
$DIMTOFL
 70
     0
  9
$DIMTVP
 40
0.0
  9
$DIMTIX
 70
     0
  9
$DIMSOXD
 70
     0
  9
$DIMSAH
 70
     0
  9
$DIMBLK1
  1

  9
$DIMBLK2
  1

  9
$DIMSTYLE
  2
STANDARD
  9
$DIMCLRD
 70
     0
  9
$DIMCLRE
 70
     0
  9
$DIMCLRT
 70
     0
  9
$DIMTFAC
 40
1.0
  9
$DIMGAP
 40
0.09
  9
$DIMJUST
 70
     0
  9
$DIMSD1
 70
     0
  9
$DIMSD2
 70
     0
  9
$DIMTOLJ
 70
     1
  9
$DIMTZIN
 70
     0
  9
$DIMALTZ
 70
     0
  9
$DIMALTTZ
 70
     0
  9
$DIMUPT
 70
     0
  9
$DIMDEC
 70
     4
  9
$DIMTDEC
 70
     4
  9
$DIMALTU
 70
     2
  9
$DIMALTTD
 70
     2
  9
$DIMTXSTY
  7
STANDARD
  9
$DIMAUNIT
 70
     0
  9
$DIMADEC
 70
     0
  9
$DIMALTRND
 40
0.0
  9
$DIMAZIN
 70
     0
  9
$DIMDSEP
 70
    46
  9
$DIMATFIT
 70
     3
  9
$DIMFRAC
 70
     0
  9
$DIMLDRBLK
  1

  9
$DIMLUNIT
 70
     2
  9
$DIMLWD
 70
    -2
  9
$DIMLWE
 70
    -2
  9
$DIMTMOVE
 70
     0
  9
$LUNITS
 70
     2
  9
$LUPREC
 70
     4
  9
$SKETCHINC
 40
0.1
  9
$FILLETRAD
 40
2.0
  9
$AUNITS
 70
     0
  9
$AUPREC
 70
     0
  9
$MENU
  1
ACAD
  9
$ELEVATION
 40
0.0
  9
$PELEVATION
 40
0.0
  9
$THICKNESS
 40
0.0
  9
$LIMCHECK
 70
     0
  9
$CHAMFERA
 40
0.0
  9
$CHAMFERB
 40
0.0
  9
$CHAMFERC
 40
0.0
  9
$CHAMFERD
 40
0.0
  9
$SKPOLY
 70
     0
  9
$TDCREATE
 40
2452095.113780209
  9
$TDUCREATE
 40
2452095.280446875
  9
$TDUPDATE
 40
2453209.453456088
  9
$TDUUPDATE
 40
2453209.620122755
  9
$TDINDWG
 40
0.0004558796
  9
$TDUSRTIMER
 40
0.0004558796
  9
$USRTIMER
 70
     1
  9
$ANGBASE
 50
0.0
  9
$ANGDIR
 70
     0
  9
$PDMODE
 70
     0
  9
$PDSIZE
 40
0.0
  9
$PLINEWID
 40
0.0
  9
$SPLFRAME
 70
     0
  9
$SPLINETYPE
 70
     6
  9
$SPLINESEGS
 70
     8
  9
$HANDSEED
  5
133
  9
$SURFTAB1
 70
     6
  9
$SURFTAB2
 70
     6
  9
$SURFTYPE
 70
     6
  9
$SURFU
 70
     6
  9
$SURFV
 70
     6
  9
$UCSBASE
  2

  9
$UCSNAME
  2

  9
$UCSORG
 10
0.0
 20
0.0
 30
0.0
  9
$UCSXDIR
 10
1.0
 20
0.0
 30
0.0
  9
$UCSYDIR
 10
0.0
 20
1.0
 30
0.0
  9
$UCSORTHOREF
  2

  9
$UCSORTHOVIEW
 70
     0
  9
$UCSORGTOP
 10
0.0
 20
0.0
 30
0.0
  9
$UCSORGBOTTOM
 10
0.0
 20
0.0
 30
0.0
  9
$UCSORGLEFT
 10
0.0
 20
0.0
 30
0.0
  9
$UCSORGRIGHT
 10
0.0
 20
0.0
 30
0.0
  9
$UCSORGFRONT
 10
0.0
 20
0.0
 30
0.0
  9
$UCSORGBACK
 10
0.0
 20
0.0
 30
0.0
  9
$PUCSBASE
  2

  9
$PUCSNAME
  2

  9
$PUCSORG
 10
0.0
 20
0.0
 30
0.0
  9
$PUCSXDIR
 10
1.0
 20
0.0
 30
0.0
  9
$PUCSYDIR
 10
0.0
 20
1.0
 30
0.0
  9
$PUCSORTHOREF
  2

  9
$PUCSORTHOVIEW
 70
     0
  9
$PUCSORGTOP
 10
0.0
 20
0.0
 30
0.0
  9
$PUCSORGBOTTOM
 10
0.0
 20
0.0
 30
0.0
  9
$PUCSORGLEFT
 10
0.0
 20
0.0
 30
0.0
  9
$PUCSORGRIGHT
 10
0.0
 20
0.0
 30
0.0
  9
$PUCSORGFRONT
 10
0.0
 20
0.0
 30
0.0
  9
$PUCSORGBACK
 10
0.0
 20
0.0
 30
0.0
  9
$USERI1
 70
     0
  9
$USERI2
 70
     0
  9
$USERI3
 70
     0
  9
$USERI4
 70
     0
  9
$USERI5
 70
     0
  9
$USERR1
 40
0.0
  9
$USERR2
 40
0.0
  9
$USERR3
 40
0.0
  9
$USERR4
 40
0.0
  9
$USERR5
 40
0.0
  9
$WORLDVIEW
 70
     1
  9
$SHADEDGE
 70
     3
  9
$SHADEDIF
 70
    70
  9
$TILEMODE
 70
     1
  9
$MAXACTVP
 70
    64
  9
$PINSBASE
 10
0.0
 20
0.0
 30
0.0
  9
$PLIMCHECK
 70
     0
  9
$PEXTMIN
 10
1.000000000000000E+20
 20
1.000000000000000E+20
 30
1.000000000000000E+20
  9
$PEXTMAX
 10
-1.000000000000000E+20
 20
-1.000000000000000E+20
 30
-1.000000000000000E+20
  9
$PLIMMIN
 10
0.0
 20
0.0
  9
$PLIMMAX
 10
12.0
 20
9.0
  9
$UNITMODE
 70
     0
  9
$VISRETAIN
 70
     1
  9
$PLINEGEN
 70
     0
  9
$PSLTSCALE
 70
     1
  9
$TREEDEPTH
 70
  3020
  9
$CMLSTYLE
  2
Standard
  9
$CMLJUST
 70
     0
  9
$CMLSCALE
 40
1.0
  9
$PROXYGRAPHICS
 70
     1
  9
$MEASUREMENT
 70
     0
  9
$CELWEIGHT
370
    -1
  9
$ENDCAPS
280
     0
  9
$JOINSTYLE
280
     0
  9
$LWDISPLAY
290
     0
  9
$INSUNITS
 70
     0
  9
$HYPERLINKBASE
  1

  9
$STYLESHEET
  1

  9
$XEDIT
290
     1
  9
$CEPSNTYPE
380
     0
  9
$PSTYLEMODE
290
     1
  9
$FINGERPRINTGUID
  2
{9F47F825-4A18-4561-AF2C-9CD9F4C60EA7}
  9
$VERSIONGUID
  2
{8496C024-AAD3-4C58-A1E2-0B6327CBAA48}
  9
$EXTNAMES
290
     1
  9
$PSVPSCALE
 40
0.0
  9
$OLESTARTUP
290
     0
  9
$SORTENTS
280
   127
  9
$INDEXCTL
280
     0
  9
$HIDETEXT
280
     0
  9
$XCLIPFRAME
290
     0
  9
$HALOGAP
280
     0
  9
$OBSCOLOR
 70
   257
  9
$OBSLTYPE
280
     0
  9
$INTERSECTIONDISPLAY
280
     0
  9
$INTERSECTIONCOLOR
 70
   257
  9
$DIMASSOC
280
     1
  9
$PROJECTNAME
  1

  0
ENDSEC
  0
SECTION
  2
CLASSES
  0
CLASS
  1
ACDBDICTIONARYWDFLT
  2
AcDbDictionaryWithDefault
  3
ObjectDBX Classes
 90
        0
 91
        1
280
     0
281
     0
  0
ENDSEC
  0
SECTION
  2
TABLES
  0
TABLE
  2
VPORT
  5
100
330
0
100
AcDbSymbolTable
 70
     2
  0
VPORT
  5
132
330
100
100
AcDbSymbolTableRecord
100
AcDbViewportTableRecord
  2
*Active
 70
     0
 10
0.0
 20
0.0
 11
1.0
 21
1.0
 12
109.8068117967556
 22
14.63605968654513
 13
0.0
 23
0.0
 14
1.0
 24
1.0
 15
0.0
 25
0.0
 16
0.0
 26
0.0
 36
1.0
 17
0.0
 27
0.0
 37
0.0
 40
187.1279865619197
 41
1.625
 42
50.0
 43
0.0
 44
0.0
 50
0.0
 51
0.0
 71
     0
 72
   100
 73
     1
 74
     1
 75
     0
 76
     0
 77
     0
 78
     0
281
     0
 65
     1
110
0.0
120
0.0
130
0.0
111
1.0
121
0.0
131
0.0
112
0.0
122
1.0
132
0.0
 79
     0
146
0.0
  0
ENDTAB
  0
TABLE
  2
LTYPE
  5
FD
330
0
100
AcDbSymbolTable
 70
     9
  0
LTYPE
  5
10B
330
FD
100
AcDbSymbolTableRecord
100
AcDbLinetypeTableRecord
  2
ByBlock
 70
     0
  3

 72
    65
 73
     0
 40
0.0
  0
LTYPE
  5
10C
330
FD
100
AcDbSymbolTableRecord
100
AcDbLinetypeTableRecord
  2
ByLayer
 70
     0
  3

 72
    65
 73
     0
 40
0.0
  0
LTYPE
  5
10D
330
FD
100
AcDbSymbolTableRecord
100
AcDbLinetypeTableRecord
  2
CONTINUOUS
 70
     0
  3
Solid line
 72
    65
 73
     0
 40
0.0
  0
LTYPE
  5
11D
330
FD
100
AcDbSymbolTableRecord
100
AcDbLinetypeTableRecord
  2
BORDER
 70
     0
  3
__ __ . __ __ .
 72
    65
 73
     6
 40
13.94053592084656
 49
3.983010263099016
 74
     0
 49
-1.991505131549508
 74
     0
 49
3.983010263099016
 74
     0
 49
-1.991505131549508
 74
     0
 49
0.0
 74
     0
 49
-1.991505131549508
 74
     0
  0
LTYPE
  5
11E
330
FD
100
AcDbSymbolTableRecord
100
AcDbLinetypeTableRecord
  2
CENTER
 70
     0
  3
____ _ ____ _
 72
    65
 73
     4
 40
15.93204105239607
 49
9.957525657747542
 74
     0
 49
-1.991505131549508
 74
     0
 49
1.991505131549508
 74
     0
 49
-1.991505131549508
 74
     0
  0
LTYPE
  5
11F
330
FD
100
AcDbSymbolTableRecord
100
AcDbLinetypeTableRecord
  2
DASHDOT
 70
     0
  3
__ . __ . __ .
 72
    65
 73
     4
 40
7.966020526198034
 49
3.983010263099016
 74
     0
 49
-1.991505131549508
 74
     0
 49
0.0
 74
     0
 49
-1.991505131549508
 74
     0
  0
LTYPE
  5
120
330
FD
100
AcDbSymbolTableRecord
100
AcDbLinetypeTableRecord
  2
DASHED
 70
     0
  3
__ __ __ __ __
 72
    65
 73
     2
 40
5.974515394648525
 49
3.983010263099016
 74
     0
 49
-1.991505131549508
 74
     0
  0
LTYPE
  5
121
330
FD
100
AcDbSymbolTableRecord
100
AcDbLinetypeTableRecord
  2
DIVIDE
 70
     0
  3
__ . . __ . . 
 72
    65
 73
     6
 40
9.957525657747542
 49
3.983010263099016
 74
     0
 49
-1.991505131549508
 74
     0
 49
0.0
 74
     0
 49
-1.991505131549508
 74
     0
 49
0.0
 74
     0
 49
-1.991505131549508
 74
     0
  0
LTYPE
  5
122
330
FD
100
AcDbSymbolTableRecord
100
AcDbLinetypeTableRecord
  2
DOT
 70
     0
  3
..............
 72
    65
 73
     4
 40
3.983010263099016
 49
0.0
 74
     0
 49
-1.991505131549508
 74
     0
 49
0.0
 74
     0
 49
-1.991505131549508
 74
     0
  0
LTYPE
  5
123
330
FD
100
AcDbSymbolTableRecord
100
AcDbLinetypeTableRecord
  2
HIDDEN
 70
     0
  3
_ _ _ _ _ _ _
 72
    65
 73
     2
 40
2.987257697324262
 49
1.991505131549508
 74
     0
 49
-0.9957525657747543
 74
     0
  0
LTYPE
  5
124
330
FD
100
AcDbSymbolTableRecord
100
AcDbLinetypeTableRecord
  2
PHANTOM
 70
     0
  3
_____ _ _ _____ _ _ 
 72
    65
 73
     6
 40
19.91505131549508
 49
9.957525657747542
 74
     0
 49
-1.991505131549508
 74
     0
 49
1.991505131549508
 74
     0
 49
-1.991505131549508
 74
     0
 49
1.991505131549508
 74
     0
 49
-1.991505131549508
 74
     0
  0
ENDTAB
  0
TABLE
  2
LAYER
  5
FA
330
0
100
AcDbSymbolTable
 70
     2
  0
LAYER
  5
108
330
FA
100
AcDbSymbolTableRecord
100
AcDbLayerTableRecord
  2
0
 70
     0
 62
     7
  6
CONTINUOUS
370
    -3
390
107
  0
LAYER
  5
125
330
FA
100
AcDbSymbolTableRecord
100
AcDbLayerTableRecord
  2
1
 70
     0
 62
     7
  6
CONTINUOUS
370
    -3
390
107
  0
ENDTAB
  0
TABLE
  2
STYLE
  5
FB
330
0
100
AcDbSymbolTable
 70
     4
  0
STYLE
  5
109
330
FB
100
AcDbSymbolTableRecord
100
AcDbTextStyleTableRecord
  2
STANDARD
 70
     0
 40
0.0
 41
1.0
 50
0.0
 71
     0
 42
3.5
  3
txt
  4

  0
STYLE
  5
126
330
FB
100
AcDbSymbolTableRecord
100
AcDbTextStyleTableRecord
  2
SIMPLEX
 70
     0
 40
0.0
 41
1.0
 50
0.0
 71
     0
 42
3.5
  3
simplex
  4

  0
STYLE
  5
127
330
FB
100
AcDbSymbolTableRecord
100
AcDbTextStyleTableRecord
  2
COMPLEX
 70
     0
 40
0.0
 41
1.0
 50
0.0
 71
     0
 42
3.5
  3
complex
  4

  0
STYLE
  5
128
330
FB
100
AcDbSymbolTableRecord
100
AcDbTextStyleTableRecord
  2
ITALIC
 70
     0
 40
0.0
 41
1.0
 50
0.0
 71
     0
 42
3.5
  3
italic
  4

  0
ENDTAB
  0
TABLE
  2
VIEW
  5
FE
330
0
100
AcDbSymbolTable
 70
     0
  0
ENDTAB
  0
TABLE
  2
UCS
  5
FF
330
0
100
AcDbSymbolTable
 70
     0
  0
ENDTAB
  0
TABLE
  2
APPID
  5
101
330
0
100
AcDbSymbolTable
 70
     1
  0
APPID
  5
10A
330
101
100
AcDbSymbolTableRecord
100
AcDbRegAppTableRecord
  2
ACAD
 70
     0
  0
ENDTAB
  0
TABLE
  2
DIMSTYLE
  5
102
330
0
100
AcDbSymbolTable
 70
     1
100
AcDbDimStyleTable
 71
     0
  0
DIMSTYLE
105
129
330
102
100
AcDbSymbolTableRecord
100
AcDbDimStyleTableRecord
  2
STANDARD
 70
     0
279
     2
340
109
  0
ENDTAB
  0
TABLE
  2
BLOCK_RECORD
  5
F9
330
0
100
AcDbSymbolTable
 70
     2
  0
BLOCK_RECORD
  5
118
330
F9
100
AcDbSymbolTableRecord
100
AcDbBlockTableRecord
  2
*Model_Space
340
11B
  0
BLOCK_RECORD
  5
114
330
F9
100
AcDbSymbolTableRecord
100
AcDbBlockTableRecord
  2
*Paper_Space
340
117
  0
BLOCK_RECORD
  5
12E
330
F9
100
AcDbSymbolTableRecord
100
AcDbBlockTableRecord
  2
$MODEL_SPACE
340
0
  0
BLOCK_RECORD
  5
130
330
F9
100
AcDbSymbolTableRecord
100
AcDbBlockTableRecord
  2
$PAPER_SPACE
340
0
  0
ENDTAB
  0
ENDSEC
  0
SECTION
  2
BLOCKS
  0
BLOCK
  5
119
330
118
100
AcDbEntity
  8
0
100
AcDbBlockBegin
  2
*Model_Space
 70
     0
 10
0.0
 20
0.0
 30
0.0
  3
*Model_Space
  1

  0
ENDBLK
  5
11A
330
118
100
AcDbEntity
  8
0
100
AcDbBlockEnd
  0
BLOCK
  5
115
330
114
100
AcDbEntity
 67
     1
  8
0
100
AcDbBlockBegin
  2
*Paper_Space
 70
     0
 10
0.0
 20
0.0
 30
0.0
  3
*Paper_Space
  1

  0
ENDBLK
  5
116
330
114
100
AcDbEntity
 67
     1
  8
0
100
AcDbBlockEnd
  0
BLOCK
  5
12F
330
12E
100
AcDbEntity
  8
0
100
AcDbBlockBegin
  2
$MODEL_SPACE
 70
     0
 10
0.0
 20
0.0
 30
0.0
  3
$MODEL_SPACE
  1

  0
ENDBLK
  5
20
330
12E
100
AcDbEntity
  8
0
100
AcDbBlockEnd
  0
BLOCK
  5
131
330
130
100
AcDbEntity
  8
0
100
AcDbBlockBegin
  2
$PAPER_SPACE
 70
     0
 10
0.0
 20
0.0
 30
0.0
  3
$PAPER_SPACE
  1

  0
ENDBLK
  5
1C
330
130
100
AcDbEntity
  8
0
100
AcDbBlockEnd
  0
ENDSEC
  0
SECTION
  2
ENTITIES
  0
LINE
  5
33
330
118
100
AcDbEntity
  8
1
 62
     3
100
AcDbLine
 10
0.9200000000000001
 20
55.0
 30
0.0
 11
0.9200000000000001
 21
60.0
 31
0.0
  0
LINE
  5
34
330
118
100
AcDbEntity
  8
1
 62
     3
100
AcDbLine
 10
-0.9200000000000148
 20
60.0
 30
0.0
 11
-0.9200000000000148
 21
55.0
 31
0.0
  0
LINE
  5
35
330
118
100
AcDbEntity
  8
1
 62
     3
100
AcDbLine
 10
102.4999999999999
 20
60.0
 30
0.0
 11
102.4999999999999
 21
55.0
 31
0.0
  0
LINE
  5
36
330
118
100
AcDbEntity
  8
1
 62
     3
100
AcDbLine
 10
222.0795371597851
 20
60.0
 30
0.0
 11
222.0795371597851
 21
55.0
 31
0.0
  0
LINE
  5
37
330
118
100
AcDbEntity
  8
1
 62
     3
100
AcDbLine
 10
223.919537159785
 20
55.0
 30
0.0
 11
223.919537159785
 21
60.0
 31
0.0
  0
LINE
  5
38
330
118
100
AcDbEntity
  8
1
 62
     7
100
AcDbLine
 10
-3.0
 20
27.66997290656098
 30
0.0
 11
-3.0
 21
26.8746859276655
 31
0.0
  0
LINE
  5
39
330
118
100
AcDbEntity
  8
1
 62
     7
100
AcDbLine
 10
3.0
 20
27.66997290656098
 30
0.0
 11
3.0
 21
26.8746859276655
 31
0.0
  0
LINE
  5
3A
330
118
100
AcDbEntity
  8
1
 62
     7
100
AcDbLine
 10
-3.0
 20
27.66997290656098
 30
0.0
 11
3.0
 21
27.66997290656098
 31
0.0
  0
LINE
  5
3B
330
118
100
AcDbEntity
  8
1
  6
DASHDOT
 62
     3
100
AcDbLine
 10
25.6326208180123
 20
-25.63262081801235
 30
0.0
 11
21.03642674029976
 21
-21.0364267402998
 31
0.0
  0
LINE
  5
3C
330
118
100
AcDbEntity
  8
1
  6
DASHDOT
 62
     3
100
AcDbLine
 10
-25.63262081801232
 20
-25.63262081801239
 30
0.0
 11
-21.03642674029978
 21
-21.03642674029982
 31
0.0
  0
LINE
  5
3D
330
118
100
AcDbEntity
  8
1
  6
DASHDOT
 62
     3
100
AcDbLine
 10
-25.63262081801238
 20
25.63262081801235
 30
0.0
 11
-21.03642674029984
 21
21.0364267402998
 31
0.0
  0
LINE
  5
3E
330
118
100
AcDbEntity
  8
1
  6
DASHDOT
 62
     3
100
AcDbLine
 10
25.63262081801232
 20
25.63262081801236
 30
0.0
 11
21.03642674029978
 21
21.0364267402998
 31
0.0
  0
LINE
  5
3F
330
118
100
AcDbEntity
  8
1
 62
     3
100
AcDbLine
 10
-0.5299999999999999
 20
60.0
 30
0.0
 11
-0.5299999999999999
 21
55.0
 31
0.0
  0
LINE
  5
40
330
118
100
AcDbEntity
  8
1
 62
     7
100
AcDbLine
 10
-1.84
 20
55.0
 30
0.0
 11
1.84
 21
55.0
 31
0.0
  0
LINE
  5
41
330
118
100
AcDbEntity
  8
1
  6
DASHDOT
 62
     3
100
AcDbLine
 10
0.0
 20
1.5
 30
0.0
 11
0.0
 21
-1.499999999999992
 31
0.0
  0
LINE
  5
42
330
118
100
AcDbEntity
  8
1
  6
DASHDOT
 62
     3
100
AcDbLine
 10
-1.5
 20
0.0
 30
0.0
 11
1.5
 21
0.0
 31
0.0
  0
LINE
  5
43
330
118
100
AcDbEntity
  8
1
 62
     7
100
AcDbLine
 10
0.0
 20
55.0
 30
0.0
 11
0.0
 21
27.66997290656098
 31
0.0
  0
LINE
  5
44
330
118
100
AcDbEntity
  8
1
 62
     7
100
AcDbLine
 10
-1.84
 20
55.0
 30
0.0
 11
-1.84
 21
27.66997290656098
 31
0.0
  0
LINE
  5
45
330
118
100
AcDbEntity
  8
1
 62
     3
100
AcDbLine
 10
-1.310000000000004
 20
60.0
 30
0.0
 11
-1.310000000000004
 21
55.0
 31
0.0
  0
LINE
  5
46
330
118
100
AcDbEntity
  8
1
 62
     7
100
AcDbLine
 10
3.0
 20
1.802775637731993
 30
0.0
 11
3.0
 21
-1.802775637731993
 31
0.0
  0
LINE
  5
47
330
118
100
AcDbEntity
  8
1
 62
     3
100
AcDbLine
 10
0.5299999999999999
 20
60.0
 30
0.0
 11
0.5299999999999999
 21
55.0
 31
0.0
  0
LINE
  5
48
330
118
100
AcDbEntity
  8
1
 62
     3
100
AcDbLine
 10
1.31
 20
55.0
 30
0.0
 11
1.31
 21
60.0
 31
0.0
  0
LINE
  5
49
330
118
100
AcDbEntity
  8
1
 62
     7
100
AcDbLine
 10
1.84
 20
55.0
 30
0.0
 11
1.84
 21
27.66997290656098
 31
0.0
  0
LINE
  5
4A
330
118
100
AcDbEntity
  8
1
 62
     3
100
AcDbLine
 10
102.11
 20
60.0
 30
0.0
 11
102.11
 21
55.0
 31
0.0
  0
LINE
  5
4B
330
118
100
AcDbEntity
  8
1
 62
     3
100
AcDbLine
 10
102.8899999999999
 20
60.0
 30
0.0
 11
102.8899999999999
 21
55.0
 31
0.0
  0
LINE
  5
4C
330
118
100
AcDbEntity
  8
1
 62
     7
100
AcDbLine
 10
103.42
 20
55.0
 30
0.0
 11
101.5799999999998
 21
55.0
 31
0.0
  0
LINE
  5
4D
330
118
100
AcDbEntity
  8
1
 62
     3
100
AcDbLine
 10
222.469537159785
 20
60.0
 30
0.0
 11
222.469537159785
 21
55.0
 31
0.0
  0
LINE
  5
4E
330
118
100
AcDbEntity
  8
1
 62
     7
100
AcDbLine
 10
221.1595371597851
 20
55.0
 30
0.0
 11
224.8395371597851
 21
55.0
 31
0.0
  0
LINE
  5
4F
330
118
100
AcDbEntity
  8
1
  6
DASHDOT
 62
     3
100
AcDbLine
 10
152.0
 20
0.0
 30
0.0
 11
155.0
 21
0.0
 31
0.0
  0
LINE
  5
50
330
118
100
AcDbEntity
  8
1
 62
     7
100
AcDbLine
 10
134.0
 20
-21.0
 30
0.0
 11
134.0
 21
21.0
 31
0.0
  0
LINE
  5
51
330
118
100
AcDbEntity
  8
1
 62
     7
100
AcDbLine
 10
133.4999999999998
 20
27.0
 30
0.0
 11
133.4999999999998
 21
-27.0
 31
0.0
  0
LINE
  5
52
330
118
100
AcDbEntity
  8
1
 62
     7
100
AcDbLine
 10
101.58
 20
27.66997290656098
 30
0.0
 11
101.5799999999998
 21
55.0
 31
0.0
  0
LINE
  5
53
330
118
100
AcDbEntity
  8
1
 62
     7
100
AcDbLine
 10
103.42
 20
27.66997290656098
 30
0.0
 11
103.42
 21
55.0
 31
0.0
  0
LINE
  5
54
330
118
100
AcDbEntity
  8
1
 62
     7
100
AcDbLine
 10
222.999537159785
 20
55.0
 30
0.0
 11
222.999537159785
 21
38.0
 31
0.0
  0
LINE
  5
55
330
118
100
AcDbEntity
  8
1
 62
     7
100
AcDbLine
 10
221.1595371597851
 20
55.0
 30
0.0
 11
221.1595371597851
 21
37.95542648950214
 31
0.0
  0
LINE
  5
56
330
118
100
AcDbEntity
  8
1
 62
     3
100
AcDbLine
 10
221.6895371597852
 20
60.0
 30
0.0
 11
221.6895371597852
 21
55.0
 31
0.0
  0
LINE
  5
57
330
118
100
AcDbEntity
  8
1
  6
DASHDOT
 62
     3
100
AcDbLine
 10
240.3200452354736
 20
-9.999999999999968
 30
0.0
 11
235.1238928127671
 21
-6.999999999999964
 31
0.0
  0
LINE
  5
58
330
118
100
AcDbEntity
  8
1
  6
DASHDOT
 62
     3
100
AcDbLine
 10
205.6790290840964
 20
-10.00000000000003
 30
0.0
 11
210.8751815068028
 21
-7.000000000000036
 31
0.0
  0
LINE
  5
59
330
118
100
AcDbEntity
  8
1
  6
DASHDOT
 62
     3
100
AcDbLine
 10
222.999537159785
 20
20.00000000000001
 30
0.0
 11
222.999537159785
 21
14.00000000000001
 31
0.0
  0
LINE
  5
5A
330
118
100
AcDbEntity
  8
1
 62
     7
100
AcDbLine
 10
139.0
 20
21.0
 30
0.0
 11
139.0
 21
-21.0
 31
0.0
  0
LINE
  5
5B
330
118
100
AcDbEntity
  8
1
 62
     3
100
AcDbLine
 10
223.529537159785
 20
60.0
 30
0.0
 11
223.529537159785
 21
55.0
 31
0.0
  0
LINE
  5
5C
330
118
100
AcDbEntity
  8
1
 62
     3
100
AcDbLine
 10
224.309537159785
 20
55.0
 30
0.0
 11
224.309537159785
 21
60.0
 31
0.0
  0
LINE
  5
5D
330
118
100
AcDbEntity
  8
1
 62
     7
100
AcDbLine
 10
84.49999999999993
 20
27.0
 30
0.0
 11
84.49999999999993
 21
-27.0
 31
0.0
  0
LINE
  5
5E
330
118
100
AcDbEntity
  8
1
 62
     7
100
AcDbLine
 10
83.29999999999994
 20
-17.15616306954436
 30
0.0
 11
84.49999999999993
 21
-17.15616306954436
 31
0.0
  0
LINE
  5
5F
330
118
100
AcDbEntity
  8
1
 62
     7
100
AcDbLine
 10
83.29999999999994
 20
15.0
 30
0.0
 11
83.29999999999994
 21
-17.15616306954436
 31
0.0
  0
LINE
  5
60
330
118
100
AcDbEntity
  8
1
 62
     7
100
AcDbLine
 10
84.49999999999993
 20
15.0
 30
0.0
 11
83.29999999999994
 21
15.0
 31
0.0
  0
LINE
  5
61
330
118
100
AcDbEntity
  8
1
 62
     7
100
AcDbLine
 10
81.20000000000002
 20
-6.277067730142743
 30
0.0
 11
81.99999999999993
 21
-6.277067730142742
 31
0.0
  0
LINE
  5
62
330
118
100
AcDbEntity
  8
1
 62
     7
100
AcDbLine
 10
81.20000000000002
 20
4.699999999999998
 30
0.0
 11
81.20000000000002
 21
-6.277067730142743
 31
0.0
  0
LINE
  5
63
330
118
100
AcDbEntity
  8
1
 62
     7
100
AcDbLine
 10
81.99999999999993
 20
4.700000000000001
 30
0.0
 11
81.20000000000002
 21
4.699999999999998
 31
0.0
  0
LINE
  5
64
330
118
100
AcDbEntity
  8
1
 62
     7
100
AcDbLine
 10
139.8000000000001
 20
-6.277067730142742
 30
0.0
 11
139.0
 21
-6.277067730142745
 31
0.0
  0
LINE
  5
65
330
118
100
AcDbEntity
  8
1
 62
     7
100
AcDbLine
 10
139.8000000000001
 20
4.699999999999998
 30
0.0
 11
139.8000000000001
 21
-6.277067730142742
 31
0.0
  0
LINE
  5
66
330
118
100
AcDbEntity
  8
1
 62
     7
100
AcDbLine
 10
139.0
 20
4.699999999999998
 30
0.0
 11
139.8000000000001
 21
4.699999999999998
 31
0.0
  0
LINE
  5
67
330
118
100
AcDbEntity
  8
1
 62
     7
100
AcDbLine
 10
139.0
 20
21.0
 30
0.0
 11
134.0
 21
21.0
 31
0.0
  0
LINE
  5
68
330
118
100
AcDbEntity
  8
1
 62
     7
100
AcDbLine
 10
134.0
 20
14.5
 30
0.0
 11
133.4999999999998
 21
14.5
 31
0.0
  0
LINE
  5
69
330
118
100
AcDbEntity
  8
1
  6
DASHDOT
 62
     3
100
AcDbLine
 10
66.0
 20
0.0
 30
0.0
 11
69.0
 21
0.0
 31
0.0
  0
LINE
  5
6A
330
118
100
AcDbEntity
  8
1
 62
     7
100
AcDbLine
 10
133.4999999999998
 20
-14.5
 30
0.0
 11
134.0
 21
-14.5
 31
0.0
  0
LINE
  5
6B
330
118
100
AcDbEntity
  8
1
 62
     7
100
AcDbLine
 10
134.0
 20
-21.0
 30
0.0
 11
139.0
 21
-21.0
 31
0.0
  0
LINE
  5
6C
330
118
100
AcDbEntity
  8
1
 62
     7
100
AcDbLine
 10
69.0
 20
-3.5
 30
0.0
 11
69.0
 21
3.0
 31
0.0
  0
LINE
  5
6D
330
118
100
AcDbEntity
  8
1
 62
     7
100
AcDbLine
 10
69.0
 20
3.0
 30
0.0
 11
79.00000000000003
 21
3.0
 31
0.0
  0
LINE
  5
6E
330
118
100
AcDbEntity
  8
1
 62
     7
100
AcDbLine
 10
79.00000000000003
 20
3.0
 30
0.0
 11
79.00000000000003
 21
3.5
 31
0.0
  0
LINE
  5
6F
330
118
100
AcDbEntity
  8
1
 62
     7
100
AcDbLine
 10
79.00000000000003
 20
3.5
 30
0.0
 11
81.20000000000002
 21
3.5
 31
0.0
  0
LINE
  5
70
330
118
100
AcDbEntity
  8
1
 62
     7
100
AcDbLine
 10
81.20000000000002
 20
-3.5
 30
0.0
 11
69.0
 21
-3.5
 31
0.0
  0
LINE
  5
71
330
118
100
AcDbEntity
  8
1
 62
     7
100
AcDbLine
 10
139.8000000000001
 20
3.499999999999996
 30
0.0
 11
142.0
 21
3.5
 31
0.0
  0
LINE
  5
72
330
118
100
AcDbEntity
  8
1
 62
     7
100
AcDbLine
 10
142.0
 20
3.5
 30
0.0
 11
142.0
 21
2.999999999999997
 31
0.0
  0
LINE
  5
73
330
118
100
AcDbEntity
  8
1
 62
     7
100
AcDbLine
 10
142.0
 20
2.999999999999997
 30
0.0
 11
152.0
 21
3.0
 31
0.0
  0
LINE
  5
74
330
118
100
AcDbEntity
  8
1
 62
     7
100
AcDbLine
 10
152.0
 20
3.0
 30
0.0
 11
152.0
 21
-3.5
 31
0.0
  0
LINE
  5
75
330
118
100
AcDbEntity
  8
1
 62
     7
100
AcDbLine
 10
152.0
 20
-3.5
 30
0.0
 11
139.8000000000001
 21
-3.5
 31
0.0
  0
LINE
  5
76
330
118
100
AcDbEntity
  8
1
 62
     7
100
AcDbLine
 10
152.0
 20
1.802775637731993
 30
0.0
 11
142.0
 21
1.802775637731993
 31
0.0
  0
LINE
  5
77
330
118
100
AcDbEntity
  8
1
 62
     7
100
AcDbLine
 10
142.0
 20
1.802775637731993
 30
0.0
 11
142.0
 21
-1.802775637731994
 31
0.0
  0
LINE
  5
78
330
118
100
AcDbEntity
  8
1
 62
     7
100
AcDbLine
 10
142.0
 20
-1.802775637731994
 30
0.0
 11
152.0
 21
-1.802775637731993
 31
0.0
  0
LINE
  5
79
330
118
100
AcDbEntity
  8
1
 62
     3
100
AcDbLine
 10
142.0
 20
1.802775637731993
 30
0.0
 11
152.0
 21
-1.802775637731993
 31
0.0
  0
LINE
  5
7A
330
118
100
AcDbEntity
  8
1
 62
     3
100
AcDbLine
 10
152.0
 20
1.802775637731993
 30
0.0
 11
142.0
 21
-1.802775637731994
 31
0.0
  0
LINE
  5
7B
330
118
100
AcDbEntity
  8
1
 62
     7
100
AcDbLine
 10
68.99999999999998
 20
1.802775637731993
 30
0.0
 11
79.00000000000003
 21
1.802775637731993
 31
0.0
  0
LINE
  5
7C
330
118
100
AcDbEntity
  8
1
 62
     7
100
AcDbLine
 10
79.00000000000003
 20
1.802775637731993
 30
0.0
 11
79.00000000000003
 21
-1.802775637731993
 31
0.0
  0
LINE
  5
7D
330
118
100
AcDbEntity
  8
1
 62
     7
100
AcDbLine
 10
79.00000000000003
 20
-1.802775637731993
 30
0.0
 11
68.99999999999998
 21
-1.802775637731993
 31
0.0
  0
LINE
  5
7E
330
118
100
AcDbEntity
  8
1
 62
     3
100
AcDbLine
 10
68.99999999999998
 20
1.802775637731993
 30
0.0
 11
79.00000000000003
 21
-1.802775637731993
 31
0.0
  0
LINE
  5
7F
330
118
100
AcDbEntity
  8
1
 62
     3
100
AcDbLine
 10
79.00000000000003
 20
1.802775637731993
 30
0.0
 11
68.99999999999998
 21
-1.802775637731993
 31
0.0
  0
LINE
  5
80
330
118
100
AcDbEntity
  8
1
 62
     7
100
AcDbLine
 10
81.99999999999993
 20
12.5
 30
0.0
 11
83.29999999999994
 21
12.5
 31
0.0
  0
LINE
  5
81
330
118
100
AcDbEntity
  8
1
 62
     7
100
AcDbLine
 10
83.29999999999994
 20
-12.5
 30
0.0
 11
81.99999999999993
 21
-12.5
 31
0.0
  0
LINE
  5
82
330
118
100
AcDbEntity
  8
1
 62
     7
100
AcDbLine
 10
81.99999999999993
 20
-12.5
 30
0.0
 11
81.99999999999993
 21
12.5
 31
0.0
  0
LINE
  5
83
330
118
100
AcDbEntity
  8
1
 62
     7
100
AcDbLine
 10
133.4999999999998
 20
-27.0
 30
0.0
 11
125.0
 21
-27.0
 31
0.0
  0
LINE
  5
84
330
118
100
AcDbEntity
  8
1
 62
     7
100
AcDbLine
 10
125.0
 20
-38.0
 30
0.0
 11
121.0
 21
-38.0
 31
0.0
  0
LINE
  5
85
330
118
100
AcDbEntity
  8
1
 62
     7
100
AcDbLine
 10
121.0
 20
-27.0
 30
0.0
 11
84.49999999999993
 21
-27.0
 31
0.0
  0
LINE
  5
86
330
118
100
AcDbEntity
  8
1
 62
     7
100
AcDbLine
 10
84.49999999999993
 20
27.0
 30
0.0
 11
121.0
 21
27.0
 31
0.0
  0
LINE
  5
87
330
118
100
AcDbEntity
  8
1
 62
     7
100
AcDbLine
 10
121.0
 20
38.0
 30
0.0
 11
121.0
 21
-38.0
 31
0.0
  0
LINE
  5
88
330
118
100
AcDbEntity
  8
1
 62
     7
100
AcDbLine
 10
121.0
 20
38.0
 30
0.0
 11
125.0
 21
38.0
 31
0.0
  0
LINE
  5
89
330
118
100
AcDbEntity
  8
1
 62
     7
100
AcDbLine
 10
125.0
 20
38.0
 30
0.0
 11
125.0
 21
-38.0
 31
0.0
  0
LINE
  5
8A
330
118
100
AcDbEntity
  8
1
 62
     7
100
AcDbLine
 10
125.0
 20
27.0
 30
0.0
 11
133.4999999999998
 21
27.0
 31
0.0
  0
LINE
  5
8B
330
118
100
AcDbEntity
  8
1
 62
     7
100
AcDbLine
 10
224.8395371597851
 20
55.0
 30
0.0
 11
224.8395371597851
 21
37.9554264895021
 31
0.0
  0
LINE
  5
8C
330
118
100
AcDbEntity
  8
1
 62
     7
100
AcDbLine
 10
99.50000000000001
 20
27.66997290656098
 30
0.0
 11
99.50000000000001
 21
27.0
 31
0.0
  0
LINE
  5
8D
330
118
100
AcDbEntity
  8
1
 62
     7
100
AcDbLine
 10
99.50000000000001
 20
27.66997290656098
 30
0.0
 11
105.4999999999999
 21
27.66997290656098
 31
0.0
  0
LINE
  5
8E
330
118
100
AcDbEntity
  8
1
 62
     7
100
AcDbLine
 10
105.4999999999999
 20
27.66997290656098
 30
0.0
 11
105.4999999999999
 21
27.0
 31
0.0
  0
LINE
  5
8F
330
118
100
AcDbEntity
  8
1
 62
     7
100
AcDbLine
 10
-1.802775637731993
 20
3.0
 30
0.0
 11
1.802775637731993
 21
3.0
 31
0.0
  0
LINE
  5
90
330
118
100
AcDbEntity
  8
1
 62
     7
100
AcDbLine
 10
5.599999999999993
 20
-13.77497826085313
 30
0.0
 11
5.599999999999993
 21
-14.85616306954437
 31
0.0
  0
LINE
  5
91
330
118
100
AcDbEntity
  8
1
 62
     7
100
AcDbLine
 10
0.7999999999999972
 20
-17.15616306954436
 30
0.0
 11
3.299999999999996
 21
-17.15616306954436
 31
0.0
  0
LINE
  5
92
330
118
100
AcDbEntity
  8
1
 62
     7
100
AcDbLine
 10
0.7999999999999972
 20
-17.15616306954436
 30
0.0
 11
0.7999999999999972
 21
-12.47437373177507
 31
0.0
  0
LINE
  5
93
330
118
100
AcDbEntity
  8
1
 62
     7
100
AcDbLine
 10
-0.7999999999999972
 20
-12.47437373177507
 30
0.0
 11
-0.7999999999999972
 21
-17.15616306954436
 31
0.0
  0
LINE
  5
94
330
118
100
AcDbEntity
  8
1
 62
     7
100
AcDbLine
 10
-3.299999999999996
 20
-17.15616306954436
 30
0.0
 11
-0.7999999999999972
 21
-17.15616306954436
 31
0.0
  0
LINE
  5
95
330
118
100
AcDbEntity
  8
1
 62
     7
100
AcDbLine
 10
-5.599999999999993
 20
-14.85616306954437
 30
0.0
 11
-5.599999999999993
 21
-13.77497826085313
 31
0.0
  0
LINE
  5
96
330
118
100
AcDbEntity
  8
1
 62
     7
100
AcDbLine
 10
-2.6
 20
-4.1806392227619
 30
0.0
 11
-2.6
 21
-5.27706773014274
 31
0.0
  0
LINE
  5
97
330
118
100
AcDbEntity
  8
1
 62
     7
100
AcDbLine
 10
-1.6
 20
-6.277067730142742
 30
0.0
 11
-0.3999999999999986
 21
-6.277067730142742
 31
0.0
  0
LINE
  5
98
330
118
100
AcDbEntity
  8
1
 62
     7
100
AcDbLine
 10
-0.3999999999999986
 20
-5.377067730142743
 30
0.0
 11
-0.3999999999999986
 21
-6.277067730142742
 31
0.0
  0
LINE
  5
99
330
118
100
AcDbEntity
  8
1
 62
     7
100
AcDbLine
 10
-1.373465458485461
 20
-5.377067730142741
 30
0.0
 11
-0.3999999999999986
 21
-5.377067730142743
 31
0.0
  0
LINE
  5
9A
330
118
100
AcDbEntity
  8
1
 62
     7
100
AcDbLine
 10
-0.3999999999999986
 20
-4.27706773014274
 30
0.0
 11
-1.356719398800642
 21
-4.277067730142738
 31
0.0
  0
LINE
  5
9B
330
118
100
AcDbEntity
  8
1
 62
     7
100
AcDbLine
 10
-0.3999999999999986
 20
-3.47706773014274
 30
0.0
 11
-0.3999999999999986
 21
-4.27706773014274
 31
0.0
  0
LINE
  5
9C
330
118
100
AcDbEntity
  8
1
 62
     7
100
AcDbLine
 10
0.3999999999999986
 20
-4.27706773014274
 30
0.0
 11
0.3999999999999986
 21
-3.47706773014274
 31
0.0
  0
LINE
  5
9D
330
118
100
AcDbEntity
  8
1
 62
     7
100
AcDbLine
 10
1.356719398800642
 20
-4.277067730142738
 30
0.0
 11
0.3999999999999986
 21
-4.27706773014274
 31
0.0
  0
LINE
  5
9E
330
118
100
AcDbEntity
  8
1
 62
     7
100
AcDbLine
 10
0.3999999999999986
 20
-5.377067730142743
 30
0.0
 11
1.373465458485461
 21
-5.377067730142741
 31
0.0
  0
LINE
  5
9F
330
118
100
AcDbEntity
  8
1
 62
     7
100
AcDbLine
 10
0.3999999999999986
 20
-6.277067730142742
 30
0.0
 11
0.3999999999999986
 21
-5.377067730142743
 31
0.0
  0
LINE
  5
A0
330
118
100
AcDbEntity
  8
1
 62
     7
100
AcDbLine
 10
0.3999999999999986
 20
-6.277067730142742
 30
0.0
 11
1.6
 21
-6.277067730142742
 31
0.0
  0
LINE
  5
A1
330
118
100
AcDbEntity
  8
1
 62
     7
100
AcDbLine
 10
2.6
 20
-5.27706773014274
 30
0.0
 11
2.6
 21
-4.1806392227619
 31
0.0
  0
LINE
  5
A2
330
118
100
AcDbEntity
  8
1
  6
DASHDOT
 62
     3
100
AcDbLine
 10
248.6321579777973
 20
-25.63262081801235
 30
0.0
 11
244.0359639000849
 21
-21.0364267402998
 31
0.0
  0
LINE
  5
A3
330
118
100
AcDbEntity
  8
1
  6
DASHDOT
 62
     3
100
AcDbLine
 10
197.3669163417728
 20
-25.63262081801239
 30
0.0
 11
201.9631104194853
 21
-21.03642674029982
 31
0.0
  0
LINE
  5
A4
330
118
100
AcDbEntity
  8
1
  6
DASHDOT
 62
     3
100
AcDbLine
 10
197.3669163417725
 20
25.63262081801235
 30
0.0
 11
201.9631104194851
 21
21.0364267402998
 31
0.0
  0
LINE
  5
A5
330
118
100
AcDbEntity
  8
1
  6
DASHDOT
 62
     3
100
AcDbLine
 10
248.6321579777973
 20
25.63262081801236
 30
0.0
 11
244.0359639000849
 21
21.0364267402998
 31
0.0
  0
LINE
  5
A6
330
118
100
AcDbEntity
  8
1
  6
DASHDOT
 62
     3
100
AcDbLine
 10
222.999537159785
 20
1.5
 30
0.0
 11
222.999537159785
 21
-1.499999999999992
 31
0.0
  0
LINE
  5
A7
330
118
100
AcDbEntity
  8
1
  6
DASHDOT
 62
     3
100
AcDbLine
 10
221.499537159785
 20
0.0
 30
0.0
 11
224.4995371597851
 21
0.0
 31
0.0
  0
LINE
  5
A8
330
118
100
AcDbEntity
  8
1
 62
     7
100
AcDbLine
 10
219.9995371597851
 20
-1.802775637731993
 30
0.0
 11
219.9995371597851
 21
1.802775637731993
 31
0.0
  0
LINE
  5
A9
330
118
100
AcDbEntity
  8
1
 62
     7
100
AcDbLine
 10
221.196761522053
 20
3.0
 30
0.0
 11
224.802312797517
 21
3.0
 31
0.0
  0
LINE
  5
AA
330
118
100
AcDbEntity
  8
1
 62
     7
100
AcDbLine
 10
220.399537159785
 20
-4.1806392227619
 30
0.0
 11
220.399537159785
 21
-5.27706773014274
 31
0.0
  0
LINE
  5
AB
330
118
100
AcDbEntity
  8
1
 62
     7
100
AcDbLine
 10
221.399537159785
 20
-6.277067730142742
 30
0.0
 11
222.599537159785
 21
-6.277067730142742
 31
0.0
  0
LINE
  5
AC
330
118
100
AcDbEntity
  8
1
 62
     7
100
AcDbLine
 10
222.599537159785
 20
-5.377067730142743
 30
0.0
 11
222.599537159785
 21
-6.277067730142742
 31
0.0
  0
LINE
  5
AD
330
118
100
AcDbEntity
  8
1
 62
     7
100
AcDbLine
 10
221.6260717012996
 20
-5.377067730142741
 30
0.0
 11
222.599537159785
 21
-5.377067730142743
 31
0.0
  0
LINE
  5
AE
330
118
100
AcDbEntity
  8
1
 62
     7
100
AcDbLine
 10
222.599537159785
 20
-4.27706773014274
 30
0.0
 11
221.6428177609845
 21
-4.277067730142738
 31
0.0
  0
LINE
  5
AF
330
118
100
AcDbEntity
  8
1
 62
     7
100
AcDbLine
 10
222.599537159785
 20
-3.47706773014274
 30
0.0
 11
222.599537159785
 21
-4.27706773014274
 31
0.0
  0
LINE
  5
B0
330
118
100
AcDbEntity
  8
1
 62
     7
100
AcDbLine
 10
223.399537159785
 20
-4.27706773014274
 30
0.0
 11
223.399537159785
 21
-3.47706773014274
 31
0.0
  0
LINE
  5
B1
330
118
100
AcDbEntity
  8
1
 62
     7
100
AcDbLine
 10
224.3562565585857
 20
-4.277067730142738
 30
0.0
 11
223.399537159785
 21
-4.27706773014274
 31
0.0
  0
LINE
  5
B2
330
118
100
AcDbEntity
  8
1
 62
     7
100
AcDbLine
 10
223.399537159785
 20
-5.377067730142743
 30
0.0
 11
224.3730026182706
 21
-5.377067730142741
 31
0.0
  0
LINE
  5
B3
330
118
100
AcDbEntity
  8
1
 62
     7
100
AcDbLine
 10
223.399537159785
 20
-6.277067730142742
 30
0.0
 11
223.399537159785
 21
-5.377067730142743
 31
0.0
  0
LINE
  5
B4
330
118
100
AcDbEntity
  8
1
 62
     7
100
AcDbLine
 10
223.399537159785
 20
-6.277067730142742
 30
0.0
 11
224.599537159785
 21
-6.277067730142742
 31
0.0
  0
LINE
  5
B5
330
118
100
AcDbEntity
  8
1
 62
     7
100
AcDbLine
 10
225.5995371597851
 20
-5.27706773014274
 30
0.0
 11
225.5995371597851
 21
-4.1806392227619
 31
0.0
  0
ARC
  5
B6
330
118
100
AcDbEntity
  8
1
 62
     7
100
AcDbCircle
 10
0.0
 20
0.0
 30
0.0
 40
38.0
100
AcDbArc
 50
92.77540721255636
 51
87.22459278744361
  0
ARC
  5
B7
330
118
100
AcDbEntity
  8
1
 62
     7
100
AcDbCircle
 10
0.0
 20
0.6000000000000015
 30
0.0
 40
14.0
100
AcDbArc
 50
299.4003510102126
 51
240.5996489897872
  0
ARC
  5
B8
330
118
100
AcDbEntity
  8
1
 62
     7
100
AcDbCircle
 10
0.0
 20
0.1999999999999993
 30
0.0
 40
4.5
100
AcDbArc
 50
313.104673819896
 51
226.895326180104
  0
ARC
  5
B9
330
118
100
AcDbEntity
  8
1
 62
     7
100
AcDbCircle
 10
-1.356719398800642
 20
-4.827195198558635
 30
0.0
 40
0.550127468415897
100
AcDbArc
 50
90.0
 51
268.2556283080683
  0
ARC
  5
BA
330
118
100
AcDbEntity
  8
1
 62
     7
100
AcDbCircle
 10
1.356719398800642
 20
-4.827195198558635
 30
0.0
 40
0.5501274684158931
100
AcDbArc
 50
271.7443716919316
 51
90.0
  0
ARC
  5
BB
330
118
100
AcDbEntity
  8
1
  6
DASHDOT
 62
     3
100
AcDbCircle
 10
0.0
 20
0.0
 30
0.0
 40
33.0
100
AcDbArc
 50
39.35495089861666
 51
50.64504910138336
  0
ARC
  5
BC
330
118
100
AcDbEntity
  8
1
  6
DASHDOT
 62
     3
100
AcDbCircle
 10
0.0
 20
0.0
 30
0.0
 40
33.0
100
AcDbArc
 50
129.3549508986166
 51
140.6450491013833
  0
ARC
  5
BD
330
118
100
AcDbEntity
  8
1
  6
DASHDOT
 62
     3
100
AcDbCircle
 10
0.0
 20
0.0
 30
0.0
 40
33.0
100
AcDbArc
 50
219.3549508986166
 51
230.6450491013833
  0
ARC
  5
BE
330
118
100
AcDbEntity
  8
1
  6
DASHDOT
 62
     3
100
AcDbCircle
 10
0.0
 20
0.0
 30
0.0
 40
33.0
100
AcDbArc
 50
309.3549508986168
 51
320.6450491013832
  0
ARC
  5
BF
330
118
100
AcDbEntity
  8
1
  6
DASHDOT
 62
     3
100
AcDbCircle
 10
222.999537159785
 20
0.0
 30
0.0
 40
32.99999999999999
100
AcDbArc
 50
309.3549508986168
 51
320.6450491013832
  0
ARC
  5
C0
330
118
100
AcDbEntity
  8
1
  6
DASHDOT
 62
     3
100
AcDbCircle
 10
222.999537159785
 20
0.0
 30
0.0
 40
32.99999999999997
100
AcDbArc
 50
219.3549508986166
 51
230.6450491013835
  0
ARC
  5
C1
330
118
100
AcDbEntity
  8
1
  6
DASHDOT
 62
     3
100
AcDbCircle
 10
222.999537159785
 20
0.0
 30
0.0
 40
33.0
100
AcDbArc
 50
129.3549508986167
 51
140.6450491013833
  0
ARC
  5
C2
330
118
100
AcDbEntity
  8
1
  6
DASHDOT
 62
     3
100
AcDbCircle
 10
222.999537159785
 20
0.0
 30
0.0
 40
33.0
100
AcDbArc
 50
39.35495089861666
 51
50.64504910138332
  0
ARC
  5
C3
330
118
100
AcDbEntity
  8
1
 62
     7
100
AcDbCircle
 10
222.999537159785
 20
0.1999999999999993
 30
0.0
 40
4.500000000000007
100
AcDbArc
 50
313.1046738198962
 51
226.8953261801041
  0
ARC
  5
C4
330
118
100
AcDbEntity
  8
1
 62
     7
100
AcDbCircle
 10
221.6428177609845
 20
-4.827195198558635
 30
0.0
 40
0.550127468415897
100
AcDbArc
 50
90.0
 51
268.255628308058
  0
ARC
  5
C5
330
118
100
AcDbEntity
  8
1
 62
     7
100
AcDbCircle
 10
224.3562565585857
 20
-4.827195198558635
 30
0.0
 40
0.5501274684158953
100
AcDbArc
 50
271.744371691939
 51
90.0
  0
ARC
  5
C6
330
118
100
AcDbEntity
  8
1
 62
     7
100
AcDbCircle
 10
8.099999999999994
 20
-13.77497826085313
 30
0.0
 40
2.499999999999996
100
AcDbArc
 50
119.4003510102127
 51
180.0
  0
ARC
  5
C7
330
118
100
AcDbEntity
  8
1
 62
     7
100
AcDbCircle
 10
3.299999999999996
 20
-14.85616306954437
 30
0.0
 40
2.299999999999998
100
AcDbArc
 50
270.0
 51
0.0
  0
ARC
  5
C8
330
118
100
AcDbEntity
  8
1
 62
     7
100
AcDbCircle
 10
-3.299999999999996
 20
-14.85616306954437
 30
0.0
 40
2.299999999999996
100
AcDbArc
 50
180.0
 51
270.0
  0
ARC
  5
C9
330
118
100
AcDbEntity
  8
1
 62
     7
100
AcDbCircle
 10
-8.099999999999994
 20
-13.77497826085313
 30
0.0
 40
2.5
100
AcDbArc
 50
0.0
 51
60.59964898978716
  0
ARC
  5
CA
330
118
100
AcDbEntity
  8
1
 62
     7
100
AcDbCircle
 10
-1.6
 20
-5.27706773014274
 30
0.0
 40
1.0
100
AcDbArc
 50
180.0
 51
270.0
  0
ARC
  5
CB
330
118
100
AcDbEntity
  8
1
 62
     7
100
AcDbCircle
 10
-4.100000000000001
 20
-4.1806392227619
 30
0.0
 40
1.5
100
AcDbArc
 50
0.0
 51
46.89532618010395
  0
ARC
  5
CC
330
118
100
AcDbEntity
  8
1
 62
     7
100
AcDbCircle
 10
4.100000000000001
 20
-4.1806392227619
 30
0.0
 40
1.5
100
AcDbArc
 50
133.1046738198959
 51
180.0
  0
ARC
  5
CD
330
118
100
AcDbEntity
  8
1
 62
     7
100
AcDbCircle
 10
1.6
 20
-5.27706773014274
 30
0.0
 40
1.000000000000001
100
AcDbArc
 50
270.0
 51
0.0
  0
ARC
  5
CE
330
118
100
AcDbEntity
  8
1
 62
     7
100
AcDbCircle
 10
221.399537159785
 20
-5.27706773014274
 30
0.0
 40
1.0
100
AcDbArc
 50
180.0
 51
270.0
  0
ARC
  5
CF
330
118
100
AcDbEntity
  8
1
 62
     7
100
AcDbCircle
 10
218.899537159785
 20
-4.1806392227619
 30
0.0
 40
1.5
100
AcDbArc
 50
0.0
 51
46.89532618010368
  0
ARC
  5
D0
330
118
100
AcDbEntity
  8
1
 62
     7
100
AcDbCircle
 10
227.099537159785
 20
-4.1806392227619
 30
0.0
 40
1.499999999999984
100
AcDbArc
 50
133.1046738198953
 51
180.0
  0
ARC
  5
D1
330
118
100
AcDbEntity
  8
1
 62
     7
100
AcDbCircle
 10
224.599537159785
 20
-5.27706773014274
 30
0.0
 40
1.000000000000001
100
AcDbArc
 50
270.0
 51
0.0
  0
ARC
  5
D2
330
118
100
AcDbEntity
  8
1
  6
DASHDOT
 62
     3
100
AcDbCircle
 10
222.999537159785
 20
0.0
 30
0.0
 40
17.00000000000001
100
AcDbArc
 50
80.69065907836295
 51
99.30934092163708
  0
ARC
  5
D3
330
118
100
AcDbEntity
  8
1
  6
DASHDOT
 62
     3
100
AcDbCircle
 10
222.999537159785
 20
0.0
 30
0.0
 40
16.99999999999999
100
AcDbArc
 50
200.6906590783629
 51
219.3093409216372
  0
ARC
  5
D4
330
118
100
AcDbEntity
  8
1
  6
DASHDOT
 62
     3
100
AcDbCircle
 10
222.999537159785
 20
0.0
 30
0.0
 40
17.00000000000001
100
AcDbArc
 50
320.690659078363
 51
339.309340921637
  0
CIRCLE
  5
D5
330
118
100
AcDbEntity
  8
1
 62
     7
100
AcDbCircle
 10
237.7219690241203
 20
-8.499999999999968
 30
0.0
 40
1.62099999999998
  0
CIRCLE
  5
D6
330
118
100
AcDbEntity
  8
1
 62
     7
100
AcDbCircle
 10
208.2771052954496
 20
-8.500000000000035
 30
0.0
 40
1.621000000000007
  0
CIRCLE
  5
D7
330
118
100
AcDbEntity
  8
1
 62
     7
100
AcDbCircle
 10
222.999537159785
 20
17.00000000000001
 30
0.0
 40
1.621000000000007
  0
CIRCLE
  5
D8
330
118
100
AcDbEntity
  8
1
 62
     7
100
AcDbCircle
 10
222.999537159785
 20
0.0
 30
0.0
 40
9.5
  0
CIRCLE
  5
D9
330
118
100
AcDbEntity
  8
1
 62
     7
100
AcDbCircle
 10
0.0
 20
0.0
 30
0.0
 40
12.5
  0
CIRCLE
  5
DA
330
118
100
AcDbEntity
  8
1
 62
     7
100
AcDbCircle
 10
23.33452377915606
 20
-23.33452377915608
 30
0.0
 40
2.25
  0
CIRCLE
  5
DB
330
118
100
AcDbEntity
  8
1
 62
     7
100
AcDbCircle
 10
-23.33452377915606
 20
-23.33452377915607
 30
0.0
 40
2.25
  0
CIRCLE
  5
DC
330
118
100
AcDbEntity
  8
1
 62
     7
100
AcDbCircle
 10
-23.33452377915606
 20
23.33452377915608
 30
0.0
 40
2.25
  0
CIRCLE
  5
DD
330
118
100
AcDbEntity
  8
1
 62
     7
100
AcDbCircle
 10
23.33452377915606
 20
23.33452377915607
 30
0.0
 40
2.25
  0
CIRCLE
  5
DE
330
118
100
AcDbEntity
  8
1
 62
     7
100
AcDbCircle
 10
0.0
 20
0.0
 30
0.0
 40
27.0
  0
CIRCLE
  5
DF
330
118
100
AcDbEntity
  8
1
 62
     7
100
AcDbCircle
 10
0.0
 20
0.0
 30
0.0
 40
23.5
  0
CIRCLE
  5
E0
330
118
100
AcDbEntity
  8
1
 62
     7
100
AcDbCircle
 10
0.0
 20
0.0
 30
0.0
 40
9.499999999999996
  0
CIRCLE
  5
E1
330
118
100
AcDbEntity
  8
1
 62
     3
100
AcDbCircle
 10
237.7219690241203
 20
-8.499999999999968
 30
0.0
 40
2.0
  0
CIRCLE
  5
E2
330
118
100
AcDbEntity
  8
1
 62
     3
100
AcDbCircle
 10
208.2771052954496
 20
-8.500000000000035
 30
0.0
 40
2.0
  0
CIRCLE
  5
E3
330
118
100
AcDbEntity
  8
1
 62
     3
100
AcDbCircle
 10
222.999537159785
 20
17.00000000000001
 30
0.0
 40
2.0
  0
CIRCLE
  5
E4
330
118
100
AcDbEntity
  8
1
 62
     7
100
AcDbCircle
 10
222.999537159785
 20
0.0
 30
0.0
 40
27.0
  0
CIRCLE
  5
E5
330
118
100
AcDbEntity
  8
1
 62
     7
100
AcDbCircle
 10
222.999537159785
 20
0.0
 30
0.0
 40
23.5
  0
CIRCLE
  5
E6
330
118
100
AcDbEntity
  8
1
 62
     7
100
AcDbCircle
 10
222.999537159785
 20
0.0
 30
0.0
 40
21.0
  0
CIRCLE
  5
E7
330
118
100
AcDbEntity
  8
1
 62
     7
100
AcDbCircle
 10
0.0
 20
0.0
 30
0.0
 40
3.5
  0
CIRCLE
  5
E8
330
118
100
AcDbEntity
  8
1
 62
     7
100
AcDbCircle
 10
2.865803357314162
 20
-15.08805755395684
 30
0.0
 40
1.0
  0
CIRCLE
  5
E9
330
118
100
AcDbEntity
  8
1
 62
     7
100
AcDbCircle
 10
-2.865803357314162
 20
-15.08805755395684
 30
0.0
 40
1.0
  0
CIRCLE
  5
EA
330
118
100
AcDbEntity
  8
1
 62
     7
100
AcDbCircle
 10
246.334060938941
 20
-23.33452377915608
 30
0.0
 40
2.25
  0
CIRCLE
  5
EB
330
118
100
AcDbEntity
  8
1
 62
     7
100
AcDbCircle
 10
199.665013380629
 20
-23.33452377915607
 30
0.0
 40
2.25
  0
CIRCLE
  5
EC
330
118
100
AcDbEntity
  8
1
 62
     7
100
AcDbCircle
 10
199.665013380629
 20
23.33452377915608
 30
0.0
 40
2.25
  0
CIRCLE
  5
ED
330
118
100
AcDbEntity
  8
1
 62
     7
100
AcDbCircle
 10
246.334060938941
 20
23.33452377915607
 30
0.0
 40
2.25
  0
CIRCLE
  5
EE
330
118
100
AcDbEntity
  8
1
 62
     7
100
AcDbCircle
 10
222.999537159785
 20
0.0
 30
0.0
 40
3.5
  0
CIRCLE
  5
EF
330
118
100
AcDbEntity
  8
1
 62
     7
100
AcDbCircle
 10
222.999537159785
 20
0.0
 30
0.0
 40
38.00000000000002
  0
TEXT
  5
F1
330
118
100
AcDbEntity
  8
1
 62
     7
100
AcDbText
 10
-41.39495712145448
 20
63.2721188828787
 30
0.0
 40
4.0
  1
OPC 10
 41
0.9
  7
SIMPLEX
 72
     1
 11
-31.7092428357402
 21
63.2721188828787
 31
0.0
100
AcDbText
  0
ENDSEC
  0
SECTION
  2
OBJECTS
  0
DICTIONARY
  5
104
330
0
100
AcDbDictionary
281
     1
  3
ACAD_COLOR
350
113
  3
ACAD_GROUP
350
105
  3
ACAD_LAYOUT
350
111
  3
ACAD_MATERIAL
350
112
  3
ACAD_MLINESTYLE
350
10E
  3
ACAD_PLOTSETTINGS
350
110
  3
ACAD_PLOTSTYLENAME
350
106
  0
DICTIONARY
  5
113
102
{ACAD_REACTORS
330
104
102
}
330
104
100
AcDbDictionary
281
     1
  0
DICTIONARY
  5
105
102
{ACAD_REACTORS
330
104
102
}
330
104
100
AcDbDictionary
281
     1
  0
DICTIONARY
  5
111
102
{ACAD_REACTORS
330
104
102
}
330
104
100
AcDbDictionary
281
     1
  3
Layout1
350
117
  3
Model
350
11B
  0
DICTIONARY
  5
112
102
{ACAD_REACTORS
330
104
102
}
330
104
100
AcDbDictionary
281
     1
  0
DICTIONARY
  5
10E
102
{ACAD_REACTORS
330
104
102
}
330
104
100
AcDbDictionary
281
     1
  3
Standard
350
10F
  0
DICTIONARY
  5
110
102
{ACAD_REACTORS
330
104
102
}
330
104
100
AcDbDictionary
281
     1
  0
ACDBDICTIONARYWDFLT
  5
106
102
{ACAD_REACTORS
330
104
102
}
330
104
100
AcDbDictionary
281
     1
  3
Normal
350
107
100
AcDbDictionaryWithDefault
340
107
  0
LAYOUT
  5
117
102
{ACAD_REACTORS
330
111
102
}
330
111
100
AcDbPlotSettings
  1

  2
\\Ogura1\HP Color LaserJet 4600 PCL 5c
  4

  6

 40
0.0
 41
0.0
 42
0.0
 43
0.0
 44
0.0
 45
0.0
 46
0.0
 47
0.0
 48
0.0
 49
0.0
140
0.0
141
0.0
142
1.0
143
1.0
 70
   688
 72
     0
 73
     0
 74
     5
  7

 75
    16
147
1.0
 76
     0
 77
     2
 78
   300
148
0.0
149
0.0
100
AcDbLayout
  1
Layout1
 70
     1
 71
     1
 10
0.0
 20
0.0
 11
12.0
 21
9.0
 12
0.0
 22
0.0
 32
0.0
 14
1.000000000000000E+20
 24
1.000000000000000E+20
 34
1.000000000000000E+20
 15
-1.000000000000000E+20
 25
-1.000000000000000E+20
 35
-1.000000000000000E+20
146
0.0
 13
0.0
 23
0.0
 33
0.0
 16
1.0
 26
0.0
 36
0.0
 17
0.0
 27
1.0
 37
0.0
 76
     0
330
114
  0
LAYOUT
  5
11B
102
{ACAD_REACTORS
330
111
102
}
330
111
100
AcDbPlotSettings
  1

  2
\\Ogura1\HP Color LaserJet 4600 PCL 5c
  4

  6

 40
0.0
 41
0.0
 42
0.0
 43
0.0
 44
0.0
 45
0.0
 46
0.0
 47
0.0
 48
0.0
 49
0.0
140
0.0
141
0.0
142
1.0
143
1.0
 70
  1712
 72
     0
 73
     0
 74
     0
  7

 75
     0
147
1.0
 76
     0
 77
     2
 78
   300
148
0.0
149
0.0
100
AcDbLayout
  1
Model
 70
     1
 71
     0
 10
0.0
 20
0.0
 11
12.0
 21
9.0
 12
0.0
 22
0.0
 32
0.0
 14
0.0
 24
0.0
 34
0.0
 15
0.0
 25
0.0
 35
0.0
146
0.0
 13
0.0
 23
0.0
 33
0.0
 16
1.0
 26
0.0
 36
0.0
 17
0.0
 27
1.0
 37
0.0
 76
     0
330
118
  0
MLINESTYLE
  5
10F
102
{ACAD_REACTORS
330
10E
102
}
330
10E
100
AcDbMlineStyle
  2
STANDARD
 70
     0
  3

 62
   256
 51
90.0
 52
90.0
 71
     2
 49
0.5
 62
   256
  6
BYLAYER
 49
-0.5
 62
   256
  6
BYLAYER
  0
ACDBPLACEHOLDER
  5
107
102
{ACAD_REACTORS
330
106
102
}
330
106
  0
ENDSEC
  0
EOF
