  0
SECTION
  2
HEADER
  9
$ACADVER
  1
AC1018
  9
$ACADMAINTVER
 70
     0
  9
$DWGCODEPAGE
  3
ANSI_932
  9
$INSBASE
 10
0.0
 20
0.0
 30
0.0
  9
$EXTMIN
 10
-69.16955026812161
 20
-64.00491371733796
 30
-0.0015258207003583
  9
$EXTMAX
 10
367.0133379045036
 20
97.02988924012551
 30
0.0000000349246037
  9
$LIMMIN
 10
-70.02311205236638
 20
-64.00000000000004
  9
$LIMMAX
 10
366.9999999999998
 20
97.02497477295652
  9
$ORTHOMODE
 70
     0
  9
$REGENMODE
 70
     1
  9
$FILLMODE
 70
     1
  9
$QTEXTMODE
 70
     0
  9
$MIRRTEXT
 70
     1
  9
$LTSCALE
 40
1.0
  9
$ATTMODE
 70
     1
  9
$TEXTSIZE
 40
3.5
  9
$TRACEWID
 40
0.5
  9
$TEXTSTYLE
  7
STANDARD
  9
$CLAYER
  8
0
  9
$CELTYPE
  6
ByLayer
  9
$CECOLOR
 62
   256
  9
$CELTSCALE
 40
1.0
  9
$DISPSILH
 70
     0
  9
$DIMSCALE
 40
1.0
  9
$DIMASZ
 40
0.18
  9
$DIMEXO
 40
0.0625
  9
$DIMDLI
 40
0.38
  9
$DIMRND
 40
0.0
  9
$DIMDLE
 40
0.0
  9
$DIMEXE
 40
0.18
  9
$DIMTP
 40
0.0
  9
$DIMTM
 40
0.0
  9
$DIMTXT
 40
0.18
  9
$DIMCEN
 40
0.09
  9
$DIMTSZ
 40
0.0
  9
$DIMTOL
 70
     0
  9
$DIMLIM
 70
     0
  9
$DIMTIH
 70
     1
  9
$DIMTOH
 70
     1
  9
$DIMSE1
 70
     0
  9
$DIMSE2
 70
     0
  9
$DIMTAD
 70
     0
  9
$DIMZIN
 70
     0
  9
$DIMBLK
  1

  9
$DIMASO
 70
     1
  9
$DIMSHO
 70
     1
  9
$DIMPOST
  1

  9
$DIMAPOST
  1

  9
$DIMALT
 70
     0
  9
$DIMALTD
 70
     2
  9
$DIMALTF
 40
25.4
  9
$DIMLFAC
 40
1.0
  9
$DIMTOFL
 70
     0
  9
$DIMTVP
 40
0.0
  9
$DIMTIX
 70
     0
  9
$DIMSOXD
 70
     0
  9
$DIMSAH
 70
     0
  9
$DIMBLK1
  1

  9
$DIMBLK2
  1

  9
$DIMSTYLE
  2
STANDARD
  9
$DIMCLRD
 70
     0
  9
$DIMCLRE
 70
     0
  9
$DIMCLRT
 70
     0
  9
$DIMTFAC
 40
1.0
  9
$DIMGAP
 40
0.09
  9
$DIMJUST
 70
     0
  9
$DIMSD1
 70
     0
  9
$DIMSD2
 70
     0
  9
$DIMTOLJ
 70
     1
  9
$DIMTZIN
 70
     0
  9
$DIMALTZ
 70
     0
  9
$DIMALTTZ
 70
     0
  9
$DIMUPT
 70
     0
  9
$DIMDEC
 70
     4
  9
$DIMTDEC
 70
     4
  9
$DIMALTU
 70
     2
  9
$DIMALTTD
 70
     2
  9
$DIMTXSTY
  7
STANDARD
  9
$DIMAUNIT
 70
     0
  9
$DIMADEC
 70
     0
  9
$DIMALTRND
 40
0.0
  9
$DIMAZIN
 70
     0
  9
$DIMDSEP
 70
    46
  9
$DIMATFIT
 70
     3
  9
$DIMFRAC
 70
     0
  9
$DIMLDRBLK
  1

  9
$DIMLUNIT
 70
     2
  9
$DIMLWD
 70
    -2
  9
$DIMLWE
 70
    -2
  9
$DIMTMOVE
 70
     0
  9
$LUNITS
 70
     2
  9
$LUPREC
 70
     4
  9
$SKETCHINC
 40
0.1
  9
$FILLETRAD
 40
2.0
  9
$AUNITS
 70
     0
  9
$AUPREC
 70
     0
  9
$MENU
  1
ACAD
  9
$ELEVATION
 40
0.0
  9
$PELEVATION
 40
0.0
  9
$THICKNESS
 40
0.0
  9
$LIMCHECK
 70
     0
  9
$CHAMFERA
 40
0.0
  9
$CHAMFERB
 40
0.0
  9
$CHAMFERC
 40
0.0
  9
$CHAMFERD
 40
0.0
  9
$SKPOLY
 70
     0
  9
$TDCREATE
 40
2452095.120143055
  9
$TDUCREATE
 40
2452095.286809722
  9
$TDUPDATE
 40
2453209.453408704
  9
$TDUUPDATE
 40
2453209.620075370
  9
$TDINDWG
 40
0.0006115394
  9
$TDUSRTIMER
 40
0.0006115394
  9
$USRTIMER
 70
     1
  9
$ANGBASE
 50
0.0
  9
$ANGDIR
 70
     0
  9
$PDMODE
 70
     0
  9
$PDSIZE
 40
0.0
  9
$PLINEWID
 40
0.0
  9
$SPLFRAME
 70
     0
  9
$SPLINETYPE
 70
     6
  9
$SPLINESEGS
 70
     8
  9
$HANDSEED
  5
101
  9
$SURFTAB1
 70
     6
  9
$SURFTAB2
 70
     6
  9
$SURFTYPE
 70
     6
  9
$SURFU
 70
     6
  9
$SURFV
 70
     6
  9
$UCSBASE
  2

  9
$UCSNAME
  2

  9
$UCSORG
 10
0.0
 20
0.0
 30
0.0
  9
$UCSXDIR
 10
1.0
 20
0.0
 30
0.0
  9
$UCSYDIR
 10
0.0
 20
1.0
 30
0.0
  9
$UCSORTHOREF
  2

  9
$UCSORTHOVIEW
 70
     0
  9
$UCSORGTOP
 10
0.0
 20
0.0
 30
0.0
  9
$UCSORGBOTTOM
 10
0.0
 20
0.0
 30
0.0
  9
$UCSORGLEFT
 10
0.0
 20
0.0
 30
0.0
  9
$UCSORGRIGHT
 10
0.0
 20
0.0
 30
0.0
  9
$UCSORGFRONT
 10
0.0
 20
0.0
 30
0.0
  9
$UCSORGBACK
 10
0.0
 20
0.0
 30
0.0
  9
$PUCSBASE
  2

  9
$PUCSNAME
  2

  9
$PUCSORG
 10
0.0
 20
0.0
 30
0.0
  9
$PUCSXDIR
 10
1.0
 20
0.0
 30
0.0
  9
$PUCSYDIR
 10
0.0
 20
1.0
 30
0.0
  9
$PUCSORTHOREF
  2

  9
$PUCSORTHOVIEW
 70
     0
  9
$PUCSORGTOP
 10
0.0
 20
0.0
 30
0.0
  9
$PUCSORGBOTTOM
 10
0.0
 20
0.0
 30
0.0
  9
$PUCSORGLEFT
 10
0.0
 20
0.0
 30
0.0
  9
$PUCSORGRIGHT
 10
0.0
 20
0.0
 30
0.0
  9
$PUCSORGFRONT
 10
0.0
 20
0.0
 30
0.0
  9
$PUCSORGBACK
 10
0.0
 20
0.0
 30
0.0
  9
$USERI1
 70
     0
  9
$USERI2
 70
     0
  9
$USERI3
 70
     0
  9
$USERI4
 70
     0
  9
$USERI5
 70
     0
  9
$USERR1
 40
0.0
  9
$USERR2
 40
0.0
  9
$USERR3
 40
0.0
  9
$USERR4
 40
0.0
  9
$USERR5
 40
0.0
  9
$WORLDVIEW
 70
     1
  9
$SHADEDGE
 70
     3
  9
$SHADEDIF
 70
    70
  9
$TILEMODE
 70
     1
  9
$MAXACTVP
 70
    64
  9
$PINSBASE
 10
0.0
 20
0.0
 30
0.0
  9
$PLIMCHECK
 70
     0
  9
$PEXTMIN
 10
1.000000000000000E+20
 20
1.000000000000000E+20
 30
1.000000000000000E+20
  9
$PEXTMAX
 10
-1.000000000000000E+20
 20
-1.000000000000000E+20
 30
-1.000000000000000E+20
  9
$PLIMMIN
 10
0.0
 20
0.0
  9
$PLIMMAX
 10
12.0
 20
9.0
  9
$UNITMODE
 70
     0
  9
$VISRETAIN
 70
     1
  9
$PLINEGEN
 70
     0
  9
$PSLTSCALE
 70
     1
  9
$TREEDEPTH
 70
  3020
  9
$CMLSTYLE
  2
Standard
  9
$CMLJUST
 70
     0
  9
$CMLSCALE
 40
1.0
  9
$PROXYGRAPHICS
 70
     1
  9
$MEASUREMENT
 70
     0
  9
$CELWEIGHT
370
    -1
  9
$ENDCAPS
280
     0
  9
$JOINSTYLE
280
     0
  9
$LWDISPLAY
290
     0
  9
$INSUNITS
 70
     0
  9
$HYPERLINKBASE
  1

  9
$STYLESHEET
  1

  9
$XEDIT
290
     1
  9
$CEPSNTYPE
380
     0
  9
$PSTYLEMODE
290
     1
  9
$FINGERPRINTGUID
  2
{70E65BC4-4A88-4C75-9B83-90915CD0C671}
  9
$VERSIONGUID
  2
{0656AC0A-981A-4079-B546-4C6F75AADC18}
  9
$EXTNAMES
290
     1
  9
$PSVPSCALE
 40
0.0
  9
$OLESTARTUP
290
     0
  9
$SORTENTS
280
   127
  9
$INDEXCTL
280
     0
  9
$HIDETEXT
280
     0
  9
$XCLIPFRAME
290
     0
  9
$HALOGAP
280
     0
  9
$OBSCOLOR
 70
   257
  9
$OBSLTYPE
280
     0
  9
$INTERSECTIONDISPLAY
280
     0
  9
$INTERSECTIONCOLOR
 70
   257
  9
$DIMASSOC
280
     1
  9
$PROJECTNAME
  1

  0
ENDSEC
  0
SECTION
  2
CLASSES
  0
CLASS
  1
ACDBDICTIONARYWDFLT
  2
AcDbDictionaryWithDefault
  3
ObjectDBX Classes
 90
        0
 91
        1
280
     0
281
     0
  0
ENDSEC
  0
SECTION
  2
TABLES
  0
TABLE
  2
VPORT
  5
CE
330
0
100
AcDbSymbolTable
 70
     2
  0
VPORT
  5
100
330
CE
100
AcDbSymbolTableRecord
100
AcDbViewportTableRecord
  2
*Active
 70
     0
 10
0.0
 20
0.0
 11
1.0
 21
1.0
 12
148.921893818191
 22
16.51248776139377
 13
0.0
 23
0.0
 14
1.0
 24
1.0
 15
0.0
 25
0.0
 16
0.0
 26
0.0
 36
1.0
 17
0.0
 27
0.0
 37
0.0
 40
269.9105999472977
 41
1.625
 42
50.0
 43
0.0
 44
0.0
 50
0.0
 51
0.0
 71
     0
 72
   100
 73
     1
 74
     1
 75
     0
 76
     0
 77
     0
 78
     0
281
     0
 65
     1
110
0.0
120
0.0
130
0.0
111
1.0
121
0.0
131
0.0
112
0.0
122
1.0
132
0.0
 79
     0
146
0.0
  0
ENDTAB
  0
TABLE
  2
LTYPE
  5
CB
330
0
100
AcDbSymbolTable
 70
     9
  0
LTYPE
  5
D9
330
CB
100
AcDbSymbolTableRecord
100
AcDbLinetypeTableRecord
  2
ByBlock
 70
     0
  3

 72
    65
 73
     0
 40
0.0
  0
LTYPE
  5
DA
330
CB
100
AcDbSymbolTableRecord
100
AcDbLinetypeTableRecord
  2
ByLayer
 70
     0
  3

 72
    65
 73
     0
 40
0.0
  0
LTYPE
  5
DB
330
CB
100
AcDbSymbolTableRecord
100
AcDbLinetypeTableRecord
  2
CONTINUOUS
 70
     0
  3
Solid line
 72
    65
 73
     0
 40
0.0
  0
LTYPE
  5
EB
330
CB
100
AcDbSymbolTableRecord
100
AcDbLinetypeTableRecord
  2
BORDER
 70
     0
  3
__ __ . __ __ .
 72
    65
 73
     6
 40
20.12606437083265
 49
5.750304105952185
 74
     0
 49
-2.875152052976092
 74
     0
 49
5.750304105952185
 74
     0
 49
-2.875152052976092
 74
     0
 49
0.0
 74
     0
 49
-2.875152052976092
 74
     0
  0
LTYPE
  5
EC
330
CB
100
AcDbSymbolTableRecord
100
AcDbLinetypeTableRecord
  2
CENTER
 70
     0
  3
____ _ ____ _
 72
    65
 73
     4
 40
23.00121642380875
 49
14.37576026488046
 74
     0
 49
-2.875152052976092
 74
     0
 49
2.875152052976092
 74
     0
 49
-2.875152052976092
 74
     0
  0
LTYPE
  5
ED
330
CB
100
AcDbSymbolTableRecord
100
AcDbLinetypeTableRecord
  2
DASHDOT
 70
     0
  3
__ . __ . __ .
 72
    65
 73
     4
 40
11.50060821190436
 49
5.750304105952185
 74
     0
 49
-2.875152052976092
 74
     0
 49
0.0
 74
     0
 49
-2.875152052976092
 74
     0
  0
LTYPE
  5
EE
330
CB
100
AcDbSymbolTableRecord
100
AcDbLinetypeTableRecord
  2
DASHED
 70
     0
  3
__ __ __ __ __
 72
    65
 73
     2
 40
8.62545615892828
 49
5.750304105952185
 74
     0
 49
-2.875152052976092
 74
     0
  0
LTYPE
  5
EF
330
CB
100
AcDbSymbolTableRecord
100
AcDbLinetypeTableRecord
  2
DIVIDE
 70
     0
  3
__ . . __ . . 
 72
    65
 73
     6
 40
14.37576026488046
 49
5.750304105952185
 74
     0
 49
-2.875152052976092
 74
     0
 49
0.0
 74
     0
 49
-2.875152052976092
 74
     0
 49
0.0
 74
     0
 49
-2.875152052976092
 74
     0
  0
LTYPE
  5
F0
330
CB
100
AcDbSymbolTableRecord
100
AcDbLinetypeTableRecord
  2
DOT
 70
     0
  3
..............
 72
    65
 73
     4
 40
5.750304105952185
 49
0.0
 74
     0
 49
-2.875152052976092
 74
     0
 49
0.0
 74
     0
 49
-2.875152052976092
 74
     0
  0
LTYPE
  5
F1
330
CB
100
AcDbSymbolTableRecord
100
AcDbLinetypeTableRecord
  2
HIDDEN
 70
     0
  3
_ _ _ _ _ _ _
 72
    65
 73
     2
 40
4.31272807946414
 49
2.875152052976092
 74
     0
 49
-1.437576026488047
 74
     0
  0
LTYPE
  5
F2
330
CB
100
AcDbSymbolTableRecord
100
AcDbLinetypeTableRecord
  2
PHANTOM
 70
     0
  3
_____ _ _ _____ _ _ 
 72
    65
 73
     6
 40
28.75152052976093
 49
14.37576026488046
 74
     0
 49
-2.875152052976092
 74
     0
 49
2.875152052976092
 74
     0
 49
-2.875152052976092
 74
     0
 49
2.875152052976092
 74
     0
 49
-2.875152052976092
 74
     0
  0
ENDTAB
  0
TABLE
  2
LAYER
  5
C8
330
0
100
AcDbSymbolTable
 70
     2
  0
LAYER
  5
D6
330
C8
100
AcDbSymbolTableRecord
100
AcDbLayerTableRecord
  2
0
 70
     0
 62
     7
  6
CONTINUOUS
370
    -3
390
D5
  0
LAYER
  5
F3
330
C8
100
AcDbSymbolTableRecord
100
AcDbLayerTableRecord
  2
1
 70
     0
 62
     7
  6
CONTINUOUS
370
    -3
390
D5
  0
ENDTAB
  0
TABLE
  2
STYLE
  5
C9
330
0
100
AcDbSymbolTable
 70
     4
  0
STYLE
  5
D7
330
C9
100
AcDbSymbolTableRecord
100
AcDbTextStyleTableRecord
  2
STANDARD
 70
     0
 40
0.0
 41
1.0
 50
0.0
 71
     0
 42
3.5
  3
txt
  4

  0
STYLE
  5
F4
330
C9
100
AcDbSymbolTableRecord
100
AcDbTextStyleTableRecord
  2
SIMPLEX
 70
     0
 40
0.0
 41
1.0
 50
0.0
 71
     0
 42
3.5
  3
simplex
  4

  0
STYLE
  5
F5
330
C9
100
AcDbSymbolTableRecord
100
AcDbTextStyleTableRecord
  2
COMPLEX
 70
     0
 40
0.0
 41
1.0
 50
0.0
 71
     0
 42
3.5
  3
complex
  4

  0
STYLE
  5
F6
330
C9
100
AcDbSymbolTableRecord
100
AcDbTextStyleTableRecord
  2
ITALIC
 70
     0
 40
0.0
 41
1.0
 50
0.0
 71
     0
 42
3.5
  3
italic
  4

  0
ENDTAB
  0
TABLE
  2
VIEW
  5
CC
330
0
100
AcDbSymbolTable
 70
     0
  0
ENDTAB
  0
TABLE
  2
UCS
  5
CD
330
0
100
AcDbSymbolTable
 70
     0
  0
ENDTAB
  0
TABLE
  2
APPID
  5
CF
330
0
100
AcDbSymbolTable
 70
     1
  0
APPID
  5
D8
330
CF
100
AcDbSymbolTableRecord
100
AcDbRegAppTableRecord
  2
ACAD
 70
     0
  0
ENDTAB
  0
TABLE
  2
DIMSTYLE
  5
D0
330
0
100
AcDbSymbolTable
 70
     1
100
AcDbDimStyleTable
 71
     0
  0
DIMSTYLE
105
F7
330
D0
100
AcDbSymbolTableRecord
100
AcDbDimStyleTableRecord
  2
STANDARD
 70
     0
279
     2
340
D7
  0
ENDTAB
  0
TABLE
  2
BLOCK_RECORD
  5
C7
330
0
100
AcDbSymbolTable
 70
     2
  0
BLOCK_RECORD
  5
E6
330
C7
100
AcDbSymbolTableRecord
100
AcDbBlockTableRecord
  2
*Model_Space
340
E9
  0
BLOCK_RECORD
  5
E2
330
C7
100
AcDbSymbolTableRecord
100
AcDbBlockTableRecord
  2
*Paper_Space
340
E5
  0
BLOCK_RECORD
  5
FC
330
C7
100
AcDbSymbolTableRecord
100
AcDbBlockTableRecord
  2
$MODEL_SPACE
340
0
  0
BLOCK_RECORD
  5
FE
330
C7
100
AcDbSymbolTableRecord
100
AcDbBlockTableRecord
  2
$PAPER_SPACE
340
0
  0
ENDTAB
  0
ENDSEC
  0
SECTION
  2
BLOCKS
  0
BLOCK
  5
E7
330
E6
100
AcDbEntity
  8
0
100
AcDbBlockBegin
  2
*Model_Space
 70
     0
 10
0.0
 20
0.0
 30
0.0
  3
*Model_Space
  1

  0
ENDBLK
  5
E8
330
E6
100
AcDbEntity
  8
0
100
AcDbBlockEnd
  0
BLOCK
  5
E3
330
E2
100
AcDbEntity
 67
     1
  8
0
100
AcDbBlockBegin
  2
*Paper_Space
 70
     0
 10
0.0
 20
0.0
 30
0.0
  3
*Paper_Space
  1

  0
ENDBLK
  5
E4
330
E2
100
AcDbEntity
 67
     1
  8
0
100
AcDbBlockEnd
  0
BLOCK
  5
FD
330
FC
100
AcDbEntity
  8
0
100
AcDbBlockBegin
  2
$MODEL_SPACE
 70
     0
 10
0.0
 20
0.0
 30
0.0
  3
$MODEL_SPACE
  1

  0
ENDBLK
  5
20
330
FC
100
AcDbEntity
  8
0
100
AcDbBlockEnd
  0
BLOCK
  5
FF
330
FE
100
AcDbEntity
  8
0
100
AcDbBlockBegin
  2
$PAPER_SPACE
 70
     0
 10
0.0
 20
0.0
 30
0.0
  3
$PAPER_SPACE
  1

  0
ENDBLK
  5
1C
330
FE
100
AcDbEntity
  8
0
100
AcDbBlockEnd
  0
ENDSEC
  0
SECTION
  2
ENTITIES
  0
LINE
  5
33
330
E6
100
AcDbEntity
  8
1
 62
     7
100
AcDbLine
 10
307.3999999999998
 20
-8.222131261775698
 30
0.0
 11
307.3999999999998
 21
-8.967261881037787
 31
0.0
  0
LINE
  5
34
330
E6
100
AcDbEntity
  8
1
 62
     7
100
AcDbLine
 10
303.6999999999998
 20
-10.96726188103778
 30
0.0
 11
305.3999999999998
 21
-10.96726188103778
 31
0.0
  0
LINE
  5
35
330
E6
100
AcDbEntity
  8
1
 62
     7
100
AcDbLine
 10
303.6999999999998
 20
-10.96726188103778
 30
0.0
 11
303.6999999999998
 21
-7.467261881037785
 31
0.0
  0
LINE
  5
36
330
E6
100
AcDbEntity
  8
1
 62
     7
100
AcDbLine
 10
302.2999999999997
 20
-7.467261881037785
 30
0.0
 11
302.2999999999997
 21
-10.96726188103778
 31
0.0
  0
LINE
  5
37
330
E6
100
AcDbEntity
  8
1
 62
     7
100
AcDbLine
 10
300.5999999999999
 20
-10.96726188103778
 30
0.0
 11
302.2999999999997
 21
-10.96726188103778
 31
0.0
  0
LINE
  5
38
330
E6
100
AcDbEntity
  8
1
 62
     7
100
AcDbLine
 10
298.5999999999999
 20
-8.967261881037787
 30
0.0
 11
298.5999999999999
 21
-8.222131261775698
 31
0.0
  0
LINE
  5
39
330
E6
100
AcDbEntity
  8
1
 62
     7
100
AcDbLine
 10
4.400000000000004
 20
-8.222131261775698
 30
0.0
 11
4.400000000000004
 21
-8.967261881037787
 31
0.0
  0
LINE
  5
3A
330
E6
100
AcDbEntity
  8
1
 62
     7
100
AcDbLine
 10
0.700000000000003
 20
-10.96726188103778
 30
0.0
 11
2.400000000000006
 21
-10.96726188103778
 31
0.0
  0
LINE
  5
3B
330
E6
100
AcDbEntity
  8
1
 62
     7
100
AcDbLine
 10
0.700000000000003
 20
-10.96726188103778
 30
0.0
 11
0.700000000000003
 21
-7.467261881037785
 31
0.0
  0
LINE
  5
3C
330
E6
100
AcDbEntity
  8
1
 62
     7
100
AcDbLine
 10
-0.700000000000003
 20
-7.467261881037785
 30
0.0
 11
-0.700000000000003
 21
-10.96726188103778
 31
0.0
  0
LINE
  5
3D
330
E6
100
AcDbEntity
  8
1
 62
     7
100
AcDbLine
 10
-2.400000000000006
 20
-10.96726188103778
 30
0.0
 11
-0.700000000000003
 21
-10.96726188103778
 31
0.0
  0
LINE
  5
3E
330
E6
100
AcDbEntity
  8
1
 62
     7
100
AcDbLine
 10
-4.400000000000004
 20
-8.967261881037787
 30
0.0
 11
-4.400000000000004
 21
-8.222131261775698
 31
0.0
  0
LINE
  5
3F
330
E6
100
AcDbEntity
  8
1
  6
DASHDOT
 62
     3
100
AcDbLine
 10
101.0
 20
0.0
 30
0.0
 11
104.0
 21
0.0
 31
0.0
  0
LINE
  5
40
330
E6
100
AcDbEntity
  8
1
  6
DASHDOT
 62
     3
100
AcDbLine
 10
198.9999999999998
 20
0.0
 30
0.0
 11
201.9999999999998
 21
0.0
 31
0.0
  0
LINE
  5
41
330
E6
100
AcDbEntity
  8
1
 62
     7
100
AcDbLine
 10
297.4999999999997
 20
5.099019513592783
 30
0.0
 11
297.4999999999997
 21
-5.099019513592783
 31
0.0
  0
LINE
  5
42
330
E6
100
AcDbEntity
  8
1
 62
     7
100
AcDbLine
 10
308.0990195135926
 20
5.5
 30
0.0
 11
297.9009804864069
 21
5.5
 31
0.0
  0
LINE
  5
43
330
E6
100
AcDbEntity
  8
1
 62
     7
100
AcDbLine
 10
106.0
 20
-6.999999999999999
 30
0.0
 11
105.85
 21
-6.999999999999999
 31
0.0
  0
LINE
  5
44
330
E6
100
AcDbEntity
  8
1
 62
     7
100
AcDbLine
 10
156.15
 20
-7.0
 30
0.0
 11
156.0
 21
-7.0
 31
0.0
  0
LINE
  5
45
330
E6
100
AcDbEntity
  8
1
 62
     7
100
AcDbLine
 10
156.0
 20
7.0
 30
0.0
 11
156.15
 21
7.0
 31
0.0
  0
LINE
  5
46
330
E6
100
AcDbEntity
  8
1
 62
     7
100
AcDbLine
 10
106.0
 20
-10.96726188103778
 30
0.0
 11
107.0
 21
-10.96726188103778
 31
0.0
  0
LINE
  5
47
330
E6
100
AcDbEntity
  8
1
 62
     7
100
AcDbLine
 10
106.0
 20
9.299999999999997
 30
0.0
 11
107.0
 21
9.299999999999997
 31
0.0
  0
LINE
  5
48
330
E6
100
AcDbEntity
  8
1
 62
     7
100
AcDbLine
 10
106.0
 20
9.299999999999997
 30
0.0
 11
106.0
 21
-10.96726188103778
 31
0.0
  0
LINE
  5
49
330
E6
100
AcDbEntity
  8
1
 62
     7
100
AcDbLine
 10
105.85
 20
7.5
 30
0.0
 11
105.85
 21
-7.5
 31
0.0
  0
LINE
  5
4A
330
E6
100
AcDbEntity
  8
1
 62
     7
100
AcDbLine
 10
104.0
 20
-7.5
 30
0.0
 11
104.0
 21
7.5
 31
0.0
  0
LINE
  5
4B
330
E6
100
AcDbEntity
  8
1
 62
     7
100
AcDbLine
 10
105.85
 20
7.0
 30
0.0
 11
106.0
 21
7.0
 31
0.0
  0
LINE
  5
4C
330
E6
100
AcDbEntity
  8
1
 62
     7
100
AcDbLine
 10
104.0
 20
7.5
 30
0.0
 11
105.85
 21
7.5
 31
0.0
  0
LINE
  5
4D
330
E6
100
AcDbEntity
  8
1
 62
     7
100
AcDbLine
 10
105.85
 20
-7.5
 30
0.0
 11
104.0
 21
-7.5
 31
0.0
  0
LINE
  5
4E
330
E6
100
AcDbEntity
  8
1
 62
     7
100
AcDbLine
 10
156.0
 20
-10.96726188103778
 30
0.0
 11
156.0
 21
9.299999999999997
 31
0.0
  0
LINE
  5
4F
330
E6
100
AcDbEntity
  8
1
 62
     7
100
AcDbLine
 10
156.0
 20
-10.96726188103778
 30
0.0
 11
155.0
 21
-10.96726188103778
 31
0.0
  0
LINE
  5
50
330
E6
100
AcDbEntity
  8
1
 62
     7
100
AcDbLine
 10
156.0
 20
9.299999999999997
 30
0.0
 11
155.0
 21
9.299999999999997
 31
0.0
  0
LINE
  5
51
330
E6
100
AcDbEntity
  8
1
 62
     7
100
AcDbLine
 10
156.15
 20
7.5
 30
0.0
 11
156.15
 21
-7.5
 31
0.0
  0
LINE
  5
52
330
E6
100
AcDbEntity
  8
1
 62
     7
100
AcDbLine
 10
156.15
 20
7.5
 30
0.0
 11
178.9999999999998
 21
7.5
 31
0.0
  0
LINE
  5
53
330
E6
100
AcDbEntity
  8
1
 62
     7
100
AcDbLine
 10
198.9999999999998
 20
-7.5
 30
0.0
 11
156.15
 21
-7.5
 31
0.0
  0
LINE
  5
54
330
E6
100
AcDbEntity
  8
1
 62
     7
100
AcDbLine
 10
198.9999999999998
 20
5.5
 30
0.0
 11
198.9999999999998
 21
-7.5
 31
0.0
  0
LINE
  5
55
330
E6
100
AcDbEntity
  8
1
 62
     7
100
AcDbLine
 10
178.9999999999998
 20
7.5
 30
0.0
 11
178.9999999999998
 21
5.5
 31
0.0
  0
LINE
  5
56
330
E6
100
AcDbEntity
  8
1
 62
     7
100
AcDbLine
 10
178.9999999999998
 20
5.5
 30
0.0
 11
198.9999999999998
 21
5.5
 31
0.0
  0
LINE
  5
57
330
E6
100
AcDbEntity
  8
1
 62
     7
100
AcDbLine
 10
198.9999999999998
 20
5.099019513592791
 30
0.0
 11
178.9999999999998
 21
5.099019513592791
 31
0.0
  0
LINE
  5
58
330
E6
100
AcDbEntity
  8
1
 62
     7
100
AcDbLine
 10
178.9999999999998
 20
5.099019513592791
 30
0.0
 11
178.9999999999998
 21
-5.099019513592791
 31
0.0
  0
LINE
  5
59
330
E6
100
AcDbEntity
  8
1
 62
     7
100
AcDbLine
 10
178.9999999999998
 20
-5.099019513592791
 30
0.0
 11
198.9999999999998
 21
-5.099019513592791
 31
0.0
  0
LINE
  5
5A
330
E6
100
AcDbEntity
  8
1
 62
     3
100
AcDbLine
 10
198.9999999999998
 20
5.099019513592791
 30
0.0
 11
178.9999999999998
 21
-5.099019513592791
 31
0.0
  0
LINE
  5
5B
330
E6
100
AcDbEntity
  8
1
 62
     3
100
AcDbLine
 10
178.9999999999998
 20
5.099019513592791
 30
0.0
 11
198.9999999999998
 21
-5.099019513592791
 31
0.0
  0
LINE
  5
5C
330
E6
100
AcDbEntity
  8
1
 62
     7
100
AcDbLine
 10
-2.999999999999997
 20
49.90991885387114
 30
0.0
 11
-2.999999999999997
 21
50.8
 31
0.0
  0
LINE
  5
5D
330
E6
100
AcDbEntity
  8
1
 62
     7
100
AcDbLine
 10
143.0
 20
-50.0
 30
0.0
 11
107.0
 21
-50.0
 31
0.0
  0
LINE
  5
5E
330
E6
100
AcDbEntity
  8
1
 62
     7
100
AcDbLine
 10
143.0
 20
64.0
 30
0.0
 11
143.0
 21
-64.0
 31
0.0
  0
LINE
  5
5F
330
E6
100
AcDbEntity
  8
1
 62
     7
100
AcDbLine
 10
155.0
 20
-49.0
 30
0.0
 11
155.0
 21
49.0
 31
0.0
  0
LINE
  5
60
330
E6
100
AcDbEntity
  8
1
 62
     7
100
AcDbLine
 10
149.0
 20
-49.0
 30
0.0
 11
155.0
 21
-49.0
 31
0.0
  0
LINE
  5
61
330
E6
100
AcDbEntity
  8
1
 62
     7
100
AcDbLine
 10
149.0
 20
49.0
 30
0.0
 11
155.0
 21
49.0
 31
0.0
  0
LINE
  5
62
330
E6
100
AcDbEntity
  8
1
 62
     7
100
AcDbLine
 10
149.0
 20
64.0
 30
0.0
 11
149.0
 21
-64.0
 31
0.0
  0
LINE
  5
63
330
E6
100
AcDbEntity
  8
1
 62
     7
100
AcDbLine
 10
107.0
 20
50.0
 30
0.0
 11
143.0
 21
50.0
 31
0.0
  0
LINE
  5
64
330
E6
100
AcDbEntity
  8
1
 62
     7
100
AcDbLine
 10
107.0
 20
50.0
 30
0.0
 11
107.0
 21
-50.0
 31
0.0
  0
LINE
  5
65
330
E6
100
AcDbEntity
  8
1
 62
     7
100
AcDbLine
 10
149.0
 20
64.0
 30
0.0
 11
143.0
 21
64.0
 31
0.0
  0
LINE
  5
66
330
E6
100
AcDbEntity
  8
1
 62
     7
100
AcDbLine
 10
143.0
 20
-64.0
 30
0.0
 11
149.0
 21
-64.0
 31
0.0
  0
LINE
  5
67
330
E6
100
AcDbEntity
  8
1
  6
DASHDOT
 62
     3
100
AcDbLine
 10
-1.5
 20
0.0
 30
0.0
 11
1.5
 21
0.0
 31
0.0
  0
LINE
  5
68
330
E6
100
AcDbEntity
  8
1
  6
DASHDOT
 62
     3
100
AcDbLine
 10
0.0
 20
1.5
 30
0.0
 11
0.0
 21
-1.5
 31
0.0
  0
LINE
  5
69
330
E6
100
AcDbEntity
  8
1
  6
DASHDOT
 62
     3
100
AcDbLine
 10
301.4999999999997
 20
0.0
 30
0.0
 11
304.4999999999997
 21
0.0
 31
0.0
  0
LINE
  5
6A
330
E6
100
AcDbEntity
  8
1
  6
DASHDOT
 62
     3
100
AcDbLine
 10
302.9999999999997
 20
1.5
 30
0.0
 11
302.9999999999997
 21
-1.5
 31
0.0
  0
LINE
  5
6B
330
E6
100
AcDbEntity
  8
1
  6
DASHDOT
 62
     3
100
AcDbLine
 10
43.31029034767603
 20
43.31029034767603
 30
0.0
 11
37.29988270759038
 21
37.29988270759038
 31
0.0
  0
LINE
  5
6C
330
E6
100
AcDbEntity
  8
1
  6
DASHDOT
 62
     3
100
AcDbLine
 10
-43.31029034767603
 20
43.31029034767603
 30
0.0
 11
-37.29988270759038
 21
37.29988270759038
 31
0.0
  0
LINE
  5
6D
330
E6
100
AcDbEntity
  8
1
  6
DASHDOT
 62
     3
100
AcDbLine
 10
-43.31029034767603
 20
-43.31029034767602
 30
0.0
 11
-37.29988270759039
 21
-37.29988270759037
 31
0.0
  0
LINE
  5
6E
330
E6
100
AcDbEntity
  8
1
  6
DASHDOT
 62
     3
100
AcDbLine
 10
43.31029034767602
 20
-43.31029034767603
 30
0.0
 11
37.29988270759037
 21
-37.29988270759039
 31
0.0
  0
LINE
  5
6F
330
E6
100
AcDbEntity
  8
1
  6
DASHDOT
 62
     3
100
AcDbLine
 10
346.3102903476757
 20
43.31029034767603
 30
0.0
 11
340.2998827075903
 21
37.29988270759038
 31
0.0
  0
LINE
  5
70
330
E6
100
AcDbEntity
  8
1
  6
DASHDOT
 62
     3
100
AcDbLine
 10
346.3102903476757
 20
-43.31029034767603
 30
0.0
 11
340.2998827075903
 21
-37.29988270759039
 31
0.0
  0
LINE
  5
71
330
E6
100
AcDbEntity
  8
1
  6
DASHDOT
 62
     3
100
AcDbLine
 10
259.6897096523239
 20
43.31029034767603
 30
0.0
 11
265.7001172924095
 21
37.29988270759038
 31
0.0
  0
LINE
  5
72
330
E6
100
AcDbEntity
  8
1
  6
DASHDOT
 62
     3
100
AcDbLine
 10
259.6897096523238
 20
-43.31029034767602
 30
0.0
 11
265.7001172924095
 21
-37.29988270759037
 31
0.0
  0
LINE
  5
73
330
E6
100
AcDbEntity
  8
1
 62
     3
100
AcDbLine
 10
1.31
 20
82.0
 30
0.0
 11
1.31
 21
79.0
 31
0.0
  0
LINE
  5
74
330
E6
100
AcDbEntity
  8
1
 62
     3
100
AcDbLine
 10
0.5300000000000296
 20
79.0
 30
0.0
 11
0.5300000000000296
 21
82.0
 31
0.0
  0
LINE
  5
75
330
E6
100
AcDbEntity
  8
1
 62
     7
100
AcDbLine
 10
0.0
 20
79.0
 30
0.0
 11
0.0
 21
50.80000000000001
 31
0.0
  0
LINE
  5
76
330
E6
100
AcDbEntity
  8
1
 62
     7
100
AcDbLine
 10
1.839999999999974
 20
79.0
 30
0.0
 11
1.839999999999974
 21
50.8
 31
0.0
  0
LINE
  5
77
330
E6
100
AcDbEntity
  8
1
 62
     3
100
AcDbLine
 10
-1.309999999999996
 20
79.0
 30
0.0
 11
-1.309999999999996
 21
82.0
 31
0.0
  0
LINE
  5
78
330
E6
100
AcDbEntity
  8
1
 62
     3
100
AcDbLine
 10
-0.5300000000000296
 20
82.0
 30
0.0
 11
-0.5300000000000296
 21
79.0
 31
0.0
  0
LINE
  5
79
330
E6
100
AcDbEntity
  8
1
 62
     7
100
AcDbLine
 10
-1.839999999999979
 20
79.0
 30
0.0
 11
-1.839999999999979
 21
50.8
 31
0.0
  0
LINE
  5
7A
330
E6
100
AcDbEntity
  8
1
 62
     7
100
AcDbLine
 10
-1.839999999999979
 20
79.0
 30
0.0
 11
1.839999999999974
 21
79.0
 31
0.0
  0
LINE
  5
7B
330
E6
100
AcDbEntity
  8
1
 62
     7
100
AcDbLine
 10
-2.999999999999997
 20
50.8
 30
0.0
 11
2.999999999999996
 21
50.80000000000005
 31
0.0
  0
LINE
  5
7C
330
E6
100
AcDbEntity
  8
1
 62
     7
100
AcDbLine
 10
2.999999999999996
 20
50.80000000000005
 30
0.0
 11
2.999999999999996
 21
49.90991885387112
 31
0.0
  0
LINE
  5
7D
330
E6
100
AcDbEntity
  8
1
 62
     7
100
AcDbLine
 10
142.0
 20
50.8
 30
0.0
 11
142.0
 21
50.0
 31
0.0
  0
LINE
  5
7E
330
E6
100
AcDbEntity
  8
1
 62
     7
100
AcDbLine
 10
136.0
 20
50.8
 30
0.0
 11
136.0
 21
50.0
 31
0.0
  0
LINE
  5
7F
330
E6
100
AcDbEntity
  8
1
 62
     7
100
AcDbLine
 10
136.0
 20
50.8
 30
0.0
 11
142.0
 21
50.8
 31
0.0
  0
LINE
  5
80
330
E6
100
AcDbEntity
  8
1
 62
     7
100
AcDbLine
 10
139.9199999999999
 20
79.0
 30
0.0
 11
139.9199999999999
 21
50.8
 31
0.0
  0
LINE
  5
81
330
E6
100
AcDbEntity
  8
1
 62
     7
100
AcDbLine
 10
138.08
 20
79.0
 30
0.0
 11
138.08
 21
50.8
 31
0.0
  0
LINE
  5
82
330
E6
100
AcDbEntity
  8
1
 62
     7
100
AcDbLine
 10
138.08
 20
79.0
 30
0.0
 11
139.9199999999999
 21
79.0
 31
0.0
  0
LINE
  5
83
330
E6
100
AcDbEntity
  8
1
 62
     3
100
AcDbLine
 10
138.61
 20
79.0
 30
0.0
 11
138.61
 21
82.0
 31
0.0
  0
LINE
  5
84
330
E6
100
AcDbEntity
  8
1
 62
     3
100
AcDbLine
 10
139.3899999999999
 20
82.0
 30
0.0
 11
139.3899999999999
 21
79.0
 31
0.0
  0
LINE
  5
85
330
E6
100
AcDbEntity
  8
1
 62
     3
100
AcDbLine
 10
304.3099999999997
 20
82.0
 30
0.0
 11
304.3099999999997
 21
79.0
 31
0.0
  0
LINE
  5
86
330
E6
100
AcDbEntity
  8
1
 62
     3
100
AcDbLine
 10
303.5299999999998
 20
79.0
 30
0.0
 11
303.5299999999998
 21
82.0
 31
0.0
  0
LINE
  5
87
330
E6
100
AcDbEntity
  8
1
 62
     7
100
AcDbLine
 10
301.1599999999999
 20
79.0
 30
0.0
 11
304.8399999999998
 21
79.0
 31
0.0
  0
LINE
  5
88
330
E6
100
AcDbEntity
  8
1
 62
     7
100
AcDbLine
 10
302.9999999999997
 20
79.0
 30
0.0
 11
302.9999999999997
 21
64.0
 31
0.0
  0
LINE
  5
89
330
E6
100
AcDbEntity
  8
1
 62
     7
100
AcDbLine
 10
304.8399999999998
 20
79.0
 30
0.0
 11
304.8399999999998
 21
63.97354453209545
 31
0.0
  0
LINE
  5
8A
330
E6
100
AcDbEntity
  8
1
 62
     3
100
AcDbLine
 10
301.6899999999998
 20
79.0
 30
0.0
 11
301.6899999999998
 21
82.0
 31
0.0
  0
LINE
  5
8B
330
E6
100
AcDbEntity
  8
1
 62
     3
100
AcDbLine
 10
302.4699999999999
 20
82.0
 30
0.0
 11
302.4699999999999
 21
79.0
 31
0.0
  0
LINE
  5
8C
330
E6
100
AcDbEntity
  8
1
 62
     7
100
AcDbLine
 10
301.1599999999999
 20
79.0
 30
0.0
 11
301.1599999999999
 21
63.97354453209545
 31
0.0
  0
LINE
  5
8D
330
E6
100
AcDbEntity
  8
1
 62
     3
100
AcDbLine
 10
303.9199999999997
 20
82.0
 30
0.0
 11
303.9199999999997
 21
79.0
 31
0.0
  0
LINE
  5
8E
330
E6
100
AcDbEntity
  8
1
 62
     3
100
AcDbLine
 10
302.0799999999999
 20
82.0
 30
0.0
 11
302.0799999999999
 21
79.0
 31
0.0
  0
LINE
  5
8F
330
E6
100
AcDbEntity
  8
1
 62
     3
100
AcDbLine
 10
139.0
 20
82.0
 30
0.0
 11
139.0
 21
79.0
 31
0.0
  0
LINE
  5
90
330
E6
100
AcDbEntity
  8
1
 62
     3
100
AcDbLine
 10
0.9200000000000724
 20
82.0
 30
0.0
 11
0.9200000000000724
 21
79.0
 31
0.0
  0
LINE
  5
91
330
E6
100
AcDbEntity
  8
1
 62
     3
100
AcDbLine
 10
-0.9199999999999592
 20
82.0
 30
0.0
 11
-0.9199999999999592
 21
79.0
 31
0.0
  0
ARC
  5
92
330
E6
100
AcDbEntity
  8
1
 62
     7
100
AcDbCircle
 10
309.8999999999997
 20
-8.222131261775698
 30
0.0
 40
2.499999999999948
100
AcDbArc
 50
128.0298135110417
 51
180.0
  0
ARC
  5
93
330
E6
100
AcDbEntity
  8
1
 62
     7
100
AcDbCircle
 10
305.3999999999998
 20
-8.967261881037787
 30
0.0
 40
2.000000000000003
100
AcDbArc
 50
270.0
 51
0.0
  0
ARC
  5
94
330
E6
100
AcDbEntity
  8
1
 62
     7
100
AcDbCircle
 10
300.5999999999999
 20
-8.967261881037787
 30
0.0
 40
2.0
100
AcDbArc
 50
180.0
 51
270.0
  0
ARC
  5
95
330
E6
100
AcDbEntity
  8
1
 62
     7
100
AcDbCircle
 10
296.0999999999998
 20
-8.222131261775698
 30
0.0
 40
2.5
100
AcDbArc
 50
0.0
 51
51.97018648895764
  0
ARC
  5
96
330
E6
100
AcDbEntity
  8
1
 62
     7
100
AcDbCircle
 10
6.900000000000004
 20
-8.222131261775698
 30
0.0
 40
2.5
100
AcDbArc
 50
128.0298135110428
 51
180.0
  0
ARC
  5
97
330
E6
100
AcDbEntity
  8
1
 62
     7
100
AcDbCircle
 10
2.400000000000006
 20
-8.967261881037787
 30
0.0
 40
2.000000000000003
100
AcDbArc
 50
270.0
 51
0.0
  0
ARC
  5
98
330
E6
100
AcDbEntity
  8
1
 62
     7
100
AcDbCircle
 10
-2.400000000000006
 20
-8.967261881037787
 30
0.0
 40
2.0
100
AcDbArc
 50
180.0
 51
270.0
  0
ARC
  5
99
330
E6
100
AcDbEntity
  8
1
 62
     7
100
AcDbCircle
 10
-6.900000000000004
 20
-8.222131261775698
 30
0.0
 40
2.5
100
AcDbArc
 50
0.0
 51
51.97018648895696
  0
ARC
  5
9A
330
E6
100
AcDbEntity
  8
1
 62
     7
100
AcDbCircle
 10
302.9999999999997
 20
0.5999999999999944
 30
0.0
 40
8.700000000000072
100
AcDbArc
 50
308.0298135110435
 51
90.0
  0
ARC
  5
9B
330
E6
100
AcDbEntity
  8
1
 62
     7
100
AcDbCircle
 10
302.9999999999997
 20
0.5999999999999944
 30
0.0
 40
8.700000000000002
100
AcDbArc
 50
90.0
 51
231.9701864889574
  0
ARC
  5
9C
330
E6
100
AcDbEntity
  8
1
 62
     7
100
AcDbCircle
 10
0.0
 20
0.5999999999999944
 30
0.0
 40
8.700000000000002
100
AcDbArc
 50
308.0298135110431
 51
90.0
  0
ARC
  5
9D
330
E6
100
AcDbEntity
  8
1
 62
     7
100
AcDbCircle
 10
0.0
 20
0.5999999999999944
 30
0.0
 40
8.700000000000002
100
AcDbArc
 50
90.0
 51
231.9701864889569
  0
ARC
  5
9E
330
E6
100
AcDbEntity
  8
1
 62
     7
100
AcDbCircle
 10
0.0
 20
0.0
 30
0.0
 40
64.00000000000004
100
AcDbArc
 50
91.64748067179925
 51
88.35251932820067
  0
ARC
  5
9F
330
E6
100
AcDbEntity
  8
1
  6
DASHDOT
 62
     3
100
AcDbCircle
 10
0.0
 20
0.0
 30
0.0
 40
57.0
100
AcDbArc
 50
40.72695605878084
 51
49.27304394121915
  0
ARC
  5
A0
330
E6
100
AcDbEntity
  8
1
  6
DASHDOT
 62
     3
100
AcDbCircle
 10
0.0
 20
0.0
 30
0.0
 40
57.0
100
AcDbArc
 50
130.7269560587808
 51
139.2730439412191
  0
ARC
  5
A1
330
E6
100
AcDbEntity
  8
1
  6
DASHDOT
 62
     3
100
AcDbCircle
 10
0.0
 20
0.0
 30
0.0
 40
57.0
100
AcDbArc
 50
220.7269560587808
 51
229.2730439412191
  0
ARC
  5
A2
330
E6
100
AcDbEntity
  8
1
  6
DASHDOT
 62
     3
100
AcDbCircle
 10
0.0
 20
0.0
 30
0.0
 40
57.00000000000001
100
AcDbArc
 50
310.7269560587809
 51
319.2730439412192
  0
ARC
  5
A3
330
E6
100
AcDbEntity
  8
1
  6
DASHDOT
 62
     3
100
AcDbCircle
 10
302.9999999999997
 20
0.0
 30
0.0
 40
57.0
100
AcDbArc
 50
40.72695605878084
 51
49.27304394121913
  0
ARC
  5
A4
330
E6
100
AcDbEntity
  8
1
  6
DASHDOT
 62
     3
100
AcDbCircle
 10
302.9999999999997
 20
0.0
 30
0.0
 40
56.99999999999999
100
AcDbArc
 50
310.7269560587806
 51
319.2730439412192
  0
ARC
  5
A5
330
E6
100
AcDbEntity
  8
1
  6
DASHDOT
 62
     3
100
AcDbCircle
 10
302.9999999999997
 20
0.0
 30
0.0
 40
56.99999999999996
100
AcDbArc
 50
130.7269560587805
 51
139.2730439412191
  0
ARC
  5
A6
330
E6
100
AcDbEntity
  8
1
  6
DASHDOT
 62
     3
100
AcDbCircle
 10
302.9999999999997
 20
0.0
 30
0.0
 40
56.99999999999995
100
AcDbArc
 50
220.7269560587809
 51
229.2730439412192
  0
CIRCLE
  5
A7
330
E6
100
AcDbEntity
  8
1
 62
     7
100
AcDbCircle
 10
305.2661083396823
 20
-9.256476438364199
 30
0.0
 40
0.9000000000000341
  0
CIRCLE
  5
A8
330
E6
100
AcDbEntity
  8
1
 62
     7
100
AcDbCircle
 10
300.7338916603173
 20
-9.256476438364199
 30
0.0
 40
0.9000000000000341
  0
CIRCLE
  5
A9
330
E6
100
AcDbEntity
  8
1
 62
     7
100
AcDbCircle
 10
2.266108339682518
 20
-9.256476438364199
 30
0.0
 40
0.9000000000000046
  0
CIRCLE
  5
AA
330
E6
100
AcDbEntity
  8
1
 62
     7
100
AcDbCircle
 10
-2.266108339682518
 20
-9.256476438364199
 30
0.0
 40
0.9000000000000049
  0
CIRCLE
  5
AB
330
E6
100
AcDbEntity
  8
1
 62
     7
100
AcDbCircle
 10
0.0
 20
0.0
 30
0.0
 40
7.5
  0
CIRCLE
  5
AC
330
E6
100
AcDbEntity
  8
1
 62
     7
100
AcDbCircle
 10
0.0
 20
0.0
 30
0.0
 40
16.0
  0
CIRCLE
  5
AD
330
E6
100
AcDbEntity
  8
1
 62
     7
100
AcDbCircle
 10
0.0
 20
0.0
 30
0.0
 40
33.5
  0
CIRCLE
  5
AE
330
E6
100
AcDbEntity
  8
1
 62
     7
100
AcDbCircle
 10
0.0
 20
0.0
 30
0.0
 40
45.0
  0
CIRCLE
  5
AF
330
E6
100
AcDbEntity
  8
1
 62
     7
100
AcDbCircle
 10
0.0
 20
0.0
 30
0.0
 40
50.0
  0
CIRCLE
  5
B0
330
E6
100
AcDbEntity
  8
1
 62
     7
100
AcDbCircle
 10
302.9999999999997
 20
0.0
 30
0.0
 40
7.5
  0
CIRCLE
  5
B1
330
E6
100
AcDbEntity
  8
1
 62
     7
100
AcDbCircle
 10
302.9999999999997
 20
0.0
 30
0.0
 40
16.0
  0
CIRCLE
  5
B2
330
E6
100
AcDbEntity
  8
1
 62
     7
100
AcDbCircle
 10
302.9999999999997
 20
0.0
 30
0.0
 40
33.5
  0
CIRCLE
  5
B3
330
E6
100
AcDbEntity
  8
1
 62
     7
100
AcDbCircle
 10
302.9999999999997
 20
0.0
 30
0.0
 40
45.0
  0
CIRCLE
  5
B4
330
E6
100
AcDbEntity
  8
1
 62
     7
100
AcDbCircle
 10
302.9999999999997
 20
0.0
 30
0.0
 40
49.0
  0
CIRCLE
  5
B5
330
E6
100
AcDbEntity
  8
1
 62
     7
100
AcDbCircle
 10
302.9999999999997
 20
0.0
 30
0.0
 40
64.0
  0
CIRCLE
  5
B6
330
E6
100
AcDbEntity
  8
1
 62
     7
100
AcDbCircle
 10
40.3050865276332
 20
40.3050865276332
 30
0.0
 40
3.25
  0
CIRCLE
  5
B7
330
E6
100
AcDbEntity
  8
1
 62
     7
100
AcDbCircle
 10
-40.3050865276332
 20
40.3050865276332
 30
0.0
 40
3.25
  0
CIRCLE
  5
B8
330
E6
100
AcDbEntity
  8
1
 62
     7
100
AcDbCircle
 10
-40.30508652763322
 20
-40.3050865276332
 30
0.0
 40
3.25
  0
CIRCLE
  5
B9
330
E6
100
AcDbEntity
  8
1
 62
     7
100
AcDbCircle
 10
40.3050865276332
 20
-40.30508652763322
 30
0.0
 40
3.25
  0
CIRCLE
  5
BA
330
E6
100
AcDbEntity
  8
1
 62
     7
100
AcDbCircle
 10
343.3050865276331
 20
40.3050865276332
 30
0.0
 40
3.25
  0
CIRCLE
  5
BB
330
E6
100
AcDbEntity
  8
1
 62
     7
100
AcDbCircle
 10
343.3050865276331
 20
-40.30508652763322
 30
0.0
 40
3.25
  0
CIRCLE
  5
BC
330
E6
100
AcDbEntity
  8
1
 62
     7
100
AcDbCircle
 10
262.6949134723665
 20
40.3050865276332
 30
0.0
 40
3.25
  0
CIRCLE
  5
BD
330
E6
100
AcDbEntity
  8
1
 62
     7
100
AcDbCircle
 10
262.6949134723665
 20
-40.3050865276332
 30
0.0
 40
3.25
  0
TEXT
  5
BF
330
E6
100
AcDbEntity
  8
1
 62
     7
100
AcDbText
 10
-69.16484431310367
 20
91.52497477295652
 30
0.0
 40
5.5
  1
OPB 80N
 41
0.9
  7
SIMPLEX
 72
     1
 11
-53.0184157416751
 21
91.52497477295652
 31
0.0
100
AcDbText
  0
ENDSEC
  0
SECTION
  2
OBJECTS
  0
DICTIONARY
  5
D2
330
0
100
AcDbDictionary
281
     1
  3
ACAD_COLOR
350
E1
  3
ACAD_GROUP
350
D3
  3
ACAD_LAYOUT
350
DF
  3
ACAD_MATERIAL
350
E0
  3
ACAD_MLINESTYLE
350
DC
  3
ACAD_PLOTSETTINGS
350
DE
  3
ACAD_PLOTSTYLENAME
350
D4
  0
DICTIONARY
  5
E1
102
{ACAD_REACTORS
330
D2
102
}
330
D2
100
AcDbDictionary
281
     1
  0
DICTIONARY
  5
D3
102
{ACAD_REACTORS
330
D2
102
}
330
D2
100
AcDbDictionary
281
     1
  0
DICTIONARY
  5
DF
102
{ACAD_REACTORS
330
D2
102
}
330
D2
100
AcDbDictionary
281
     1
  3
Layout1
350
E5
  3
Model
350
E9
  0
DICTIONARY
  5
E0
102
{ACAD_REACTORS
330
D2
102
}
330
D2
100
AcDbDictionary
281
     1
  0
DICTIONARY
  5
DC
102
{ACAD_REACTORS
330
D2
102
}
330
D2
100
AcDbDictionary
281
     1
  3
Standard
350
DD
  0
DICTIONARY
  5
DE
102
{ACAD_REACTORS
330
D2
102
}
330
D2
100
AcDbDictionary
281
     1
  0
ACDBDICTIONARYWDFLT
  5
D4
102
{ACAD_REACTORS
330
D2
102
}
330
D2
100
AcDbDictionary
281
     1
  3
Normal
350
D5
100
AcDbDictionaryWithDefault
340
D5
  0
LAYOUT
  5
E5
102
{ACAD_REACTORS
330
DF
102
}
330
DF
100
AcDbPlotSettings
  1

  2
\\Ogura1\HP Color LaserJet 4600 PCL 5c
  4

  6

 40
0.0
 41
0.0
 42
0.0
 43
0.0
 44
0.0
 45
0.0
 46
0.0
 47
0.0
 48
0.0
 49
0.0
140
0.0
141
0.0
142
1.0
143
1.0
 70
   688
 72
     0
 73
     0
 74
     5
  7

 75
    16
147
1.0
 76
     0
 77
     2
 78
   300
148
0.0
149
0.0
100
AcDbLayout
  1
Layout1
 70
     1
 71
     1
 10
0.0
 20
0.0
 11
12.0
 21
9.0
 12
0.0
 22
0.0
 32
0.0
 14
1.000000000000000E+20
 24
1.000000000000000E+20
 34
1.000000000000000E+20
 15
-1.000000000000000E+20
 25
-1.000000000000000E+20
 35
-1.000000000000000E+20
146
0.0
 13
0.0
 23
0.0
 33
0.0
 16
1.0
 26
0.0
 36
0.0
 17
0.0
 27
1.0
 37
0.0
 76
     0
330
E2
  0
LAYOUT
  5
E9
102
{ACAD_REACTORS
330
DF
102
}
330
DF
100
AcDbPlotSettings
  1

  2
\\Ogura1\HP Color LaserJet 4600 PCL 5c
  4

  6

 40
0.0
 41
0.0
 42
0.0
 43
0.0
 44
0.0
 45
0.0
 46
0.0
 47
0.0
 48
0.0
 49
0.0
140
0.0
141
0.0
142
1.0
143
1.0
 70
  1712
 72
     0
 73
     0
 74
     0
  7

 75
     0
147
1.0
 76
     0
 77
     2
 78
   300
148
0.0
149
0.0
100
AcDbLayout
  1
Model
 70
     1
 71
     0
 10
0.0
 20
0.0
 11
12.0
 21
9.0
 12
0.0
 22
0.0
 32
0.0
 14
0.0
 24
0.0
 34
0.0
 15
0.0
 25
0.0
 35
0.0
146
0.0
 13
0.0
 23
0.0
 33
0.0
 16
1.0
 26
0.0
 36
0.0
 17
0.0
 27
1.0
 37
0.0
 76
     0
330
E6
  0
MLINESTYLE
  5
DD
102
{ACAD_REACTORS
330
DC
102
}
330
DC
100
AcDbMlineStyle
  2
STANDARD
 70
     0
  3

 62
   256
 51
90.0
 52
90.0
 71
     2
 49
0.5
 62
   256
  6
BYLAYER
 49
-0.5
 62
   256
  6
BYLAYER
  0
ACDBPLACEHOLDER
  5
D5
102
{ACAD_REACTORS
330
D4
102
}
330
D4
  0
ENDSEC
  0
EOF
