  0
SECTION
  2
HEADER
  9
$ACADVER
  1
AC1018
  9
$ACADMAINTVER
 70
     0
  9
$DWGCODEPAGE
  3
ANSI_932
  9
$INSBASE
 10
0.0
 20
0.0
 30
0.0
  9
$EXTMIN
 10
-38.23195588409772
 20
-32.50287460120026
 30
-0.0015258207003583
  9
$EXTMAX
 10
243.5086001389225
 20
61.70499411150785
 30
0.0000000349246037
  9
$LIMMIN
 10
-38.28785317860749
 20
-32.5
  9
$LIMMAX
 10
243.5
 20
61.70211907164479
  9
$ORTHOMODE
 70
     0
  9
$REGENMODE
 70
     1
  9
$FILLMODE
 70
     1
  9
$QTEXTMODE
 70
     0
  9
$MIRRTEXT
 70
     1
  9
$LTSCALE
 40
1.0
  9
$ATTMODE
 70
     1
  9
$TEXTSIZE
 40
3.5
  9
$TRACEWID
 40
0.5
  9
$TEXTSTYLE
  7
STANDARD
  9
$CLAYER
  8
0
  9
$CELTYPE
  6
ByLayer
  9
$CECOLOR
 62
   256
  9
$CELTSCALE
 40
1.0
  9
$DISPSILH
 70
     0
  9
$DIMSCALE
 40
1.0
  9
$DIMASZ
 40
0.18
  9
$DIMEXO
 40
0.0625
  9
$DIMDLI
 40
0.38
  9
$DIMRND
 40
0.0
  9
$DIMDLE
 40
0.0
  9
$DIMEXE
 40
0.18
  9
$DIMTP
 40
0.0
  9
$DIMTM
 40
0.0
  9
$DIMTXT
 40
0.18
  9
$DIMCEN
 40
0.09
  9
$DIMTSZ
 40
0.0
  9
$DIMTOL
 70
     0
  9
$DIMLIM
 70
     0
  9
$DIMTIH
 70
     1
  9
$DIMTOH
 70
     1
  9
$DIMSE1
 70
     0
  9
$DIMSE2
 70
     0
  9
$DIMTAD
 70
     0
  9
$DIMZIN
 70
     0
  9
$DIMBLK
  1

  9
$DIMASO
 70
     1
  9
$DIMSHO
 70
     1
  9
$DIMPOST
  1

  9
$DIMAPOST
  1

  9
$DIMALT
 70
     0
  9
$DIMALTD
 70
     2
  9
$DIMALTF
 40
25.4
  9
$DIMLFAC
 40
1.0
  9
$DIMTOFL
 70
     0
  9
$DIMTVP
 40
0.0
  9
$DIMTIX
 70
     0
  9
$DIMSOXD
 70
     0
  9
$DIMSAH
 70
     0
  9
$DIMBLK1
  1

  9
$DIMBLK2
  1

  9
$DIMSTYLE
  2
STANDARD
  9
$DIMCLRD
 70
     0
  9
$DIMCLRE
 70
     0
  9
$DIMCLRT
 70
     0
  9
$DIMTFAC
 40
1.0
  9
$DIMGAP
 40
0.09
  9
$DIMJUST
 70
     0
  9
$DIMSD1
 70
     0
  9
$DIMSD2
 70
     0
  9
$DIMTOLJ
 70
     1
  9
$DIMTZIN
 70
     0
  9
$DIMALTZ
 70
     0
  9
$DIMALTTZ
 70
     0
  9
$DIMUPT
 70
     0
  9
$DIMDEC
 70
     4
  9
$DIMTDEC
 70
     4
  9
$DIMALTU
 70
     2
  9
$DIMALTTD
 70
     2
  9
$DIMTXSTY
  7
STANDARD
  9
$DIMAUNIT
 70
     0
  9
$DIMADEC
 70
     0
  9
$DIMALTRND
 40
0.0
  9
$DIMAZIN
 70
     0
  9
$DIMDSEP
 70
    46
  9
$DIMATFIT
 70
     3
  9
$DIMFRAC
 70
     0
  9
$DIMLDRBLK
  1

  9
$DIMLUNIT
 70
     2
  9
$DIMLWD
 70
    -2
  9
$DIMLWE
 70
    -2
  9
$DIMTMOVE
 70
     0
  9
$LUNITS
 70
     2
  9
$LUPREC
 70
     4
  9
$SKETCHINC
 40
0.1
  9
$FILLETRAD
 40
2.0
  9
$AUNITS
 70
     0
  9
$AUPREC
 70
     0
  9
$MENU
  1
ACAD
  9
$ELEVATION
 40
0.0
  9
$PELEVATION
 40
0.0
  9
$THICKNESS
 40
0.0
  9
$LIMCHECK
 70
     0
  9
$CHAMFERA
 40
0.0
  9
$CHAMFERB
 40
0.0
  9
$CHAMFERC
 40
0.0
  9
$CHAMFERD
 40
0.0
  9
$SKPOLY
 70
     0
  9
$TDCREATE
 40
2452095.116796760
  9
$TDUCREATE
 40
2452095.283463426
  9
$TDUPDATE
 40
2453209.453322627
  9
$TDUUPDATE
 40
2453209.619989294
  9
$TDINDWG
 40
0.0005242708
  9
$TDUSRTIMER
 40
0.0005240972
  9
$USRTIMER
 70
     1
  9
$ANGBASE
 50
0.0
  9
$ANGDIR
 70
     0
  9
$PDMODE
 70
     0
  9
$PDSIZE
 40
0.0
  9
$PLINEWID
 40
0.0
  9
$SPLFRAME
 70
     0
  9
$SPLINETYPE
 70
     6
  9
$SPLINESEGS
 70
     8
  9
$HANDSEED
  5
107
  9
$SURFTAB1
 70
     6
  9
$SURFTAB2
 70
     6
  9
$SURFTYPE
 70
     6
  9
$SURFU
 70
     6
  9
$SURFV
 70
     6
  9
$UCSBASE
  2

  9
$UCSNAME
  2

  9
$UCSORG
 10
0.0
 20
0.0
 30
0.0
  9
$UCSXDIR
 10
1.0
 20
0.0
 30
0.0
  9
$UCSYDIR
 10
0.0
 20
1.0
 30
0.0
  9
$UCSORTHOREF
  2

  9
$UCSORTHOVIEW
 70
     0
  9
$UCSORGTOP
 10
0.0
 20
0.0
 30
0.0
  9
$UCSORGBOTTOM
 10
0.0
 20
0.0
 30
0.0
  9
$UCSORGLEFT
 10
0.0
 20
0.0
 30
0.0
  9
$UCSORGRIGHT
 10
0.0
 20
0.0
 30
0.0
  9
$UCSORGFRONT
 10
0.0
 20
0.0
 30
0.0
  9
$UCSORGBACK
 10
0.0
 20
0.0
 30
0.0
  9
$PUCSBASE
  2

  9
$PUCSNAME
  2

  9
$PUCSORG
 10
0.0
 20
0.0
 30
0.0
  9
$PUCSXDIR
 10
1.0
 20
0.0
 30
0.0
  9
$PUCSYDIR
 10
0.0
 20
1.0
 30
0.0
  9
$PUCSORTHOREF
  2

  9
$PUCSORTHOVIEW
 70
     0
  9
$PUCSORGTOP
 10
0.0
 20
0.0
 30
0.0
  9
$PUCSORGBOTTOM
 10
0.0
 20
0.0
 30
0.0
  9
$PUCSORGLEFT
 10
0.0
 20
0.0
 30
0.0
  9
$PUCSORGRIGHT
 10
0.0
 20
0.0
 30
0.0
  9
$PUCSORGFRONT
 10
0.0
 20
0.0
 30
0.0
  9
$PUCSORGBACK
 10
0.0
 20
0.0
 30
0.0
  9
$USERI1
 70
     0
  9
$USERI2
 70
     0
  9
$USERI3
 70
     0
  9
$USERI4
 70
     0
  9
$USERI5
 70
     0
  9
$USERR1
 40
0.0
  9
$USERR2
 40
0.0
  9
$USERR3
 40
0.0
  9
$USERR4
 40
0.0
  9
$USERR5
 40
0.0
  9
$WORLDVIEW
 70
     1
  9
$SHADEDGE
 70
     3
  9
$SHADEDIF
 70
    70
  9
$TILEMODE
 70
     1
  9
$MAXACTVP
 70
    64
  9
$PINSBASE
 10
0.0
 20
0.0
 30
0.0
  9
$PLIMCHECK
 70
     0
  9
$PEXTMIN
 10
1.000000000000000E+20
 20
1.000000000000000E+20
 30
1.000000000000000E+20
  9
$PEXTMAX
 10
-1.000000000000000E+20
 20
-1.000000000000000E+20
 30
-1.000000000000000E+20
  9
$PLIMMIN
 10
0.0
 20
0.0
  9
$PLIMMAX
 10
12.0
 20
9.0
  9
$UNITMODE
 70
     0
  9
$VISRETAIN
 70
     1
  9
$PLINEGEN
 70
     0
  9
$PSLTSCALE
 70
     1
  9
$TREEDEPTH
 70
  3020
  9
$CMLSTYLE
  2
Standard
  9
$CMLJUST
 70
     0
  9
$CMLSCALE
 40
1.0
  9
$PROXYGRAPHICS
 70
     1
  9
$MEASUREMENT
 70
     0
  9
$CELWEIGHT
370
    -1
  9
$ENDCAPS
280
     0
  9
$JOINSTYLE
280
     0
  9
$LWDISPLAY
290
     0
  9
$INSUNITS
 70
     0
  9
$HYPERLINKBASE
  1

  9
$STYLESHEET
  1

  9
$XEDIT
290
     1
  9
$CEPSNTYPE
380
     0
  9
$PSTYLEMODE
290
     1
  9
$FINGERPRINTGUID
  2
{88D27BB5-8FB5-4A98-A22D-77EEF571BCC1}
  9
$VERSIONGUID
  2
{47092B45-81E0-4526-8516-4937AE431628}
  9
$EXTNAMES
290
     1
  9
$PSVPSCALE
 40
0.0
  9
$OLESTARTUP
290
     0
  9
$SORTENTS
280
   127
  9
$INDEXCTL
280
     0
  9
$HIDETEXT
280
     0
  9
$XCLIPFRAME
290
     0
  9
$HALOGAP
280
     0
  9
$OBSCOLOR
 70
   257
  9
$OBSLTYPE
280
     0
  9
$INTERSECTIONDISPLAY
280
     0
  9
$INTERSECTIONCOLOR
 70
   257
  9
$DIMASSOC
280
     1
  9
$PROJECTNAME
  1

  0
ENDSEC
  0
SECTION
  2
CLASSES
  0
CLASS
  1
ACDBDICTIONARYWDFLT
  2
AcDbDictionaryWithDefault
  3
ObjectDBX Classes
 90
        0
 91
        1
280
     0
281
     0
  0
ENDSEC
  0
SECTION
  2
TABLES
  0
TABLE
  2
VPORT
  5
D4
330
0
100
AcDbSymbolTable
 70
     2
  0
VPORT
  5
106
330
D4
100
AcDbSymbolTableRecord
100
AcDbViewportTableRecord
  2
*Active
 70
     0
 10
0.0
 20
0.0
 11
1.0
 21
1.0
 12
102.6383221274123
 22
14.6010597551538
 13
0.0
 23
0.0
 14
1.0
 24
1.0
 15
0.0
 25
0.0
 16
0.0
 26
0.0
 36
1.0
 17
0.0
 27
0.0
 37
0.0
 40
174.341462188592
 41
1.625
 42
50.0
 43
0.0
 44
0.0
 50
0.0
 51
0.0
 71
     0
 72
   100
 73
     1
 74
     1
 75
     0
 76
     0
 77
     0
 78
     0
281
     0
 65
     1
110
0.0
120
0.0
130
0.0
111
1.0
121
0.0
131
0.0
112
0.0
122
1.0
132
0.0
 79
     0
146
0.0
  0
ENDTAB
  0
TABLE
  2
LTYPE
  5
D1
330
0
100
AcDbSymbolTable
 70
     9
  0
LTYPE
  5
DF
330
D1
100
AcDbSymbolTableRecord
100
AcDbLinetypeTableRecord
  2
ByBlock
 70
     0
  3

 72
    65
 73
     0
 40
0.0
  0
LTYPE
  5
E0
330
D1
100
AcDbSymbolTableRecord
100
AcDbLinetypeTableRecord
  2
ByLayer
 70
     0
  3

 72
    65
 73
     0
 40
0.0
  0
LTYPE
  5
E1
330
D1
100
AcDbSymbolTableRecord
100
AcDbLinetypeTableRecord
  2
CONTINUOUS
 70
     0
  3
Solid line
 72
    65
 73
     0
 40
0.0
  0
LTYPE
  5
F1
330
D1
100
AcDbSymbolTableRecord
100
AcDbLinetypeTableRecord
  2
BORDER
 70
     0
  3
__ __ . __ __ .
 72
    65
 73
     6
 40
12.97707218585693
 49
3.707734910244835
 74
     0
 49
-1.853867455122417
 74
     0
 49
3.707734910244835
 74
     0
 49
-1.853867455122417
 74
     0
 49
0.0
 74
     0
 49
-1.853867455122417
 74
     0
  0
LTYPE
  5
F2
330
D1
100
AcDbSymbolTableRecord
100
AcDbLinetypeTableRecord
  2
CENTER
 70
     0
  3
____ _ ____ _
 72
    65
 73
     4
 40
14.83093964097934
 49
9.269337275612089
 74
     0
 49
-1.853867455122417
 74
     0
 49
1.853867455122417
 74
     0
 49
-1.853867455122417
 74
     0
  0
LTYPE
  5
F3
330
D1
100
AcDbSymbolTableRecord
100
AcDbLinetypeTableRecord
  2
DASHDOT
 70
     0
  3
__ . __ . __ .
 72
    65
 73
     4
 40
7.41546982048967
 49
3.707734910244835
 74
     0
 49
-1.853867455122417
 74
     0
 49
0.0
 74
     0
 49
-1.853867455122417
 74
     0
  0
LTYPE
  5
F4
330
D1
100
AcDbSymbolTableRecord
100
AcDbLinetypeTableRecord
  2
DASHED
 70
     0
  3
__ __ __ __ __
 72
    65
 73
     2
 40
5.561602365367254
 49
3.707734910244835
 74
     0
 49
-1.853867455122417
 74
     0
  0
LTYPE
  5
F5
330
D1
100
AcDbSymbolTableRecord
100
AcDbLinetypeTableRecord
  2
DIVIDE
 70
     0
  3
__ . . __ . . 
 72
    65
 73
     6
 40
9.269337275612089
 49
3.707734910244835
 74
     0
 49
-1.853867455122417
 74
     0
 49
0.0
 74
     0
 49
-1.853867455122417
 74
     0
 49
0.0
 74
     0
 49
-1.853867455122417
 74
     0
  0
LTYPE
  5
F6
330
D1
100
AcDbSymbolTableRecord
100
AcDbLinetypeTableRecord
  2
DOT
 70
     0
  3
..............
 72
    65
 73
     4
 40
3.707734910244835
 49
0.0
 74
     0
 49
-1.853867455122417
 74
     0
 49
0.0
 74
     0
 49
-1.853867455122417
 74
     0
  0
LTYPE
  5
F7
330
D1
100
AcDbSymbolTableRecord
100
AcDbLinetypeTableRecord
  2
HIDDEN
 70
     0
  3
_ _ _ _ _ _ _
 72
    65
 73
     2
 40
2.780801182683627
 49
1.853867455122417
 74
     0
 49
-0.9269337275612091
 74
     0
  0
LTYPE
  5
F8
330
D1
100
AcDbSymbolTableRecord
100
AcDbLinetypeTableRecord
  2
PHANTOM
 70
     0
  3
_____ _ _ _____ _ _ 
 72
    65
 73
     6
 40
18.53867455122418
 49
9.269337275612089
 74
     0
 49
-1.853867455122417
 74
     0
 49
1.853867455122417
 74
     0
 49
-1.853867455122417
 74
     0
 49
1.853867455122417
 74
     0
 49
-1.853867455122417
 74
     0
  0
ENDTAB
  0
TABLE
  2
LAYER
  5
CE
330
0
100
AcDbSymbolTable
 70
     2
  0
LAYER
  5
DC
330
CE
100
AcDbSymbolTableRecord
100
AcDbLayerTableRecord
  2
0
 70
     0
 62
     7
  6
CONTINUOUS
370
    -3
390
DB
  0
LAYER
  5
F9
330
CE
100
AcDbSymbolTableRecord
100
AcDbLayerTableRecord
  2
1
 70
     0
 62
     7
  6
CONTINUOUS
370
    -3
390
DB
  0
ENDTAB
  0
TABLE
  2
STYLE
  5
CF
330
0
100
AcDbSymbolTable
 70
     4
  0
STYLE
  5
DD
330
CF
100
AcDbSymbolTableRecord
100
AcDbTextStyleTableRecord
  2
STANDARD
 70
     0
 40
0.0
 41
1.0
 50
0.0
 71
     0
 42
3.5
  3
txt
  4

  0
STYLE
  5
FA
330
CF
100
AcDbSymbolTableRecord
100
AcDbTextStyleTableRecord
  2
SIMPLEX
 70
     0
 40
0.0
 41
1.0
 50
0.0
 71
     0
 42
3.5
  3
simplex
  4

  0
STYLE
  5
FB
330
CF
100
AcDbSymbolTableRecord
100
AcDbTextStyleTableRecord
  2
COMPLEX
 70
     0
 40
0.0
 41
1.0
 50
0.0
 71
     0
 42
3.5
  3
complex
  4

  0
STYLE
  5
FC
330
CF
100
AcDbSymbolTableRecord
100
AcDbTextStyleTableRecord
  2
ITALIC
 70
     0
 40
0.0
 41
1.0
 50
0.0
 71
     0
 42
3.5
  3
italic
  4

  0
ENDTAB
  0
TABLE
  2
VIEW
  5
D2
330
0
100
AcDbSymbolTable
 70
     0
  0
ENDTAB
  0
TABLE
  2
UCS
  5
D3
330
0
100
AcDbSymbolTable
 70
     0
  0
ENDTAB
  0
TABLE
  2
APPID
  5
D5
330
0
100
AcDbSymbolTable
 70
     1
  0
APPID
  5
DE
330
D5
100
AcDbSymbolTableRecord
100
AcDbRegAppTableRecord
  2
ACAD
 70
     0
  0
ENDTAB
  0
TABLE
  2
DIMSTYLE
  5
D6
330
0
100
AcDbSymbolTable
 70
     1
100
AcDbDimStyleTable
 71
     0
  0
DIMSTYLE
105
FD
330
D6
100
AcDbSymbolTableRecord
100
AcDbDimStyleTableRecord
  2
STANDARD
 70
     0
279
     2
340
DD
  0
ENDTAB
  0
TABLE
  2
BLOCK_RECORD
  5
CD
330
0
100
AcDbSymbolTable
 70
     2
  0
BLOCK_RECORD
  5
EC
330
CD
100
AcDbSymbolTableRecord
100
AcDbBlockTableRecord
  2
*Model_Space
340
EF
  0
BLOCK_RECORD
  5
E8
330
CD
100
AcDbSymbolTableRecord
100
AcDbBlockTableRecord
  2
*Paper_Space
340
EB
  0
BLOCK_RECORD
  5
102
330
CD
100
AcDbSymbolTableRecord
100
AcDbBlockTableRecord
  2
$MODEL_SPACE
340
0
  0
BLOCK_RECORD
  5
104
330
CD
100
AcDbSymbolTableRecord
100
AcDbBlockTableRecord
  2
$PAPER_SPACE
340
0
  0
ENDTAB
  0
ENDSEC
  0
SECTION
  2
BLOCKS
  0
BLOCK
  5
ED
330
EC
100
AcDbEntity
  8
0
100
AcDbBlockBegin
  2
*Model_Space
 70
     0
 10
0.0
 20
0.0
 30
0.0
  3
*Model_Space
  1

  0
ENDBLK
  5
EE
330
EC
100
AcDbEntity
  8
0
100
AcDbBlockEnd
  0
BLOCK
  5
E9
330
E8
100
AcDbEntity
 67
     1
  8
0
100
AcDbBlockBegin
  2
*Paper_Space
 70
     0
 10
0.0
 20
0.0
 30
0.0
  3
*Paper_Space
  1

  0
ENDBLK
  5
EA
330
E8
100
AcDbEntity
 67
     1
  8
0
100
AcDbBlockEnd
  0
BLOCK
  5
103
330
102
100
AcDbEntity
  8
0
100
AcDbBlockBegin
  2
$MODEL_SPACE
 70
     0
 10
0.0
 20
0.0
 30
0.0
  3
$MODEL_SPACE
  1

  0
ENDBLK
  5
20
330
102
100
AcDbEntity
  8
0
100
AcDbBlockEnd
  0
BLOCK
  5
105
330
104
100
AcDbEntity
  8
0
100
AcDbBlockBegin
  2
$PAPER_SPACE
 70
     0
 10
0.0
 20
0.0
 30
0.0
  3
$PAPER_SPACE
  1

  0
ENDBLK
  5
1C
330
104
100
AcDbEntity
  8
0
100
AcDbBlockEnd
  0
ENDSEC
  0
SECTION
  2
ENTITIES
  0
LINE
  5
33
330
EC
100
AcDbEntity
  8
1
  6
DASHDOT
 62
     3
100
AcDbLine
 10
133.4999999999998
 20
-0.0000000000000002
 30
0.0
 11
136.4999999999998
 21
0.0
 31
0.0
  0
LINE
  5
34
330
EC
100
AcDbEntity
  8
1
  6
DASHDOT
 62
     3
100
AcDbLine
 10
188.9029130879204
 20
22.09708691207961
 30
0.0
 11
193.4991071656328
 21
17.50089283436706
 31
0.0
  0
LINE
  5
35
330
EC
100
AcDbEntity
  8
1
  6
DASHDOT
 62
     3
100
AcDbLine
 10
188.9029130879204
 20
-22.09708691207962
 30
0.0
 11
193.4991071656328
 21
-17.5008928343671
 31
0.0
  0
LINE
  5
36
330
EC
100
AcDbEntity
  8
1
  6
DASHDOT
 62
     3
100
AcDbLine
 10
233.0970869120795
 20
-22.09708691207961
 30
0.0
 11
228.5008928343669
 21
-17.50089283436704
 31
0.0
  0
LINE
  5
37
330
EC
100
AcDbEntity
  8
1
  6
DASHDOT
 62
     3
100
AcDbLine
 10
233.0970869120795
 20
22.09708691207961
 30
0.0
 11
228.5008928343669
 21
17.50089283436706
 31
0.0
  0
LINE
  5
38
330
EC
100
AcDbEntity
  8
1
  6
DASHDOT
 62
     3
100
AcDbLine
 10
211.0
 20
1.5
 30
0.0
 11
211.0
 21
-1.5
 31
0.0
  0
LINE
  5
39
330
EC
100
AcDbEntity
  8
1
  6
DASHDOT
 62
     3
100
AcDbLine
 10
212.5
 20
0.0
 30
0.0
 11
209.5
 21
0.0
 31
0.0
  0
LINE
  5
3A
330
EC
100
AcDbEntity
  8
1
 62
     7
100
AcDbLine
 10
-2.5
 20
23.3
 30
0.0
 11
-2.5
 21
22.86372673034735
 31
0.0
  0
LINE
  5
3B
330
EC
100
AcDbEntity
  8
1
 62
     7
100
AcDbLine
 10
2.5
 20
23.3
 30
0.0
 11
2.5
 21
22.86372673034735
 31
0.0
  0
LINE
  5
3C
330
EC
100
AcDbEntity
  8
1
 62
     7
100
AcDbLine
 10
-2.5
 20
23.3
 30
0.0
 11
2.5
 21
23.3
 31
0.0
  0
LINE
  5
3D
330
EC
100
AcDbEntity
  8
1
  6
DASHDOT
 62
     3
100
AcDbLine
 10
0.0
 20
1.5
 30
0.0
 11
0.0
 21
-1.5
 31
0.0
  0
LINE
  5
3E
330
EC
100
AcDbEntity
  8
1
  6
DASHDOT
 62
     3
100
AcDbLine
 10
1.5
 20
0.0
 30
0.0
 11
-1.5
 21
0.0
 31
0.0
  0
LINE
  5
3F
330
EC
100
AcDbEntity
  8
1
  6
DASHDOT
 62
     3
100
AcDbLine
 10
-22.09708691207961
 20
-22.09708691207962
 30
0.0
 11
-17.50089283436708
 21
-17.50089283436712
 31
0.0
  0
LINE
  5
40
330
EC
100
AcDbEntity
  8
1
  6
DASHDOT
 62
     3
100
AcDbLine
 10
-22.09708691207961
 20
22.09708691207961
 30
0.0
 11
-17.50089283436708
 21
17.50089283436706
 31
0.0
  0
LINE
  5
41
330
EC
100
AcDbEntity
  8
1
  6
DASHDOT
 62
     3
100
AcDbLine
 10
22.0970869120796
 20
22.09708691207961
 30
0.0
 11
17.50089283436704
 21
17.50089283436706
 31
0.0
  0
LINE
  5
42
330
EC
100
AcDbEntity
  8
1
  6
DASHDOT
 62
     3
100
AcDbLine
 10
22.18547525972792
 20
-22.18547525972794
 30
0.0
 11
17.41250448671874
 21
-17.41250448671873
 31
0.0
  0
LINE
  5
43
330
EC
100
AcDbEntity
  8
1
 62
     7
100
AcDbLine
 10
2.400000000000006
 20
-3.594590640382235
 30
0.0
 11
2.400000000000006
 21
-4.684962311319863
 31
0.0
  0
LINE
  5
44
330
EC
100
AcDbEntity
  8
1
 62
     7
100
AcDbLine
 10
0.3000000000000114
 20
-5.584962311319864
 30
0.0
 11
1.5
 21
-5.584962311319864
 31
0.0
  0
LINE
  5
45
330
EC
100
AcDbEntity
  8
1
 62
     7
100
AcDbLine
 10
0.3000000000000114
 20
-5.584962311319864
 30
0.0
 11
0.3000000000000114
 21
-4.784962311319866
 31
0.0
  0
LINE
  5
46
330
EC
100
AcDbEntity
  8
1
 62
     7
100
AcDbLine
 10
0.3000000000000114
 20
-4.784962311319866
 30
0.0
 11
1.05000000000001
 21
-4.784962311319866
 31
0.0
  0
LINE
  5
47
330
EC
100
AcDbEntity
  8
1
 62
     7
100
AcDbLine
 10
1.05000000000001
 20
-3.684962311319864
 30
0.0
 11
0.3000000000000114
 21
-3.684962311319864
 31
0.0
  0
LINE
  5
48
330
EC
100
AcDbEntity
  8
1
 62
     7
100
AcDbLine
 10
0.3000000000000114
 20
-3.684962311319864
 30
0.0
 11
0.3000000000000114
 21
-2.984962311319861
 31
0.0
  0
LINE
  5
49
330
EC
100
AcDbEntity
  8
1
 62
     7
100
AcDbLine
 10
-0.2999999999999829
 20
-2.984962311319861
 30
0.0
 11
-0.2999999999999829
 21
-3.684962311319864
 31
0.0
  0
LINE
  5
4A
330
EC
100
AcDbEntity
  8
1
 62
     7
100
AcDbLine
 10
-0.2999999999999829
 20
-3.684962311319864
 30
0.0
 11
-1.049999999999982
 21
-3.684962311319864
 31
0.0
  0
LINE
  5
4B
330
EC
100
AcDbEntity
  8
1
 62
     7
100
AcDbLine
 10
-1.049999999999982
 20
-4.784962311319866
 30
0.0
 11
-0.2999999999999829
 21
-4.784962311319866
 31
0.0
  0
LINE
  5
4C
330
EC
100
AcDbEntity
  8
1
 62
     7
100
AcDbLine
 10
-0.2999999999999829
 20
-4.784962311319866
 30
0.0
 11
-0.2999999999999829
 21
-5.584962311319864
 31
0.0
  0
LINE
  5
4D
330
EC
100
AcDbEntity
  8
1
 62
     7
100
AcDbLine
 10
-1.5
 20
-5.584962311319864
 30
0.0
 11
-0.2999999999999829
 21
-5.584962311319864
 31
0.0
  0
LINE
  5
4E
330
EC
100
AcDbEntity
  8
1
 62
     7
100
AcDbLine
 10
-2.399999999999976
 20
-4.684962311319863
 30
0.0
 11
-2.399999999999976
 21
-3.594590640382235
 31
0.0
  0
LINE
  5
4F
330
EC
100
AcDbEntity
  8
1
 62
     3
100
AcDbLine
 10
1.31
 20
47.49999999999999
 30
0.0
 11
1.31
 21
44.49999999999999
 31
0.0
  0
LINE
  5
50
330
EC
100
AcDbEntity
  8
1
 62
     3
100
AcDbLine
 10
0.5300000000000002
 20
44.49999999999999
 30
0.0
 11
0.5300000000000002
 21
47.49999999999999
 31
0.0
  0
LINE
  5
51
330
EC
100
AcDbEntity
  8
1
 62
     7
100
AcDbLine
 10
1.84
 20
44.49999999999999
 30
0.0
 11
1.84
 21
23.3
 31
0.0
  0
LINE
  5
52
330
EC
100
AcDbEntity
  8
1
 62
     7
100
AcDbLine
 10
0.0
 20
44.49999999999999
 30
0.0
 11
0.0
 21
23.3
 31
0.0
  0
LINE
  5
53
330
EC
100
AcDbEntity
  8
1
 62
     7
100
AcDbLine
 10
-1.84
 20
44.49999999999999
 30
0.0
 11
1.84
 21
44.49999999999999
 31
0.0
  0
LINE
  5
54
330
EC
100
AcDbEntity
  8
1
 62
     3
100
AcDbLine
 10
-0.5300000000000002
 20
47.49999999999999
 30
0.0
 11
-0.5300000000000002
 21
44.49999999999999
 31
0.0
  0
LINE
  5
55
330
EC
100
AcDbEntity
  8
1
 62
     3
100
AcDbLine
 10
-1.31
 20
44.49999999999999
 30
0.0
 11
-1.31
 21
47.49999999999999
 31
0.0
  0
LINE
  5
56
330
EC
100
AcDbEntity
  8
1
 62
     7
100
AcDbLine
 10
-1.84
 20
44.49999999999999
 30
0.0
 11
-1.84
 21
23.3
 31
0.0
  0
LINE
  5
57
330
EC
100
AcDbEntity
  8
1
 62
     7
100
AcDbLine
 10
100.58
 20
44.49999999999999
 30
0.0
 11
102.4199999999999
 21
44.49999999999999
 31
0.0
  0
LINE
  5
58
330
EC
100
AcDbEntity
  8
1
 62
     7
100
AcDbLine
 10
100.58
 20
44.49999999999999
 30
0.0
 11
100.58
 21
23.3
 31
0.0
  0
LINE
  5
59
330
EC
100
AcDbEntity
  8
1
 62
     7
100
AcDbLine
 10
102.4199999999999
 20
44.49999999999999
 30
0.0
 11
102.4199999999999
 21
23.3
 31
0.0
  0
LINE
  5
5A
330
EC
100
AcDbEntity
  8
1
 62
     3
100
AcDbLine
 10
101.11
 20
44.49999999999999
 30
0.0
 11
101.11
 21
47.49999999999999
 31
0.0
  0
LINE
  5
5B
330
EC
100
AcDbEntity
  8
1
 62
     3
100
AcDbLine
 10
101.8899999999999
 20
47.49999999999999
 30
0.0
 11
101.8899999999999
 21
44.49999999999999
 31
0.0
  0
LINE
  5
5C
330
EC
100
AcDbEntity
  8
1
 62
     7
100
AcDbLine
 10
80.50000000000002
 20
23.0
 30
0.0
 11
105.0
 21
23.0
 31
0.0
  0
LINE
  5
5D
330
EC
100
AcDbEntity
  8
1
 62
     7
100
AcDbLine
 10
110.4999999999999
 20
21.49999999999999
 30
0.0
 11
110.4999999999999
 21
-21.50000000000001
 31
0.0
  0
LINE
  5
5E
330
EC
100
AcDbEntity
  8
1
 62
     7
100
AcDbLine
 10
80.50000000000002
 20
23.0
 30
0.0
 11
80.50000000000002
 21
-23.00000000000001
 31
0.0
  0
LINE
  5
5F
330
EC
100
AcDbEntity
  8
1
 62
     7
100
AcDbLine
 10
108.0
 20
32.5
 30
0.0
 11
105.0
 21
32.5
 31
0.0
  0
LINE
  5
60
330
EC
100
AcDbEntity
  8
1
 62
     7
100
AcDbLine
 10
110.4999999999999
 20
21.49999999999999
 30
0.0
 11
108.0
 21
21.49999999999999
 31
0.0
  0
LINE
  5
61
330
EC
100
AcDbEntity
  8
1
 62
     7
100
AcDbLine
 10
105.0
 20
-23.00000000000001
 30
0.0
 11
80.50000000000002
 21
-23.00000000000001
 31
0.0
  0
LINE
  5
62
330
EC
100
AcDbEntity
  8
1
 62
     7
100
AcDbLine
 10
108.0
 20
-21.50000000000001
 30
0.0
 11
110.4999999999999
 21
-21.50000000000001
 31
0.0
  0
LINE
  5
63
330
EC
100
AcDbEntity
  8
1
 62
     7
100
AcDbLine
 10
105.0
 20
-32.5
 30
0.0
 11
108.0
 21
-32.5
 31
0.0
  0
LINE
  5
64
330
EC
100
AcDbEntity
  8
1
 62
     7
100
AcDbLine
 10
105.0
 20
-32.5
 30
0.0
 11
105.0
 21
32.5
 31
0.0
  0
LINE
  5
65
330
EC
100
AcDbEntity
  8
1
 62
     7
100
AcDbLine
 10
111.2
 20
-5.584962311319862
 30
0.0
 11
110.4999999999999
 21
-5.584962311319864
 31
0.0
  0
LINE
  5
66
330
EC
100
AcDbEntity
  8
1
 62
     7
100
AcDbLine
 10
111.2
 20
3.999489490237065
 30
0.0
 11
110.4999999999999
 21
3.999489490237065
 31
0.0
  0
LINE
  5
67
330
EC
100
AcDbEntity
  8
1
 62
     7
100
AcDbLine
 10
79.79999999999998
 20
-5.584962311319862
 30
0.0
 11
80.50000000000002
 21
-5.584962311319864
 31
0.0
  0
LINE
  5
68
330
EC
100
AcDbEntity
  8
1
 62
     7
100
AcDbLine
 10
79.79999999999998
 20
3.999489490237065
 30
0.0
 11
80.50000000000002
 21
3.999489490237065
 31
0.0
  0
LINE
  5
69
330
EC
100
AcDbEntity
  8
1
 62
     7
100
AcDbLine
 10
77.5
 20
3.0
 30
0.0
 11
79.79999999999998
 21
3.0
 31
0.0
  0
LINE
  5
6A
330
EC
100
AcDbEntity
  8
1
 62
     7
100
AcDbLine
 10
79.79999999999998
 20
3.999489490237065
 30
0.0
 11
79.79999999999998
 21
-5.584962311319862
 31
0.0
  0
LINE
  5
6B
330
EC
100
AcDbEntity
  8
1
 62
     7
100
AcDbLine
 10
79.79999999999998
 20
-3.0
 30
0.0
 11
77.5
 21
-3.0
 31
0.0
  0
LINE
  5
6C
330
EC
100
AcDbEntity
  8
1
 62
     7
100
AcDbLine
 10
77.5
 20
-3.0
 30
0.0
 11
77.5
 21
3.0
 31
0.0
  0
LINE
  5
6D
330
EC
100
AcDbEntity
  8
1
 62
     7
100
AcDbLine
 10
111.2
 20
3.0
 30
0.0
 11
121.5
 21
3.0
 31
0.0
  0
LINE
  5
6E
330
EC
100
AcDbEntity
  8
1
 62
     7
100
AcDbLine
 10
133.4999999999998
 20
-3.0
 30
0.0
 11
111.2
 21
-3.0
 31
0.0
  0
LINE
  5
6F
330
EC
100
AcDbEntity
  8
1
 62
     7
100
AcDbLine
 10
111.2
 20
3.999489490237065
 30
0.0
 11
111.2
 21
-5.584962311319862
 31
0.0
  0
LINE
  5
70
330
EC
100
AcDbEntity
  8
1
 62
     7
100
AcDbLine
 10
133.4999999999998
 20
1.658312395177703
 30
0.0
 11
121.5
 21
1.658312395177703
 31
0.0
  0
LINE
  5
71
330
EC
100
AcDbEntity
  8
1
 62
     7
100
AcDbLine
 10
121.5
 20
1.658312395177703
 30
0.0
 11
121.5
 21
-1.658312395177703
 31
0.0
  0
LINE
  5
72
330
EC
100
AcDbEntity
  8
1
 62
     7
100
AcDbLine
 10
121.5
 20
-1.658312395177703
 30
0.0
 11
133.4999999999998
 21
-1.658312395177703
 31
0.0
  0
LINE
  5
73
330
EC
100
AcDbEntity
  8
1
 62
     7
100
AcDbLine
 10
121.5
 20
3.0
 30
0.0
 11
121.5
 21
2.5
 31
0.0
  0
LINE
  5
74
330
EC
100
AcDbEntity
  8
1
 62
     7
100
AcDbLine
 10
121.5
 20
2.5
 30
0.0
 11
133.4999999999998
 21
2.5
 31
0.0
  0
LINE
  5
75
330
EC
100
AcDbEntity
  8
1
 62
     7
100
AcDbLine
 10
133.4999999999998
 20
2.5
 30
0.0
 11
133.4999999999998
 21
-3.0
 31
0.0
  0
LINE
  5
76
330
EC
100
AcDbEntity
  8
1
 62
     3
100
AcDbLine
 10
133.4999999999998
 20
1.658312395177703
 30
0.0
 11
121.5
 21
-1.658312395177703
 31
0.0
  0
LINE
  5
77
330
EC
100
AcDbEntity
  8
1
 62
     3
100
AcDbLine
 10
121.5
 20
1.658312395177703
 30
0.0
 11
133.4999999999998
 21
-1.658312395177703
 31
0.0
  0
LINE
  5
78
330
EC
100
AcDbEntity
  8
1
  6
DASHDOT
 62
     3
100
AcDbLine
 10
74.5
 20
0.0
 30
0.0
 11
77.5
 21
0.0
 31
0.0
  0
LINE
  5
79
330
EC
100
AcDbEntity
  8
1
 62
     7
100
AcDbLine
 10
213.3999999999999
 20
-3.594590640382235
 30
0.0
 11
213.3999999999999
 21
-4.684962311319863
 31
0.0
  0
LINE
  5
7A
330
EC
100
AcDbEntity
  8
1
 62
     7
100
AcDbLine
 10
211.2999999999999
 20
-5.584962311319864
 30
0.0
 11
212.5
 21
-5.584962311319864
 31
0.0
  0
LINE
  5
7B
330
EC
100
AcDbEntity
  8
1
 62
     7
100
AcDbLine
 10
211.2999999999999
 20
-5.584962311319864
 30
0.0
 11
211.2999999999999
 21
-4.784962311319866
 31
0.0
  0
LINE
  5
7C
330
EC
100
AcDbEntity
  8
1
 62
     7
100
AcDbLine
 10
211.2999999999999
 20
-4.784962311319866
 30
0.0
 11
212.05
 21
-4.784962311319866
 31
0.0
  0
LINE
  5
7D
330
EC
100
AcDbEntity
  8
1
 62
     7
100
AcDbLine
 10
212.05
 20
-3.684962311319864
 30
0.0
 11
211.2999999999999
 21
-3.684962311319864
 31
0.0
  0
LINE
  5
7E
330
EC
100
AcDbEntity
  8
1
 62
     7
100
AcDbLine
 10
211.2999999999999
 20
-3.684962311319864
 30
0.0
 11
211.2999999999999
 21
-2.984962311319861
 31
0.0
  0
LINE
  5
7F
330
EC
100
AcDbEntity
  8
1
 62
     7
100
AcDbLine
 10
210.6999999999999
 20
-2.984962311319861
 30
0.0
 11
210.6999999999999
 21
-3.684962311319864
 31
0.0
  0
LINE
  5
80
330
EC
100
AcDbEntity
  8
1
 62
     7
100
AcDbLine
 10
210.6999999999999
 20
-3.684962311319864
 30
0.0
 11
209.9499999999999
 21
-3.684962311319864
 31
0.0
  0
LINE
  5
81
330
EC
100
AcDbEntity
  8
1
 62
     7
100
AcDbLine
 10
209.9499999999999
 20
-4.784962311319866
 30
0.0
 11
210.6999999999999
 21
-4.784962311319866
 31
0.0
  0
LINE
  5
82
330
EC
100
AcDbEntity
  8
1
 62
     7
100
AcDbLine
 10
210.6999999999999
 20
-4.784962311319866
 30
0.0
 11
210.6999999999999
 21
-5.584962311319864
 31
0.0
  0
LINE
  5
83
330
EC
100
AcDbEntity
  8
1
 62
     7
100
AcDbLine
 10
209.5
 20
-5.584962311319864
 30
0.0
 11
210.6999999999999
 21
-5.584962311319864
 31
0.0
  0
LINE
  5
84
330
EC
100
AcDbEntity
  8
1
 62
     7
100
AcDbLine
 10
208.5999999999999
 20
-4.684962311319863
 30
0.0
 11
208.5999999999999
 21
-3.594590640382235
 31
0.0
  0
LINE
  5
85
330
EC
100
AcDbEntity
  8
1
 62
     7
100
AcDbLine
 10
209.3416876048223
 20
2.5
 30
0.0
 11
212.6583123951776
 21
2.5
 31
0.0
  0
LINE
  5
86
330
EC
100
AcDbEntity
  8
1
 62
     7
100
AcDbLine
 10
208.4999999999999
 20
1.658312395177703
 30
0.0
 11
208.4999999999999
 21
-1.658312395177703
 31
0.0
  0
LINE
  5
87
330
EC
100
AcDbEntity
  8
1
 62
     3
100
AcDbLine
 10
212.3099999999999
 20
47.49999999999999
 30
0.0
 11
212.3099999999999
 21
44.49999999999999
 31
0.0
  0
LINE
  5
88
330
EC
100
AcDbEntity
  8
1
 62
     3
100
AcDbLine
 10
211.5299999999999
 20
44.49999999999999
 30
0.0
 11
211.5299999999999
 21
47.49999999999999
 31
0.0
  0
LINE
  5
89
330
EC
100
AcDbEntity
  8
1
 62
     7
100
AcDbLine
 10
212.84
 20
44.49999999999999
 30
0.0
 11
212.84
 21
32.46059149183821
 31
0.0
  0
LINE
  5
8A
330
EC
100
AcDbEntity
  8
1
 62
     7
100
AcDbLine
 10
211.0
 20
44.49999999999999
 30
0.0
 11
211.0
 21
32.5
 31
0.0
  0
LINE
  5
8B
330
EC
100
AcDbEntity
  8
1
 62
     7
100
AcDbLine
 10
209.16
 20
44.49999999999999
 30
0.0
 11
212.84
 21
44.49999999999999
 31
0.0
  0
LINE
  5
8C
330
EC
100
AcDbEntity
  8
1
 62
     3
100
AcDbLine
 10
210.47
 20
47.49999999999999
 30
0.0
 11
210.47
 21
44.49999999999999
 31
0.0
  0
LINE
  5
8D
330
EC
100
AcDbEntity
  8
1
 62
     3
100
AcDbLine
 10
209.69
 20
44.49999999999999
 30
0.0
 11
209.69
 21
47.49999999999999
 31
0.0
  0
LINE
  5
8E
330
EC
100
AcDbEntity
  8
1
 62
     7
100
AcDbLine
 10
209.16
 20
44.49999999999999
 30
0.0
 11
209.16
 21
32.46059149183821
 31
0.0
  0
LINE
  5
8F
330
EC
100
AcDbEntity
  8
1
 62
     7
100
AcDbLine
 10
99.0
 20
23.0
 30
0.0
 11
99.0
 21
23.3
 31
0.0
  0
LINE
  5
90
330
EC
100
AcDbEntity
  8
1
 62
     7
100
AcDbLine
 10
99.0
 20
23.3
 30
0.0
 11
104.0
 21
23.3
 31
0.0
  0
LINE
  5
91
330
EC
100
AcDbEntity
  8
1
 62
     7
100
AcDbLine
 10
104.0
 20
23.3
 30
0.0
 11
104.0
 21
23.0
 31
0.0
  0
LINE
  5
92
330
EC
100
AcDbEntity
  8
1
 62
     7
100
AcDbLine
 10
108.0
 20
-32.5
 30
0.0
 11
108.0
 21
32.5
 31
0.0
  0
LINE
  5
93
330
EC
100
AcDbEntity
  8
1
 62
     3
100
AcDbLine
 10
211.9199999999999
 20
47.49999999999999
 30
0.0
 11
211.9199999999999
 21
44.49999999999999
 31
0.0
  0
LINE
  5
94
330
EC
100
AcDbEntity
  8
1
 62
     3
100
AcDbLine
 10
210.08
 20
47.49999999999999
 30
0.0
 11
210.08
 21
44.49999999999999
 31
0.0
  0
LINE
  5
95
330
EC
100
AcDbEntity
  8
1
 62
     3
100
AcDbLine
 10
101.5
 20
47.49999999999999
 30
0.0
 11
101.5
 21
44.49999999999999
 31
0.0
  0
LINE
  5
96
330
EC
100
AcDbEntity
  8
1
 62
     3
100
AcDbLine
 10
0.9200000000000001
 20
47.49999999999999
 30
0.0
 11
0.9200000000000001
 21
44.49999999999999
 31
0.0
  0
LINE
  5
97
330
EC
100
AcDbEntity
  8
1
 62
     3
100
AcDbLine
 10
-0.9200000000000001
 20
47.49999999999999
 30
0.0
 11
-0.9200000000000001
 21
44.49999999999999
 31
0.0
  0
ARC
  5
98
330
EC
100
AcDbEntity
  8
1
 62
     7
100
AcDbCircle
 10
3.80000000000001
 20
-3.594590640382235
 30
0.0
 40
1.400000000000009
100
AcDbArc
 50
135.8057962770714
 51
180.0
  0
ARC
  5
99
330
EC
100
AcDbEntity
  8
1
 62
     7
100
AcDbCircle
 10
1.5
 20
-4.684962311319863
 30
0.0
 40
0.8999999999999984
100
AcDbArc
 50
270.0
 51
0.0
  0
ARC
  5
9A
330
EC
100
AcDbEntity
  8
1
 62
     7
100
AcDbCircle
 10
-1.5
 20
-4.684962311319863
 30
0.0
 40
0.8999999999999769
100
AcDbArc
 50
180.0
 51
270.0
  0
ARC
  5
9B
330
EC
100
AcDbEntity
  8
1
 62
     7
100
AcDbCircle
 10
-3.799999999999982
 20
-3.594590640382235
 30
0.0
 40
1.400000000000004
100
AcDbArc
 50
0.0
 51
44.19420372292901
  0
ARC
  5
9C
330
EC
100
AcDbEntity
  8
1
 62
     7
100
AcDbCircle
 10
214.8
 20
-3.594590640382235
 30
0.0
 40
1.40000000000003
100
AcDbArc
 50
135.8057962770726
 51
180.0
  0
ARC
  5
9D
330
EC
100
AcDbEntity
  8
1
 62
     7
100
AcDbCircle
 10
212.5
 20
-4.684962311319863
 30
0.0
 40
0.8999999999999984
100
AcDbArc
 50
270.0
 51
0.0
  0
ARC
  5
9E
330
EC
100
AcDbEntity
  8
1
 62
     7
100
AcDbCircle
 10
209.5
 20
-4.684962311319863
 30
0.0
 40
0.9000000000000055
100
AcDbArc
 50
180.0
 51
270.0
  0
ARC
  5
9F
330
EC
100
AcDbEntity
  8
1
 62
     7
100
AcDbCircle
 10
207.2
 20
-3.594590640382235
 30
0.0
 40
1.400000000000004
100
AcDbArc
 50
0.0
 51
44.19420372292752
  0
ARC
  5
A0
330
EC
100
AcDbEntity
  8
1
  6
DASHDOT
 62
     3
100
AcDbCircle
 10
211.0
 20
0.0
 30
0.0
 40
28.00000000000002
100
AcDbArc
 50
128.3458580984438
 51
141.6541419015559
  0
ARC
  5
A1
330
EC
100
AcDbEntity
  8
1
  6
DASHDOT
 62
     3
100
AcDbCircle
 10
211.0
 20
0.0
 30
0.0
 40
27.99999999999998
100
AcDbArc
 50
218.345858098444
 51
231.6541419015561
  0
ARC
  5
A2
330
EC
100
AcDbEntity
  8
1
  6
DASHDOT
 62
     3
100
AcDbCircle
 10
211.0
 20
0.0
 30
0.0
 40
28.00000000000007
100
AcDbArc
 50
308.3458580984438
 51
321.6541419015562
  0
ARC
  5
A3
330
EC
100
AcDbEntity
  8
1
  6
DASHDOT
 62
     3
100
AcDbCircle
 10
211.0
 20
0.0
 30
0.0
 40
28.00000000000003
100
AcDbArc
 50
38.34585809844385
 51
51.65414190155613
  0
ARC
  5
A4
330
EC
100
AcDbEntity
  8
1
  6
DASHDOT
 62
     3
100
AcDbCircle
 10
0.0
 20
0.0
 30
0.0
 40
28.0
100
AcDbArc
 50
218.3458580984439
 51
231.6541419015561
  0
ARC
  5
A5
330
EC
100
AcDbEntity
  8
1
  6
DASHDOT
 62
     3
100
AcDbCircle
 10
0.0
 20
0.0
 30
0.0
 40
28.0
100
AcDbArc
 50
308.3458580984438
 51
321.6541419015562
  0
ARC
  5
A6
330
EC
100
AcDbEntity
  8
1
  6
DASHDOT
 62
     3
100
AcDbCircle
 10
0.0
 20
0.0
 30
0.0
 40
28.0
100
AcDbArc
 50
128.3458580984438
 51
141.654141901556
  0
ARC
  5
A7
330
EC
100
AcDbEntity
  8
1
  6
DASHDOT
 62
     3
100
AcDbCircle
 10
0.0
 20
0.0
 30
0.0
 40
28.0
100
AcDbArc
 50
38.3458580984439
 51
51.65414190155613
  0
ARC
  5
A8
330
EC
100
AcDbEntity
  8
1
 62
     7
100
AcDbCircle
 10
1.05000000000001
 20
-4.23496231131986
 30
0.0
 40
0.5500000000000043
100
AcDbArc
 50
270.0
 51
90.0
  0
ARC
  5
A9
330
EC
100
AcDbEntity
  8
1
 62
     7
100
AcDbCircle
 10
-1.049999999999982
 20
-4.23496231131986
 30
0.0
 40
0.5499999999999968
100
AcDbArc
 50
90.0
 51
270.0
  0
ARC
  5
AA
330
EC
100
AcDbEntity
  8
1
 62
     7
100
AcDbCircle
 10
0.0
 20
0.0999999999999944
 30
0.0
 40
3.899999999999995
100
AcDbArc
 50
315.8057962770715
 51
224.1942037229285
  0
ARC
  5
AB
330
EC
100
AcDbEntity
  8
1
 62
     7
100
AcDbCircle
 10
212.05
 20
-4.23496231131986
 30
0.0
 40
0.5500000000000043
100
AcDbArc
 50
270.0
 51
90.0
  0
ARC
  5
AC
330
EC
100
AcDbEntity
  8
1
 62
     7
100
AcDbCircle
 10
209.9499999999999
 20
-4.23496231131986
 30
0.0
 40
0.5499999999999968
100
AcDbArc
 50
90.0
 51
270.0
  0
ARC
  5
AD
330
EC
100
AcDbEntity
  8
1
 62
     7
100
AcDbCircle
 10
211.0
 20
0.0999999999999944
 30
0.0
 40
3.899999999999975
100
AcDbArc
 50
315.8057962770711
 51
224.1942037229288
  0
ARC
  5
AE
330
EC
100
AcDbEntity
  8
1
 62
     7
100
AcDbCircle
 10
211.0
 20
0.0
 30
0.0
 40
3.0
100
AcDbArc
 50
90.0
 51
0.0
  0
ARC
  5
AF
330
EC
100
AcDbEntity
  8
1
 62
     7
100
AcDbCircle
 10
211.0
 20
0.0
 30
0.0
 40
3.0
100
AcDbArc
 50
0.0
 51
90.0
  0
ARC
  5
B0
330
EC
100
AcDbEntity
  8
1
 62
     7
100
AcDbCircle
 10
0.0
 20
0.0
 30
0.0
 40
32.5
100
AcDbArc
 50
93.24555800332147
 51
86.75444199667852
  0
CIRCLE
  5
B1
330
EC
100
AcDbEntity
  8
1
 62
     7
100
AcDbCircle
 10
0.0
 20
0.0
 30
0.0
 40
3.0
  0
CIRCLE
  5
B2
330
EC
100
AcDbEntity
  8
1
 62
     7
100
AcDbCircle
 10
211.0
 20
0.0
 30
0.0
 40
23.0
  0
CIRCLE
  5
B3
330
EC
100
AcDbEntity
  8
1
 62
     7
100
AcDbCircle
 10
0.0
 20
0.0
 30
0.0
 40
13.0
  0
CIRCLE
  5
B4
330
EC
100
AcDbEntity
  8
1
 62
     7
100
AcDbCircle
 10
0.0
 20
0.0
 30
0.0
 40
23.0
  0
CIRCLE
  5
B5
330
EC
100
AcDbEntity
  8
1
 62
     7
100
AcDbCircle
 10
0.0
 20
0.0
 30
0.0
 40
20.5
  0
CIRCLE
  5
B6
330
EC
100
AcDbEntity
  8
1
 62
     7
100
AcDbCircle
 10
0.0
 20
0.0
 30
0.0
 40
7.5
  0
CIRCLE
  5
B7
330
EC
100
AcDbEntity
  8
1
 62
     7
100
AcDbCircle
 10
19.79898987322332
 20
19.79898987322332
 30
0.0
 40
2.25
  0
CIRCLE
  5
B8
330
EC
100
AcDbEntity
  8
1
 62
     7
100
AcDbCircle
 10
-19.79898987322332
 20
19.7989898732233
 30
0.0
 40
2.25
  0
CIRCLE
  5
B9
330
EC
100
AcDbEntity
  8
1
 62
     7
100
AcDbCircle
 10
-19.79898987322332
 20
-19.79898987322334
 30
0.0
 40
2.25
  0
CIRCLE
  5
BA
330
EC
100
AcDbEntity
  8
1
 62
     7
100
AcDbCircle
 10
19.79898987322335
 20
-19.79898987322334
 30
0.0
 40
2.25
  0
CIRCLE
  5
BB
330
EC
100
AcDbEntity
  8
1
 62
     7
100
AcDbCircle
 10
211.0
 20
0.0
 30
0.0
 40
13.0
  0
CIRCLE
  5
BC
330
EC
100
AcDbEntity
  8
1
 62
     7
100
AcDbCircle
 10
211.0
 20
0.0
 30
0.0
 40
21.49999999999999
  0
CIRCLE
  5
BD
330
EC
100
AcDbEntity
  8
1
 62
     7
100
AcDbCircle
 10
211.0
 20
0.0
 30
0.0
 40
32.5
  0
CIRCLE
  5
BE
330
EC
100
AcDbEntity
  8
1
 62
     7
100
AcDbCircle
 10
211.0
 20
0.0
 30
0.0
 40
20.5
  0
CIRCLE
  5
BF
330
EC
100
AcDbEntity
  8
1
 62
     7
100
AcDbCircle
 10
211.0
 20
0.0
 30
0.0
 40
7.5
  0
CIRCLE
  5
C0
330
EC
100
AcDbEntity
  8
1
 62
     7
100
AcDbCircle
 10
230.7989898732233
 20
19.79898987322332
 30
0.0
 40
2.25
  0
CIRCLE
  5
C1
330
EC
100
AcDbEntity
  8
1
 62
     7
100
AcDbCircle
 10
191.2010101267767
 20
19.7989898732233
 30
0.0
 40
2.25
  0
CIRCLE
  5
C2
330
EC
100
AcDbEntity
  8
1
 62
     7
100
AcDbCircle
 10
191.2010101267767
 20
-19.79898987322334
 30
0.0
 40
2.25
  0
CIRCLE
  5
C3
330
EC
100
AcDbEntity
  8
1
 62
     7
100
AcDbCircle
 10
230.7989898732233
 20
-19.79898987322334
 30
0.0
 40
2.25
  0
TEXT
  5
C5
330
EC
100
AcDbEntity
  8
1
 62
     7
100
AcDbText
 10
-38.22535317860751
 20
58.2021190716448
 30
0.0
 40
3.5
  1
OPB 5N
 41
0.9
  7
SIMPLEX
 72
     1
 11
-29.4503531786075
 21
58.2021190716448
 31
0.0
100
AcDbText
  0
ENDSEC
  0
SECTION
  2
OBJECTS
  0
DICTIONARY
  5
D8
330
0
100
AcDbDictionary
281
     1
  3
ACAD_COLOR
350
E7
  3
ACAD_GROUP
350
D9
  3
ACAD_LAYOUT
350
E5
  3
ACAD_MATERIAL
350
E6
  3
ACAD_MLINESTYLE
350
E2
  3
ACAD_PLOTSETTINGS
350
E4
  3
ACAD_PLOTSTYLENAME
350
DA
  0
DICTIONARY
  5
E7
102
{ACAD_REACTORS
330
D8
102
}
330
D8
100
AcDbDictionary
281
     1
  0
DICTIONARY
  5
D9
102
{ACAD_REACTORS
330
D8
102
}
330
D8
100
AcDbDictionary
281
     1
  0
DICTIONARY
  5
E5
102
{ACAD_REACTORS
330
D8
102
}
330
D8
100
AcDbDictionary
281
     1
  3
Layout1
350
EB
  3
Model
350
EF
  0
DICTIONARY
  5
E6
102
{ACAD_REACTORS
330
D8
102
}
330
D8
100
AcDbDictionary
281
     1
  0
DICTIONARY
  5
E2
102
{ACAD_REACTORS
330
D8
102
}
330
D8
100
AcDbDictionary
281
     1
  3
Standard
350
E3
  0
DICTIONARY
  5
E4
102
{ACAD_REACTORS
330
D8
102
}
330
D8
100
AcDbDictionary
281
     1
  0
ACDBDICTIONARYWDFLT
  5
DA
102
{ACAD_REACTORS
330
D8
102
}
330
D8
100
AcDbDictionary
281
     1
  3
Normal
350
DB
100
AcDbDictionaryWithDefault
340
DB
  0
LAYOUT
  5
EB
102
{ACAD_REACTORS
330
E5
102
}
330
E5
100
AcDbPlotSettings
  1

  2
\\Ogura1\HP Color LaserJet 4600 PCL 5c
  4

  6

 40
0.0
 41
0.0
 42
0.0
 43
0.0
 44
0.0
 45
0.0
 46
0.0
 47
0.0
 48
0.0
 49
0.0
140
0.0
141
0.0
142
1.0
143
1.0
 70
   688
 72
     0
 73
     0
 74
     5
  7

 75
    16
147
1.0
 76
     0
 77
     2
 78
   300
148
0.0
149
0.0
100
AcDbLayout
  1
Layout1
 70
     1
 71
     1
 10
0.0
 20
0.0
 11
12.0
 21
9.0
 12
0.0
 22
0.0
 32
0.0
 14
1.000000000000000E+20
 24
1.000000000000000E+20
 34
1.000000000000000E+20
 15
-1.000000000000000E+20
 25
-1.000000000000000E+20
 35
-1.000000000000000E+20
146
0.0
 13
0.0
 23
0.0
 33
0.0
 16
1.0
 26
0.0
 36
0.0
 17
0.0
 27
1.0
 37
0.0
 76
     0
330
E8
  0
LAYOUT
  5
EF
102
{ACAD_REACTORS
330
E5
102
}
330
E5
100
AcDbPlotSettings
  1

  2
\\Ogura1\HP Color LaserJet 4600 PCL 5c
  4

  6

 40
0.0
 41
0.0
 42
0.0
 43
0.0
 44
0.0
 45
0.0
 46
0.0
 47
0.0
 48
0.0
 49
0.0
140
0.0
141
0.0
142
1.0
143
1.0
 70
  1712
 72
     0
 73
     0
 74
     0
  7

 75
     0
147
1.0
 76
     0
 77
     2
 78
   300
148
0.0
149
0.0
100
AcDbLayout
  1
Model
 70
     1
 71
     0
 10
0.0
 20
0.0
 11
12.0
 21
9.0
 12
0.0
 22
0.0
 32
0.0
 14
0.0
 24
0.0
 34
0.0
 15
0.0
 25
0.0
 35
0.0
146
0.0
 13
0.0
 23
0.0
 33
0.0
 16
1.0
 26
0.0
 36
0.0
 17
0.0
 27
1.0
 37
0.0
 76
     0
330
EC
  0
MLINESTYLE
  5
E3
102
{ACAD_REACTORS
330
E2
102
}
330
E2
100
AcDbMlineStyle
  2
STANDARD
 70
     0
  3

 62
   256
 51
90.0
 52
90.0
 71
     2
 49
0.5
 62
   256
  6
BYLAYER
 49
-0.5
 62
   256
  6
BYLAYER
  0
ACDBPLACEHOLDER
  5
DB
102
{ACAD_REACTORS
330
DA
102
}
330
DA
  0
ENDSEC
  0
EOF
