  0
SECTION
  2
HEADER
  9
$ACADVER
  1
AC1018
  9
$ACADMAINTVER
 70
     0
  9
$DWGCODEPAGE
  3
ANSI_932
  9
$INSBASE
 10
0.0
 20
0.0
 30
0.0
  9
$EXTMIN
 10
-63.9117748471632
 20
-56.00445171768683
 30
-0.0015258207003583
  9
$EXTMAX
 10
327.011953024641
 20
89.8894675332429
 30
0.0000000349246037
  9
$LIMMIN
 10
-64.64683069420961
 20
-56.00000000000001
  9
$LIMMAX
 10
327.0
 20
89.88501513622599
  9
$ORTHOMODE
 70
     0
  9
$REGENMODE
 70
     1
  9
$FILLMODE
 70
     1
  9
$QTEXTMODE
 70
     0
  9
$MIRRTEXT
 70
     1
  9
$LTSCALE
 40
1.0
  9
$ATTMODE
 70
     1
  9
$TEXTSIZE
 40
3.5
  9
$TRACEWID
 40
0.5
  9
$TEXTSTYLE
  7
STANDARD
  9
$CLAYER
  8
0
  9
$CELTYPE
  6
ByLayer
  9
$CECOLOR
 62
   256
  9
$CELTSCALE
 40
1.0
  9
$DISPSILH
 70
     0
  9
$DIMSCALE
 40
1.0
  9
$DIMASZ
 40
0.18
  9
$DIMEXO
 40
0.0625
  9
$DIMDLI
 40
0.38
  9
$DIMRND
 40
0.0
  9
$DIMDLE
 40
0.0
  9
$DIMEXE
 40
0.18
  9
$DIMTP
 40
0.0
  9
$DIMTM
 40
0.0
  9
$DIMTXT
 40
0.18
  9
$DIMCEN
 40
0.09
  9
$DIMTSZ
 40
0.0
  9
$DIMTOL
 70
     0
  9
$DIMLIM
 70
     0
  9
$DIMTIH
 70
     1
  9
$DIMTOH
 70
     1
  9
$DIMSE1
 70
     0
  9
$DIMSE2
 70
     0
  9
$DIMTAD
 70
     0
  9
$DIMZIN
 70
     0
  9
$DIMBLK
  1

  9
$DIMASO
 70
     1
  9
$DIMSHO
 70
     1
  9
$DIMPOST
  1

  9
$DIMAPOST
  1

  9
$DIMALT
 70
     0
  9
$DIMALTD
 70
     2
  9
$DIMALTF
 40
25.4
  9
$DIMLFAC
 40
1.0
  9
$DIMTOFL
 70
     0
  9
$DIMTVP
 40
0.0
  9
$DIMTIX
 70
     0
  9
$DIMSOXD
 70
     0
  9
$DIMSAH
 70
     0
  9
$DIMBLK1
  1

  9
$DIMBLK2
  1

  9
$DIMSTYLE
  2
STANDARD
  9
$DIMCLRD
 70
     0
  9
$DIMCLRE
 70
     0
  9
$DIMCLRT
 70
     0
  9
$DIMTFAC
 40
1.0
  9
$DIMGAP
 40
0.09
  9
$DIMJUST
 70
     0
  9
$DIMSD1
 70
     0
  9
$DIMSD2
 70
     0
  9
$DIMTOLJ
 70
     1
  9
$DIMTZIN
 70
     0
  9
$DIMALTZ
 70
     0
  9
$DIMALTTZ
 70
     0
  9
$DIMUPT
 70
     0
  9
$DIMDEC
 70
     4
  9
$DIMTDEC
 70
     4
  9
$DIMALTU
 70
     2
  9
$DIMALTTD
 70
     2
  9
$DIMTXSTY
  7
STANDARD
  9
$DIMAUNIT
 70
     0
  9
$DIMADEC
 70
     0
  9
$DIMALTRND
 40
0.0
  9
$DIMAZIN
 70
     0
  9
$DIMDSEP
 70
    46
  9
$DIMATFIT
 70
     3
  9
$DIMFRAC
 70
     0
  9
$DIMLDRBLK
  1

  9
$DIMLUNIT
 70
     2
  9
$DIMLWD
 70
    -2
  9
$DIMLWE
 70
    -2
  9
$DIMTMOVE
 70
     0
  9
$LUNITS
 70
     2
  9
$LUPREC
 70
     4
  9
$SKETCHINC
 40
0.1
  9
$FILLETRAD
 40
2.0
  9
$AUNITS
 70
     0
  9
$AUPREC
 70
     0
  9
$MENU
  1
ACAD
  9
$ELEVATION
 40
0.0
  9
$PELEVATION
 40
0.0
  9
$THICKNESS
 40
0.0
  9
$LIMCHECK
 70
     0
  9
$CHAMFERA
 40
0.0
  9
$CHAMFERB
 40
0.0
  9
$CHAMFERC
 40
0.0
  9
$CHAMFERD
 40
0.0
  9
$SKPOLY
 70
     0
  9
$TDCREATE
 40
2452095.119270255
  9
$TDUCREATE
 40
2452095.285936922
  9
$TDUPDATE
 40
2453209.453388993
  9
$TDUUPDATE
 40
2453209.620055660
  9
$TDINDWG
 40
0.0005831481
  9
$TDUSRTIMER
 40
0.0005829630
  9
$USRTIMER
 70
     1
  9
$ANGBASE
 50
0.0
  9
$ANGDIR
 70
     0
  9
$PDMODE
 70
     0
  9
$PDSIZE
 40
0.0
  9
$PLINEWID
 40
0.0
  9
$SPLFRAME
 70
     0
  9
$SPLINETYPE
 70
     6
  9
$SPLINESEGS
 70
     8
  9
$HANDSEED
  5
FC
  9
$SURFTAB1
 70
     6
  9
$SURFTAB2
 70
     6
  9
$SURFTYPE
 70
     6
  9
$SURFU
 70
     6
  9
$SURFV
 70
     6
  9
$UCSBASE
  2

  9
$UCSNAME
  2

  9
$UCSORG
 10
0.0
 20
0.0
 30
0.0
  9
$UCSXDIR
 10
1.0
 20
0.0
 30
0.0
  9
$UCSYDIR
 10
0.0
 20
1.0
 30
0.0
  9
$UCSORTHOREF
  2

  9
$UCSORTHOVIEW
 70
     0
  9
$UCSORGTOP
 10
0.0
 20
0.0
 30
0.0
  9
$UCSORGBOTTOM
 10
0.0
 20
0.0
 30
0.0
  9
$UCSORGLEFT
 10
0.0
 20
0.0
 30
0.0
  9
$UCSORGRIGHT
 10
0.0
 20
0.0
 30
0.0
  9
$UCSORGFRONT
 10
0.0
 20
0.0
 30
0.0
  9
$UCSORGBACK
 10
0.0
 20
0.0
 30
0.0
  9
$PUCSBASE
  2

  9
$PUCSNAME
  2

  9
$PUCSORG
 10
0.0
 20
0.0
 30
0.0
  9
$PUCSXDIR
 10
1.0
 20
0.0
 30
0.0
  9
$PUCSYDIR
 10
0.0
 20
1.0
 30
0.0
  9
$PUCSORTHOREF
  2

  9
$PUCSORTHOVIEW
 70
     0
  9
$PUCSORGTOP
 10
0.0
 20
0.0
 30
0.0
  9
$PUCSORGBOTTOM
 10
0.0
 20
0.0
 30
0.0
  9
$PUCSORGLEFT
 10
0.0
 20
0.0
 30
0.0
  9
$PUCSORGRIGHT
 10
0.0
 20
0.0
 30
0.0
  9
$PUCSORGFRONT
 10
0.0
 20
0.0
 30
0.0
  9
$PUCSORGBACK
 10
0.0
 20
0.0
 30
0.0
  9
$USERI1
 70
     0
  9
$USERI2
 70
     0
  9
$USERI3
 70
     0
  9
$USERI4
 70
     0
  9
$USERI5
 70
     0
  9
$USERR1
 40
0.0
  9
$USERR2
 40
0.0
  9
$USERR3
 40
0.0
  9
$USERR4
 40
0.0
  9
$USERR5
 40
0.0
  9
$WORLDVIEW
 70
     1
  9
$SHADEDGE
 70
     3
  9
$SHADEDIF
 70
    70
  9
$TILEMODE
 70
     1
  9
$MAXACTVP
 70
    64
  9
$PINSBASE
 10
0.0
 20
0.0
 30
0.0
  9
$PLIMCHECK
 70
     0
  9
$PEXTMIN
 10
1.000000000000000E+20
 20
1.000000000000000E+20
 30
1.000000000000000E+20
  9
$PEXTMAX
 10
-1.000000000000000E+20
 20
-1.000000000000000E+20
 30
-1.000000000000000E+20
  9
$PLIMMIN
 10
0.0
 20
0.0
  9
$PLIMMAX
 10
12.0
 20
9.0
  9
$UNITMODE
 70
     0
  9
$VISRETAIN
 70
     1
  9
$PLINEGEN
 70
     0
  9
$PSLTSCALE
 70
     1
  9
$TREEDEPTH
 70
  3020
  9
$CMLSTYLE
  2
Standard
  9
$CMLJUST
 70
     0
  9
$CMLSCALE
 40
1.0
  9
$PROXYGRAPHICS
 70
     1
  9
$MEASUREMENT
 70
     0
  9
$CELWEIGHT
370
    -1
  9
$ENDCAPS
280
     0
  9
$JOINSTYLE
280
     0
  9
$LWDISPLAY
290
     0
  9
$INSUNITS
 70
     0
  9
$HYPERLINKBASE
  1

  9
$STYLESHEET
  1

  9
$XEDIT
290
     1
  9
$CEPSNTYPE
380
     0
  9
$PSTYLEMODE
290
     1
  9
$FINGERPRINTGUID
  2
{11E46032-3F0B-4572-9C7F-0DB7186D1F23}
  9
$VERSIONGUID
  2
{7FCFF47F-FE33-4F62-893A-937DDF210842}
  9
$EXTNAMES
290
     1
  9
$PSVPSCALE
 40
0.0
  9
$OLESTARTUP
290
     0
  9
$SORTENTS
280
   127
  9
$INDEXCTL
280
     0
  9
$HIDETEXT
280
     0
  9
$XCLIPFRAME
290
     0
  9
$HALOGAP
280
     0
  9
$OBSCOLOR
 70
   257
  9
$OBSLTYPE
280
     0
  9
$INTERSECTIONDISPLAY
280
     0
  9
$INTERSECTIONCOLOR
 70
   257
  9
$DIMASSOC
280
     1
  9
$PROJECTNAME
  1

  0
ENDSEC
  0
SECTION
  2
CLASSES
  0
CLASS
  1
ACDBDICTIONARYWDFLT
  2
AcDbDictionaryWithDefault
  3
ObjectDBX Classes
 90
        0
 91
        1
280
     0
281
     0
  0
ENDSEC
  0
SECTION
  2
TABLES
  0
TABLE
  2
VPORT
  5
C9
330
0
100
AcDbSymbolTable
 70
     2
  0
VPORT
  5
FB
330
C9
100
AcDbSymbolTableRecord
100
AcDbViewportTableRecord
  2
*Active
 70
     0
 10
0.0
 20
0.0
 11
1.0
 21
1.0
 12
131.5500890887389
 22
16.94250790777803
 13
0.0
 23
0.0
 14
1.0
 24
1.0
 15
0.0
 25
0.0
 16
0.0
 26
0.0
 36
1.0
 17
0.0
 27
0.0
 37
0.0
 40
241.9041663132691
 41
1.625
 42
50.0
 43
0.0
 44
0.0
 50
0.0
 51
0.0
 71
     0
 72
   100
 73
     1
 74
     1
 75
     0
 76
     0
 77
     0
 78
     0
281
     0
 65
     1
110
0.0
120
0.0
130
0.0
111
1.0
121
0.0
131
0.0
112
0.0
122
1.0
132
0.0
 79
     0
146
0.0
  0
ENDTAB
  0
TABLE
  2
LTYPE
  5
C6
330
0
100
AcDbSymbolTable
 70
     9
  0
LTYPE
  5
D4
330
C6
100
AcDbSymbolTableRecord
100
AcDbLinetypeTableRecord
  2
ByBlock
 70
     0
  3

 72
    65
 73
     0
 40
0.0
  0
LTYPE
  5
D5
330
C6
100
AcDbSymbolTableRecord
100
AcDbLinetypeTableRecord
  2
ByLayer
 70
     0
  3

 72
    65
 73
     0
 40
0.0
  0
LTYPE
  5
D6
330
C6
100
AcDbSymbolTableRecord
100
AcDbLinetypeTableRecord
  2
CONTINUOUS
 70
     0
  3
Solid line
 72
    65
 73
     0
 40
0.0
  0
LTYPE
  5
E6
330
C6
100
AcDbSymbolTableRecord
100
AcDbLinetypeTableRecord
  2
BORDER
 70
     0
  3
__ __ . __ __ .
 72
    65
 73
     6
 40
18.0363672030228
 49
5.153247772292232
 74
     0
 49
-2.576623886146114
 74
     0
 49
5.153247772292232
 74
     0
 49
-2.576623886146114
 74
     0
 49
0.0
 74
     0
 49
-2.576623886146114
 74
     0
  0
LTYPE
  5
E7
330
C6
100
AcDbSymbolTableRecord
100
AcDbLinetypeTableRecord
  2
CENTER
 70
     0
  3
____ _ ____ _
 72
    65
 73
     4
 40
20.61299108916892
 49
12.88311943073058
 74
     0
 49
-2.576623886146114
 74
     0
 49
2.576623886146114
 74
     0
 49
-2.576623886146114
 74
     0
  0
LTYPE
  5
E8
330
C6
100
AcDbSymbolTableRecord
100
AcDbLinetypeTableRecord
  2
DASHDOT
 70
     0
  3
__ . __ . __ .
 72
    65
 73
     4
 40
10.30649554458446
 49
5.153247772292232
 74
     0
 49
-2.576623886146114
 74
     0
 49
0.0
 74
     0
 49
-2.576623886146114
 74
     0
  0
LTYPE
  5
E9
330
C6
100
AcDbSymbolTableRecord
100
AcDbLinetypeTableRecord
  2
DASHED
 70
     0
  3
__ __ __ __ __
 72
    65
 73
     2
 40
7.729871658438345
 49
5.153247772292232
 74
     0
 49
-2.576623886146114
 74
     0
  0
LTYPE
  5
EA
330
C6
100
AcDbSymbolTableRecord
100
AcDbLinetypeTableRecord
  2
DIVIDE
 70
     0
  3
__ . . __ . . 
 72
    65
 73
     6
 40
12.88311943073058
 49
5.153247772292232
 74
     0
 49
-2.576623886146114
 74
     0
 49
0.0
 74
     0
 49
-2.576623886146114
 74
     0
 49
0.0
 74
     0
 49
-2.576623886146114
 74
     0
  0
LTYPE
  5
EB
330
C6
100
AcDbSymbolTableRecord
100
AcDbLinetypeTableRecord
  2
DOT
 70
     0
  3
..............
 72
    65
 73
     4
 40
5.153247772292232
 49
0.0
 74
     0
 49
-2.576623886146114
 74
     0
 49
0.0
 74
     0
 49
-2.576623886146114
 74
     0
  0
LTYPE
  5
EC
330
C6
100
AcDbSymbolTableRecord
100
AcDbLinetypeTableRecord
  2
HIDDEN
 70
     0
  3
_ _ _ _ _ _ _
 72
    65
 73
     2
 40
3.864935829219172
 49
2.576623886146114
 74
     0
 49
-1.288311943073057
 74
     0
  0
LTYPE
  5
ED
330
C6
100
AcDbSymbolTableRecord
100
AcDbLinetypeTableRecord
  2
PHANTOM
 70
     0
  3
_____ _ _ _____ _ _ 
 72
    65
 73
     6
 40
25.76623886146116
 49
12.88311943073058
 74
     0
 49
-2.576623886146114
 74
     0
 49
2.576623886146114
 74
     0
 49
-2.576623886146114
 74
     0
 49
2.576623886146114
 74
     0
 49
-2.576623886146114
 74
     0
  0
ENDTAB
  0
TABLE
  2
LAYER
  5
C3
330
0
100
AcDbSymbolTable
 70
     2
  0
LAYER
  5
D1
330
C3
100
AcDbSymbolTableRecord
100
AcDbLayerTableRecord
  2
0
 70
     0
 62
     7
  6
CONTINUOUS
370
    -3
390
D0
  0
LAYER
  5
EE
330
C3
100
AcDbSymbolTableRecord
100
AcDbLayerTableRecord
  2
1
 70
     0
 62
     7
  6
CONTINUOUS
370
    -3
390
D0
  0
ENDTAB
  0
TABLE
  2
STYLE
  5
C4
330
0
100
AcDbSymbolTable
 70
     4
  0
STYLE
  5
D2
330
C4
100
AcDbSymbolTableRecord
100
AcDbTextStyleTableRecord
  2
STANDARD
 70
     0
 40
0.0
 41
1.0
 50
0.0
 71
     0
 42
3.5
  3
txt
  4

  0
STYLE
  5
EF
330
C4
100
AcDbSymbolTableRecord
100
AcDbTextStyleTableRecord
  2
SIMPLEX
 70
     0
 40
0.0
 41
1.0
 50
0.0
 71
     0
 42
3.5
  3
simplex
  4

  0
STYLE
  5
F0
330
C4
100
AcDbSymbolTableRecord
100
AcDbTextStyleTableRecord
  2
COMPLEX
 70
     0
 40
0.0
 41
1.0
 50
0.0
 71
     0
 42
3.5
  3
complex
  4

  0
STYLE
  5
F1
330
C4
100
AcDbSymbolTableRecord
100
AcDbTextStyleTableRecord
  2
ITALIC
 70
     0
 40
0.0
 41
1.0
 50
0.0
 71
     0
 42
3.5
  3
italic
  4

  0
ENDTAB
  0
TABLE
  2
VIEW
  5
C7
330
0
100
AcDbSymbolTable
 70
     0
  0
ENDTAB
  0
TABLE
  2
UCS
  5
C8
330
0
100
AcDbSymbolTable
 70
     0
  0
ENDTAB
  0
TABLE
  2
APPID
  5
CA
330
0
100
AcDbSymbolTable
 70
     1
  0
APPID
  5
D3
330
CA
100
AcDbSymbolTableRecord
100
AcDbRegAppTableRecord
  2
ACAD
 70
     0
  0
ENDTAB
  0
TABLE
  2
DIMSTYLE
  5
CB
330
0
100
AcDbSymbolTable
 70
     1
100
AcDbDimStyleTable
 71
     0
  0
DIMSTYLE
105
F2
330
CB
100
AcDbSymbolTableRecord
100
AcDbDimStyleTableRecord
  2
STANDARD
 70
     0
279
     2
340
D2
  0
ENDTAB
  0
TABLE
  2
BLOCK_RECORD
  5
C2
330
0
100
AcDbSymbolTable
 70
     2
  0
BLOCK_RECORD
  5
E1
330
C2
100
AcDbSymbolTableRecord
100
AcDbBlockTableRecord
  2
*Model_Space
340
E4
  0
BLOCK_RECORD
  5
DD
330
C2
100
AcDbSymbolTableRecord
100
AcDbBlockTableRecord
  2
*Paper_Space
340
E0
  0
BLOCK_RECORD
  5
F7
330
C2
100
AcDbSymbolTableRecord
100
AcDbBlockTableRecord
  2
$MODEL_SPACE
340
0
  0
BLOCK_RECORD
  5
F9
330
C2
100
AcDbSymbolTableRecord
100
AcDbBlockTableRecord
  2
$PAPER_SPACE
340
0
  0
ENDTAB
  0
ENDSEC
  0
SECTION
  2
BLOCKS
  0
BLOCK
  5
E2
330
E1
100
AcDbEntity
  8
0
100
AcDbBlockBegin
  2
*Model_Space
 70
     0
 10
0.0
 20
0.0
 30
0.0
  3
*Model_Space
  1

  0
ENDBLK
  5
E3
330
E1
100
AcDbEntity
  8
0
100
AcDbBlockEnd
  0
BLOCK
  5
DE
330
DD
100
AcDbEntity
 67
     1
  8
0
100
AcDbBlockBegin
  2
*Paper_Space
 70
     0
 10
0.0
 20
0.0
 30
0.0
  3
*Paper_Space
  1

  0
ENDBLK
  5
DF
330
DD
100
AcDbEntity
 67
     1
  8
0
100
AcDbBlockEnd
  0
BLOCK
  5
F8
330
F7
100
AcDbEntity
  8
0
100
AcDbBlockBegin
  2
$MODEL_SPACE
 70
     0
 10
0.0
 20
0.0
 30
0.0
  3
$MODEL_SPACE
  1

  0
ENDBLK
  5
20
330
F7
100
AcDbEntity
  8
0
100
AcDbBlockEnd
  0
BLOCK
  5
FA
330
F9
100
AcDbEntity
  8
0
100
AcDbBlockBegin
  2
$PAPER_SPACE
 70
     0
 10
0.0
 20
0.0
 30
0.0
  3
$PAPER_SPACE
  1

  0
ENDBLK
  5
1C
330
F9
100
AcDbEntity
  8
0
100
AcDbBlockEnd
  0
ENDSEC
  0
SECTION
  2
ENTITIES
  0
LINE
  5
33
330
E1
100
AcDbEntity
  8
1
 62
     7
100
AcDbLine
 10
141.0
 20
-5.75
 30
0.0
 11
141.15
 21
-5.75
 31
0.0
  0
LINE
  5
34
330
E1
100
AcDbEntity
  8
1
 62
     7
100
AcDbLine
 10
141.0
 20
5.75
 30
0.0
 11
141.15
 21
5.75
 31
0.0
  0
LINE
  5
35
330
E1
100
AcDbEntity
  8
1
 62
     7
100
AcDbLine
 10
98.0
 20
8.000000000000012
 30
0.0
 11
98.0
 21
-8.95902676617583
 31
0.0
  0
LINE
  5
36
330
E1
100
AcDbEntity
  8
1
 62
     7
100
AcDbLine
 10
98.0
 20
8.000000000000012
 30
0.0
 11
99.0
 21
8.000000000000012
 31
0.0
  0
LINE
  5
37
330
E1
100
AcDbEntity
  8
1
 62
     7
100
AcDbLine
 10
98.0
 20
-8.95902676617583
 30
0.0
 11
99.0
 21
-8.95902676617583
 31
0.0
  0
LINE
  5
38
330
E1
100
AcDbEntity
  8
1
 62
     7
100
AcDbLine
 10
96.0
 20
6.0
 30
0.0
 11
96.0
 21
-6.0
 31
0.0
  0
LINE
  5
39
330
E1
100
AcDbEntity
  8
1
 62
     7
100
AcDbLine
 10
96.0
 20
-6.0
 30
0.0
 11
97.85
 21
-6.0
 31
0.0
  0
LINE
  5
3A
330
E1
100
AcDbEntity
  8
1
  6
DASHDOT
 62
     3
100
AcDbLine
 10
96.0
 20
0.0
 30
0.0
 11
93.0
 21
0.0
 31
0.0
  0
LINE
  5
3B
330
E1
100
AcDbEntity
  8
1
 62
     7
100
AcDbLine
 10
97.85
 20
6.0
 30
0.0
 11
96.0
 21
6.0
 31
0.0
  0
LINE
  5
3C
330
E1
100
AcDbEntity
  8
1
 62
     7
100
AcDbLine
 10
97.85
 20
6.0
 30
0.0
 11
97.85
 21
-6.0
 31
0.0
  0
LINE
  5
3D
330
E1
100
AcDbEntity
  8
1
 62
     7
100
AcDbLine
 10
97.85
 20
5.75
 30
0.0
 11
98.0
 21
5.75
 31
0.0
  0
LINE
  5
3E
330
E1
100
AcDbEntity
  8
1
 62
     7
100
AcDbLine
 10
97.85
 20
-5.75
 30
0.0
 11
98.0
 21
-5.749999999999999
 31
0.0
  0
LINE
  5
3F
330
E1
100
AcDbEntity
  8
1
 62
     7
100
AcDbLine
 10
141.0
 20
8.000000000000012
 30
0.0
 11
141.0
 21
-8.959026766175826
 31
0.0
  0
LINE
  5
40
330
E1
100
AcDbEntity
  8
1
 62
     7
100
AcDbLine
 10
140.0
 20
-8.95902676617583
 30
0.0
 11
141.0
 21
-8.959026766175826
 31
0.0
  0
LINE
  5
41
330
E1
100
AcDbEntity
  8
1
 62
     7
100
AcDbLine
 10
140.0
 20
8.000000000000012
 30
0.0
 11
141.0
 21
8.000000000000012
 31
0.0
  0
LINE
  5
42
330
E1
100
AcDbEntity
  8
1
 62
     7
100
AcDbLine
 10
141.15
 20
-6.0
 30
0.0
 11
175.0
 21
-6.0
 31
0.0
  0
LINE
  5
43
330
E1
100
AcDbEntity
  8
1
 62
     7
100
AcDbLine
 10
175.0
 20
-6.0
 30
0.0
 11
175.0
 21
4.0
 31
0.0
  0
LINE
  5
44
330
E1
100
AcDbEntity
  8
1
 62
     7
100
AcDbLine
 10
155.0
 20
6.0
 30
0.0
 11
141.15
 21
6.0
 31
0.0
  0
LINE
  5
45
330
E1
100
AcDbEntity
  8
1
 62
     7
100
AcDbLine
 10
141.15
 20
6.0
 30
0.0
 11
141.15
 21
-6.0
 31
0.0
  0
LINE
  5
46
330
E1
100
AcDbEntity
  8
1
 62
     3
100
AcDbLine
 10
155.0
 20
-4.472135954999578
 30
0.0
 11
175.0
 21
4.0
 31
0.0
  0
LINE
  5
47
330
E1
100
AcDbEntity
  8
1
 62
     3
100
AcDbLine
 10
155.0
 20
4.0
 30
0.0
 11
175.0
 21
-4.472135954999578
 31
0.0
  0
LINE
  5
48
330
E1
100
AcDbEntity
  8
1
 62
     7
100
AcDbLine
 10
155.0
 20
-4.472135954999578
 30
0.0
 11
175.0
 21
-4.472135954999578
 31
0.0
  0
LINE
  5
49
330
E1
100
AcDbEntity
  8
1
 62
     7
100
AcDbLine
 10
155.0
 20
6.0
 30
0.0
 11
155.0
 21
-4.472135954999578
 31
0.0
  0
LINE
  5
4A
330
E1
100
AcDbEntity
  8
1
 62
     7
100
AcDbLine
 10
175.0
 20
4.0
 30
0.0
 11
155.0
 21
4.0
 31
0.0
  0
LINE
  5
4B
330
E1
100
AcDbEntity
  8
1
  6
DASHDOT
 62
     3
100
AcDbLine
 10
178.0
 20
0.0
 30
0.0
 11
175.0
 21
0.0
 31
0.0
  0
LINE
  5
4C
330
E1
100
AcDbEntity
  8
1
 62
     7
100
AcDbLine
 10
-3.0
 20
42.86931771216877
 30
0.0
 11
-2.999999999999997
 21
43.93662459930681
 31
0.0
  0
LINE
  5
4D
330
E1
100
AcDbEntity
  8
1
 62
     7
100
AcDbLine
 10
269.16
 20
71.0
 30
0.0
 11
269.16
 21
55.96976326553471
 31
0.0
  0
LINE
  5
4E
330
E1
100
AcDbEntity
  8
1
 62
     3
100
AcDbLine
 10
270.47
 20
74.0
 30
0.0
 11
270.47
 21
71.0
 31
0.0
  0
LINE
  5
4F
330
E1
100
AcDbEntity
  8
1
 62
     3
100
AcDbLine
 10
269.6899999999999
 20
71.0
 30
0.0
 11
269.6899999999999
 21
74.0
 31
0.0
  0
LINE
  5
50
330
E1
100
AcDbEntity
  8
1
 62
     7
100
AcDbLine
 10
272.8399999999999
 20
71.0
 30
0.0
 11
272.8399999999999
 21
55.96976326553471
 31
0.0
  0
LINE
  5
51
330
E1
100
AcDbEntity
  8
1
 62
     7
100
AcDbLine
 10
271.0
 20
71.0
 30
0.0
 11
271.0
 21
56.0
 31
0.0
  0
LINE
  5
52
330
E1
100
AcDbEntity
  8
1
 62
     7
100
AcDbLine
 10
269.16
 20
71.0
 30
0.0
 11
272.8399999999999
 21
71.0
 31
0.0
  0
LINE
  5
53
330
E1
100
AcDbEntity
  8
1
 62
     3
100
AcDbLine
 10
271.5299999999999
 20
71.0
 30
0.0
 11
271.5299999999999
 21
74.0
 31
0.0
  0
LINE
  5
54
330
E1
100
AcDbEntity
  8
1
 62
     3
100
AcDbLine
 10
272.31
 20
74.0
 30
0.0
 11
272.31
 21
71.0
 31
0.0
  0
LINE
  5
55
330
E1
100
AcDbEntity
  8
1
 62
     3
100
AcDbLine
 10
126.39
 20
74.0
 30
0.0
 11
126.39
 21
71.0
 31
0.0
  0
LINE
  5
56
330
E1
100
AcDbEntity
  8
1
 62
     3
100
AcDbLine
 10
125.6099999999999
 20
71.0
 30
0.0
 11
125.6099999999999
 21
74.0
 31
0.0
  0
LINE
  5
57
330
E1
100
AcDbEntity
  8
1
 62
     7
100
AcDbLine
 10
125.0799999999999
 20
71.0
 30
0.0
 11
126.92
 21
71.0
 31
0.0
  0
LINE
  5
58
330
E1
100
AcDbEntity
  8
1
 62
     7
100
AcDbLine
 10
125.0799999999999
 20
71.0
 30
0.0
 11
125.0799999999999
 21
43.93662459930681
 31
0.0
  0
LINE
  5
59
330
E1
100
AcDbEntity
  8
1
 62
     7
100
AcDbLine
 10
126.92
 20
71.0
 30
0.0
 11
126.92
 21
43.93662459930681
 31
0.0
  0
LINE
  5
5A
330
E1
100
AcDbEntity
  8
1
 62
     7
100
AcDbLine
 10
2.999999999999997
 20
43.93662459930681
 30
0.0
 11
3.0
 21
42.86931771216877
 31
0.0
  0
LINE
  5
5B
330
E1
100
AcDbEntity
  8
1
 62
     7
100
AcDbLine
 10
-2.999999999999997
 20
43.93662459930681
 30
0.0
 11
2.999999999999997
 21
43.93662459930681
 31
0.0
  0
LINE
  5
5C
330
E1
100
AcDbEntity
  8
1
 62
     7
100
AcDbLine
 10
-1.839999999999974
 20
71.0
 30
0.0
 11
1.839999999999974
 21
71.0
 31
0.0
  0
LINE
  5
5D
330
E1
100
AcDbEntity
  8
1
 62
     7
100
AcDbLine
 10
-1.839999999999974
 20
71.0
 30
0.0
 11
-1.839999999999974
 21
43.93662459930681
 31
0.0
  0
LINE
  5
5E
330
E1
100
AcDbEntity
  8
1
 62
     3
100
AcDbLine
 10
-0.5300000000000296
 20
74.0
 30
0.0
 11
-0.5300000000000296
 21
71.0
 31
0.0
  0
LINE
  5
5F
330
E1
100
AcDbEntity
  8
1
 62
     3
100
AcDbLine
 10
-1.31
 20
71.0
 30
0.0
 11
-1.31
 21
74.0
 31
0.0
  0
LINE
  5
60
330
E1
100
AcDbEntity
  8
1
 62
     7
100
AcDbLine
 10
1.839999999999974
 20
71.0
 30
0.0
 11
1.839999999999974
 21
43.93662459930681
 31
0.0
  0
LINE
  5
61
330
E1
100
AcDbEntity
  8
1
 62
     7
100
AcDbLine
 10
0.0
 20
71.0
 30
0.0
 11
0.0
 21
43.93662459930681
 31
0.0
  0
LINE
  5
62
330
E1
100
AcDbEntity
  8
1
 62
     3
100
AcDbLine
 10
0.5300000000000296
 20
71.0
 30
0.0
 11
0.5300000000000296
 21
74.0
 31
0.0
  0
LINE
  5
63
330
E1
100
AcDbEntity
  8
1
 62
     3
100
AcDbLine
 10
1.31
 20
74.0
 30
0.0
 11
1.31
 21
71.0
 31
0.0
  0
LINE
  5
64
330
E1
100
AcDbEntity
  8
1
  6
DASHDOT
 62
     3
100
AcDbLine
 10
0.0
 20
1.5
 30
0.0
 11
0.0
 21
-1.5
 31
0.0
  0
LINE
  5
65
330
E1
100
AcDbEntity
  8
1
  6
DASHDOT
 62
     3
100
AcDbLine
 10
-1.5
 20
0.0
 30
0.0
 11
1.5
 21
0.0
 31
0.0
  0
LINE
  5
66
330
E1
100
AcDbEntity
  8
1
 62
     7
100
AcDbLine
 10
130.0
 20
-43.0
 30
0.0
 11
99.0
 21
-42.99999999999999
 31
0.0
  0
LINE
  5
67
330
E1
100
AcDbEntity
  8
1
 62
     7
100
AcDbLine
 10
140.0
 20
-43.0
 30
0.0
 11
140.0
 21
43.0
 31
0.0
  0
LINE
  5
68
330
E1
100
AcDbEntity
  8
1
 62
     7
100
AcDbLine
 10
99.0
 20
43.0
 30
0.0
 11
99.0
 21
-42.99999999999999
 31
0.0
  0
LINE
  5
69
330
E1
100
AcDbEntity
  8
1
 62
     7
100
AcDbLine
 10
123.0
 20
43.93662459930681
 30
0.0
 11
129.0
 21
43.93662459930681
 31
0.0
  0
LINE
  5
6A
330
E1
100
AcDbEntity
  8
1
 62
     7
100
AcDbLine
 10
99.0
 20
43.0
 30
0.0
 11
130.0
 21
43.0
 31
0.0
  0
LINE
  5
6B
330
E1
100
AcDbEntity
  8
1
 62
     7
100
AcDbLine
 10
130.0
 20
56.0
 30
0.0
 11
135.0
 21
56.0
 31
0.0
  0
LINE
  5
6C
330
E1
100
AcDbEntity
  8
1
 62
     7
100
AcDbLine
 10
135.0
 20
56.0
 30
0.0
 11
135.0
 21
-56.00000000000001
 31
0.0
  0
LINE
  5
6D
330
E1
100
AcDbEntity
  8
1
 62
     7
100
AcDbLine
 10
135.0
 20
-56.00000000000001
 30
0.0
 11
130.0
 21
-56.00000000000001
 31
0.0
  0
LINE
  5
6E
330
E1
100
AcDbEntity
  8
1
 62
     7
100
AcDbLine
 10
140.0
 20
-43.0
 30
0.0
 11
135.0
 21
-43.0
 31
0.0
  0
LINE
  5
6F
330
E1
100
AcDbEntity
  8
1
 62
     7
100
AcDbLine
 10
123.0
 20
43.93662459930681
 30
0.0
 11
123.0
 21
43.0
 31
0.0
  0
LINE
  5
70
330
E1
100
AcDbEntity
  8
1
 62
     7
100
AcDbLine
 10
129.0
 20
43.93662459930681
 30
0.0
 11
129.0
 21
43.0
 31
0.0
  0
LINE
  5
71
330
E1
100
AcDbEntity
  8
1
 62
     7
100
AcDbLine
 10
135.0
 20
43.0
 30
0.0
 11
140.0
 21
43.0
 31
0.0
  0
LINE
  5
72
330
E1
100
AcDbEntity
  8
1
 62
     7
100
AcDbLine
 10
130.0
 20
56.0
 30
0.0
 11
130.0
 21
-56.00000000000001
 31
0.0
  0
LINE
  5
73
330
E1
100
AcDbEntity
  8
1
  6
DASHDOT
 62
     3
100
AcDbLine
 10
269.4999999999999
 20
0.0
 30
0.0
 11
272.5
 21
0.0
 31
0.0
  0
LINE
  5
74
330
E1
100
AcDbEntity
  8
1
  6
DASHDOT
 62
     3
100
AcDbLine
 10
271.0
 20
1.5
 30
0.0
 11
271.0
 21
-1.5
 31
0.0
  0
LINE
  5
75
330
E1
100
AcDbEntity
  8
1
  6
DASHDOT
 62
     3
100
AcDbLine
 10
38.00698948877693
 20
38.00698948877693
 30
0.0
 11
32.70368862987782
 21
32.70368862987782
 31
0.0
  0
LINE
  5
76
330
E1
100
AcDbEntity
  8
1
  6
DASHDOT
 62
     3
100
AcDbLine
 10
-38.00698948877693
 20
38.00698948877693
 30
0.0
 11
-32.70368862987782
 21
32.70368862987782
 31
0.0
  0
LINE
  5
77
330
E1
100
AcDbEntity
  8
1
  6
DASHDOT
 62
     3
100
AcDbLine
 10
-38.00698948877693
 20
-38.00698948877693
 30
0.0
 11
-32.70368862987782
 21
-32.70368862987781
 31
0.0
  0
LINE
  5
78
330
E1
100
AcDbEntity
  8
1
  6
DASHDOT
 62
     3
100
AcDbLine
 10
38.00698948877693
 20
-38.00698948877693
 30
0.0
 11
32.70368862987781
 21
-32.70368862987782
 31
0.0
  0
LINE
  5
79
330
E1
100
AcDbEntity
  8
1
  6
DASHDOT
 62
     3
100
AcDbLine
 10
309.0069894887768
 20
38.00698948877693
 30
0.0
 11
303.7036886298777
 21
32.70368862987782
 31
0.0
  0
LINE
  5
7A
330
E1
100
AcDbEntity
  8
1
  6
DASHDOT
 62
     3
100
AcDbLine
 10
309.0069894887768
 20
-38.00698948877693
 30
0.0
 11
303.7036886298777
 21
-32.70368862987782
 31
0.0
  0
LINE
  5
7B
330
E1
100
AcDbEntity
  8
1
  6
DASHDOT
 62
     3
100
AcDbLine
 10
232.993010511223
 20
-38.00698948877693
 30
0.0
 11
238.2963113701221
 21
-32.70368862987781
 31
0.0
  0
LINE
  5
7C
330
E1
100
AcDbEntity
  8
1
  6
DASHDOT
 62
     3
100
AcDbLine
 10
232.993010511223
 20
38.00698948877693
 30
0.0
 11
238.2963113701221
 21
32.70368862987782
 31
0.0
  0
LINE
  5
7D
330
E1
100
AcDbEntity
  8
1
 62
     7
100
AcDbLine
 10
275.4721359549995
 20
4.0
 30
0.0
 11
267.0
 21
4.0
 31
0.0
  0
LINE
  5
7E
330
E1
100
AcDbEntity
  8
1
 62
     7
100
AcDbLine
 10
267.0
 20
4.0
 30
0.0
 11
267.0
 21
-4.472135954999578
 31
0.0
  0
LINE
  5
7F
330
E1
100
AcDbEntity
  8
1
 62
     7
100
AcDbLine
 10
266.8
 20
-7.059026766175831
 30
0.0
 11
266.8
 21
-6.084765791223411
 31
0.0
  0
LINE
  5
80
330
E1
100
AcDbEntity
  8
1
 62
     7
100
AcDbLine
 10
268.6999999999999
 20
-8.95902676617583
 30
0.0
 11
270.3
 21
-8.95902676617583
 31
0.0
  0
LINE
  5
81
330
E1
100
AcDbEntity
  8
1
 62
     7
100
AcDbLine
 10
270.3
 20
-5.95902676617583
 30
0.0
 11
270.3
 21
-8.95902676617583
 31
0.0
  0
LINE
  5
82
330
E1
100
AcDbEntity
  8
1
 62
     7
100
AcDbLine
 10
271.7
 20
-8.95902676617583
 30
0.0
 11
271.7
 21
-5.95902676617583
 31
0.0
  0
LINE
  5
83
330
E1
100
AcDbEntity
  8
1
 62
     7
100
AcDbLine
 10
271.7
 20
-8.95902676617583
 30
0.0
 11
273.3
 21
-8.95902676617583
 31
0.0
  0
LINE
  5
84
330
E1
100
AcDbEntity
  8
1
 62
     7
100
AcDbLine
 10
275.1999999999999
 20
-6.084765791223411
 30
0.0
 11
275.1999999999999
 21
-7.059026766175831
 31
0.0
  0
LINE
  5
85
330
E1
100
AcDbEntity
  8
1
 62
     7
100
AcDbLine
 10
-4.200000000000009
 20
-7.059026766175831
 30
0.0
 11
-4.200000000000009
 21
-6.084765791223411
 31
0.0
  0
LINE
  5
86
330
E1
100
AcDbEntity
  8
1
 62
     7
100
AcDbLine
 10
-2.300000000000002
 20
-8.95902676617583
 30
0.0
 11
-0.70000000000001
 21
-8.95902676617583
 31
0.0
  0
LINE
  5
87
330
E1
100
AcDbEntity
  8
1
 62
     7
100
AcDbLine
 10
-0.70000000000001
 20
-5.95902676617583
 30
0.0
 11
-0.70000000000001
 21
-8.95902676617583
 31
0.0
  0
LINE
  5
88
330
E1
100
AcDbEntity
  8
1
 62
     7
100
AcDbLine
 10
0.6999999999999959
 20
-8.95902676617583
 30
0.0
 11
0.6999999999999959
 21
-5.95902676617583
 31
0.0
  0
LINE
  5
89
330
E1
100
AcDbEntity
  8
1
 62
     7
100
AcDbLine
 10
0.6999999999999959
 20
-8.95902676617583
 30
0.0
 11
2.29999999999999
 21
-8.95902676617583
 31
0.0
  0
LINE
  5
8A
330
E1
100
AcDbEntity
  8
1
 62
     7
100
AcDbLine
 10
4.199999999999993
 20
-6.084765791223411
 30
0.0
 11
4.199999999999993
 21
-7.059026766175831
 31
0.0
  0
LINE
  5
8B
330
E1
100
AcDbEntity
  8
1
 62
     3
100
AcDbLine
 10
271.92
 20
74.0
 30
0.0
 11
271.92
 21
71.0
 31
0.0
  0
LINE
  5
8C
330
E1
100
AcDbEntity
  8
1
 62
     3
100
AcDbLine
 10
270.08
 20
74.0
 30
0.0
 11
270.08
 21
71.0
 31
0.0
  0
LINE
  5
8D
330
E1
100
AcDbEntity
  8
1
 62
     3
100
AcDbLine
 10
126.0
 20
74.0
 30
0.0
 11
126.0
 21
71.0
 31
0.0
  0
LINE
  5
8E
330
E1
100
AcDbEntity
  8
1
 62
     3
100
AcDbLine
 10
0.9199999999999588
 20
74.0
 30
0.0
 11
0.9199999999999588
 21
71.0
 31
0.0
  0
LINE
  5
8F
330
E1
100
AcDbEntity
  8
1
 62
     3
100
AcDbLine
 10
-0.9200000000000727
 20
74.0
 30
0.0
 11
-0.9200000000000727
 21
71.0
 31
0.0
  0
ARC
  5
90
330
E1
100
AcDbEntity
  8
1
 62
     7
100
AcDbCircle
 10
264.6
 20
-6.084765791223411
 30
0.0
 40
2.199999999999988
100
AcDbArc
 50
0.0
 51
47.089815978325
  0
ARC
  5
91
330
E1
100
AcDbEntity
  8
1
 62
     7
100
AcDbCircle
 10
268.6999999999999
 20
-7.059026766175831
 30
0.0
 40
1.899999999999975
100
AcDbArc
 50
180.0
 51
270.0
  0
ARC
  5
92
330
E1
100
AcDbEntity
  8
1
 62
     7
100
AcDbCircle
 10
273.3
 20
-7.059026766175831
 30
0.0
 40
1.899999999999997
100
AcDbArc
 50
270.0
 51
0.0
  0
ARC
  5
93
330
E1
100
AcDbEntity
  8
1
 62
     7
100
AcDbCircle
 10
277.4
 20
-6.084765791223411
 30
0.0
 40
2.199999999999973
100
AcDbArc
 50
132.910184021675
 51
180.0
  0
ARC
  5
94
330
E1
100
AcDbEntity
  8
1
 62
     7
100
AcDbCircle
 10
-6.400000000000011
 20
-6.084765791223411
 30
0.0
 40
2.200000000000001
100
AcDbArc
 50
0.0
 51
47.08981597832408
  0
ARC
  5
95
330
E1
100
AcDbEntity
  8
1
 62
     7
100
AcDbCircle
 10
-2.300000000000002
 20
-7.059026766175831
 30
0.0
 40
1.900000000000004
100
AcDbArc
 50
180.0
 51
270.0
  0
ARC
  5
96
330
E1
100
AcDbEntity
  8
1
 62
     7
100
AcDbCircle
 10
2.29999999999999
 20
-7.059026766175831
 30
0.0
 40
1.899999999999997
100
AcDbArc
 50
270.0
 51
0.0
  0
ARC
  5
97
330
E1
100
AcDbEntity
  8
1
 62
     7
100
AcDbCircle
 10
6.399999999999997
 20
-6.084765791223411
 30
0.0
 40
2.2
100
AcDbArc
 50
132.910184021676
 51
180.0
  0
ARC
  5
98
330
E1
100
AcDbEntity
  8
1
  6
DASHDOT
 62
     3
100
AcDbCircle
 10
0.0
 20
0.0
 30
0.0
 40
50.0
100
AcDbArc
 50
40.70180874627197
 51
49.29819125372802
  0
ARC
  5
99
330
E1
100
AcDbEntity
  8
1
  6
DASHDOT
 62
     3
100
AcDbCircle
 10
0.0
 20
0.0
 30
0.0
 40
50.0
100
AcDbArc
 50
130.7018087462718
 51
139.298191253728
  0
ARC
  5
9A
330
E1
100
AcDbEntity
  8
1
  6
DASHDOT
 62
     3
100
AcDbCircle
 10
0.0
 20
0.0
 30
0.0
 40
50.0
100
AcDbArc
 50
220.701808746272
 51
229.298191253728
  0
ARC
  5
9B
330
E1
100
AcDbEntity
  8
1
  6
DASHDOT
 62
     3
100
AcDbCircle
 10
0.0
 20
0.0
 30
0.0
 40
50.0
100
AcDbArc
 50
310.701808746272
 51
319.2981912537281
  0
ARC
  5
9C
330
E1
100
AcDbEntity
  8
1
  6
DASHDOT
 62
     3
100
AcDbCircle
 10
271.0
 20
0.0
 30
0.0
 40
50.0
100
AcDbArc
 50
40.70180874627197
 51
49.29819125372793
  0
ARC
  5
9D
330
E1
100
AcDbEntity
  8
1
  6
DASHDOT
 62
     3
100
AcDbCircle
 10
271.0
 20
0.0
 30
0.0
 40
49.99999999999997
100
AcDbArc
 50
310.701808746272
 51
319.298191253728
  0
ARC
  5
9E
330
E1
100
AcDbEntity
  8
1
  6
DASHDOT
 62
     3
100
AcDbCircle
 10
271.0
 20
0.0
 30
0.0
 40
50.0
100
AcDbArc
 50
220.7018087462721
 51
229.2981912537279
  0
ARC
  5
9F
330
E1
100
AcDbEntity
  8
1
  6
DASHDOT
 62
     3
100
AcDbCircle
 10
271.0
 20
0.0
 30
0.0
 40
50.0
100
AcDbArc
 50
130.7018087462718
 51
139.298191253728
  0
ARC
  5
A0
330
E1
100
AcDbEntity
  8
1
 62
     7
100
AcDbCircle
 10
0.0
 20
0.0
 30
0.0
 40
56.00000000000001
100
AcDbArc
 50
91.88291451278567
 51
88.11708548721432
  0
ARC
  5
A1
330
E1
100
AcDbEntity
  8
1
 62
     7
100
AcDbCircle
 10
271.0
 20
0.7999999999999972
 30
0.0
 40
7.200000000000012
100
AcDbArc
 50
312.910184021676
 51
227.0898159783239
  0
ARC
  5
A2
330
E1
100
AcDbEntity
  8
1
 62
     7
100
AcDbCircle
 10
0.0
 20
0.7999999999999972
 30
0.0
 40
7.200000000000001
100
AcDbArc
 50
312.9101840216758
 51
227.0898159783239
  0
CIRCLE
  5
A3
330
E1
100
AcDbEntity
  8
1
 62
     7
100
AcDbCircle
 10
0.0
 20
0.0
 30
0.0
 40
14.0
  0
CIRCLE
  5
A4
330
E1
100
AcDbEntity
  8
1
 62
     7
100
AcDbCircle
 10
0.0
 20
0.0
 30
0.0
 40
6.0
  0
CIRCLE
  5
A5
330
E1
100
AcDbEntity
  8
1
 62
     7
100
AcDbCircle
 10
0.0
 20
0.0
 30
0.0
 40
27.0
  0
CIRCLE
  5
A6
330
E1
100
AcDbEntity
  8
1
 62
     7
100
AcDbCircle
 10
0.0
 20
0.0
 30
0.0
 40
39.0
  0
CIRCLE
  5
A7
330
E1
100
AcDbEntity
  8
1
 62
     7
100
AcDbCircle
 10
0.0
 20
0.0
 30
0.0
 40
43.0
  0
CIRCLE
  5
A8
330
E1
100
AcDbEntity
  8
1
 62
     7
100
AcDbCircle
 10
271.0
 20
0.0
 30
0.0
 40
56.0
  0
CIRCLE
  5
A9
330
E1
100
AcDbEntity
  8
1
 62
     7
100
AcDbCircle
 10
271.0
 20
0.0
 30
0.0
 40
43.0
  0
CIRCLE
  5
AA
330
E1
100
AcDbEntity
  8
1
 62
     7
100
AcDbCircle
 10
271.0
 20
0.0
 30
0.0
 40
14.0
  0
CIRCLE
  5
AB
330
E1
100
AcDbEntity
  8
1
 62
     7
100
AcDbCircle
 10
35.35533905932737
 20
35.35533905932737
 30
0.0
 40
2.75
  0
CIRCLE
  5
AC
330
E1
100
AcDbEntity
  8
1
 62
     7
100
AcDbCircle
 10
-35.35533905932737
 20
35.35533905932737
 30
0.0
 40
2.75
  0
CIRCLE
  5
AD
330
E1
100
AcDbEntity
  8
1
 62
     7
100
AcDbCircle
 10
-35.35533905932737
 20
-35.35533905932735
 30
0.0
 40
2.75
  0
CIRCLE
  5
AE
330
E1
100
AcDbEntity
  8
1
 62
     7
100
AcDbCircle
 10
35.35533905932735
 20
-35.35533905932737
 30
0.0
 40
2.75
  0
CIRCLE
  5
AF
330
E1
100
AcDbEntity
  8
1
 62
     7
100
AcDbCircle
 10
306.3553390593273
 20
35.35533905932737
 30
0.0
 40
2.75
  0
CIRCLE
  5
B0
330
E1
100
AcDbEntity
  8
1
 62
     7
100
AcDbCircle
 10
306.3553390593273
 20
-35.35533905932737
 30
0.0
 40
2.75
  0
CIRCLE
  5
B1
330
E1
100
AcDbEntity
  8
1
 62
     7
100
AcDbCircle
 10
235.6446609406726
 20
-35.35533905932735
 30
0.0
 40
2.75
  0
CIRCLE
  5
B2
330
E1
100
AcDbEntity
  8
1
 62
     7
100
AcDbCircle
 10
235.6446609406726
 20
35.35533905932737
 30
0.0
 40
2.75
  0
CIRCLE
  5
B3
330
E1
100
AcDbEntity
  8
1
 62
     7
100
AcDbCircle
 10
271.0
 20
0.0
 30
0.0
 40
27.0
  0
CIRCLE
  5
B4
330
E1
100
AcDbEntity
  8
1
 62
     7
100
AcDbCircle
 10
271.0
 20
0.0
 30
0.0
 40
6.0
  0
CIRCLE
  5
B5
330
E1
100
AcDbEntity
  8
1
 62
     7
100
AcDbCircle
 10
268.7582364885991
 20
-7.263313776938787
 30
0.0
 40
0.899999999999977
  0
CIRCLE
  5
B6
330
E1
100
AcDbEntity
  8
1
 62
     7
100
AcDbCircle
 10
273.2417635114009
 20
-7.263313776938787
 30
0.0
 40
0.899999999999977
  0
CIRCLE
  5
B7
330
E1
100
AcDbEntity
  8
1
 62
     7
100
AcDbCircle
 10
-2.241763511400883
 20
-7.263313776938787
 30
0.0
 40
0.9000000000000053
  0
CIRCLE
  5
B8
330
E1
100
AcDbEntity
  8
1
 62
     7
100
AcDbCircle
 10
2.241763511400868
 20
-7.263313776938787
 30
0.0
 40
0.9000000000000058
  0
TEXT
  5
BA
330
E1
100
AcDbEntity
  8
1
 62
     7
100
AcDbText
 10
-63.89587718033732
 20
84.88501513622599
 30
0.0
 40
5.0
  1
OPB 40N
 41
0.9
  7
SIMPLEX
 72
     1
 11
-49.2173057517659
 21
84.88501513622599
 31
0.0
100
AcDbText
  0
ENDSEC
  0
SECTION
  2
OBJECTS
  0
DICTIONARY
  5
CD
330
0
100
AcDbDictionary
281
     1
  3
ACAD_COLOR
350
DC
  3
ACAD_GROUP
350
CE
  3
ACAD_LAYOUT
350
DA
  3
ACAD_MATERIAL
350
DB
  3
ACAD_MLINESTYLE
350
D7
  3
ACAD_PLOTSETTINGS
350
D9
  3
ACAD_PLOTSTYLENAME
350
CF
  0
DICTIONARY
  5
DC
102
{ACAD_REACTORS
330
CD
102
}
330
CD
100
AcDbDictionary
281
     1
  0
DICTIONARY
  5
CE
102
{ACAD_REACTORS
330
CD
102
}
330
CD
100
AcDbDictionary
281
     1
  0
DICTIONARY
  5
DA
102
{ACAD_REACTORS
330
CD
102
}
330
CD
100
AcDbDictionary
281
     1
  3
Layout1
350
E0
  3
Model
350
E4
  0
DICTIONARY
  5
DB
102
{ACAD_REACTORS
330
CD
102
}
330
CD
100
AcDbDictionary
281
     1
  0
DICTIONARY
  5
D7
102
{ACAD_REACTORS
330
CD
102
}
330
CD
100
AcDbDictionary
281
     1
  3
Standard
350
D8
  0
DICTIONARY
  5
D9
102
{ACAD_REACTORS
330
CD
102
}
330
CD
100
AcDbDictionary
281
     1
  0
ACDBDICTIONARYWDFLT
  5
CF
102
{ACAD_REACTORS
330
CD
102
}
330
CD
100
AcDbDictionary
281
     1
  3
Normal
350
D0
100
AcDbDictionaryWithDefault
340
D0
  0
LAYOUT
  5
E0
102
{ACAD_REACTORS
330
DA
102
}
330
DA
100
AcDbPlotSettings
  1

  2
\\Ogura1\HP Color LaserJet 4600 PCL 5c
  4

  6

 40
0.0
 41
0.0
 42
0.0
 43
0.0
 44
0.0
 45
0.0
 46
0.0
 47
0.0
 48
0.0
 49
0.0
140
0.0
141
0.0
142
1.0
143
1.0
 70
   688
 72
     0
 73
     0
 74
     5
  7

 75
    16
147
1.0
 76
     0
 77
     2
 78
   300
148
0.0
149
0.0
100
AcDbLayout
  1
Layout1
 70
     1
 71
     1
 10
0.0
 20
0.0
 11
12.0
 21
9.0
 12
0.0
 22
0.0
 32
0.0
 14
1.000000000000000E+20
 24
1.000000000000000E+20
 34
1.000000000000000E+20
 15
-1.000000000000000E+20
 25
-1.000000000000000E+20
 35
-1.000000000000000E+20
146
0.0
 13
0.0
 23
0.0
 33
0.0
 16
1.0
 26
0.0
 36
0.0
 17
0.0
 27
1.0
 37
0.0
 76
     0
330
DD
  0
LAYOUT
  5
E4
102
{ACAD_REACTORS
330
DA
102
}
330
DA
100
AcDbPlotSettings
  1

  2
\\Ogura1\HP Color LaserJet 4600 PCL 5c
  4

  6

 40
0.0
 41
0.0
 42
0.0
 43
0.0
 44
0.0
 45
0.0
 46
0.0
 47
0.0
 48
0.0
 49
0.0
140
0.0
141
0.0
142
1.0
143
1.0
 70
  1712
 72
     0
 73
     0
 74
     0
  7

 75
     0
147
1.0
 76
     0
 77
     2
 78
   300
148
0.0
149
0.0
100
AcDbLayout
  1
Model
 70
     1
 71
     0
 10
0.0
 20
0.0
 11
12.0
 21
9.0
 12
0.0
 22
0.0
 32
0.0
 14
0.0
 24
0.0
 34
0.0
 15
0.0
 25
0.0
 35
0.0
146
0.0
 13
0.0
 23
0.0
 33
0.0
 16
1.0
 26
0.0
 36
0.0
 17
0.0
 27
1.0
 37
0.0
 76
     0
330
E1
  0
MLINESTYLE
  5
D8
102
{ACAD_REACTORS
330
D7
102
}
330
D7
100
AcDbMlineStyle
  2
STANDARD
 70
     0
  3

 62
   256
 51
90.0
 52
90.0
 71
     2
 49
0.5
 62
   256
  6
BYLAYER
 49
-0.5
 62
   256
  6
BYLAYER
  0
ACDBPLACEHOLDER
  5
D0
102
{ACAD_REACTORS
330
CF
102
}
330
CF
  0
ENDSEC
  0
EOF
