  0
SECTION
  2
HEADER
  9
$ACADVER
  1
AC1018
  9
$ACADMAINTVER
 70
     0
  9
$DWGCODEPAGE
  3
ANSI_932
  9
$INSBASE
 10
0.0
 20
0.0
 30
0.0
  9
$EXTMIN
 10
-53.88025481282728
 20
-46.00365882387627
 30
-0.0015258207003583
  9
$EXTMAX
 10
299.5108045864081
 20
73.90514777777122
 30
0.0000000349246037
  9
$LIMMIN
 10
-54.5176776037313
 20
-46.0
  9
$LIMMAX
 10
299.5
 20
73.90148839556009
  9
$ORTHOMODE
 70
     0
  9
$REGENMODE
 70
     1
  9
$FILLMODE
 70
     1
  9
$QTEXTMODE
 70
     0
  9
$MIRRTEXT
 70
     1
  9
$LTSCALE
 40
1.0
  9
$ATTMODE
 70
     1
  9
$TEXTSIZE
 40
3.5
  9
$TRACEWID
 40
0.5
  9
$TEXTSTYLE
  7
STANDARD
  9
$CLAYER
  8
0
  9
$CELTYPE
  6
ByLayer
  9
$CECOLOR
 62
   256
  9
$CELTSCALE
 40
1.0
  9
$DISPSILH
 70
     0
  9
$DIMSCALE
 40
1.0
  9
$DIMASZ
 40
0.18
  9
$DIMEXO
 40
0.0625
  9
$DIMDLI
 40
0.38
  9
$DIMRND
 40
0.0
  9
$DIMDLE
 40
0.0
  9
$DIMEXE
 40
0.18
  9
$DIMTP
 40
0.0
  9
$DIMTM
 40
0.0
  9
$DIMTXT
 40
0.18
  9
$DIMCEN
 40
0.09
  9
$DIMTSZ
 40
0.0
  9
$DIMTOL
 70
     0
  9
$DIMLIM
 70
     0
  9
$DIMTIH
 70
     1
  9
$DIMTOH
 70
     1
  9
$DIMSE1
 70
     0
  9
$DIMSE2
 70
     0
  9
$DIMTAD
 70
     0
  9
$DIMZIN
 70
     0
  9
$DIMBLK
  1

  9
$DIMASO
 70
     1
  9
$DIMSHO
 70
     1
  9
$DIMPOST
  1

  9
$DIMAPOST
  1

  9
$DIMALT
 70
     0
  9
$DIMALTD
 70
     2
  9
$DIMALTF
 40
25.4
  9
$DIMLFAC
 40
1.0
  9
$DIMTOFL
 70
     0
  9
$DIMTVP
 40
0.0
  9
$DIMTIX
 70
     0
  9
$DIMSOXD
 70
     0
  9
$DIMSAH
 70
     0
  9
$DIMBLK1
  1

  9
$DIMBLK2
  1

  9
$DIMSTYLE
  2
STANDARD
  9
$DIMCLRD
 70
     0
  9
$DIMCLRE
 70
     0
  9
$DIMCLRT
 70
     0
  9
$DIMTFAC
 40
1.0
  9
$DIMGAP
 40
0.09
  9
$DIMJUST
 70
     0
  9
$DIMSD1
 70
     0
  9
$DIMSD2
 70
     0
  9
$DIMTOLJ
 70
     1
  9
$DIMTZIN
 70
     0
  9
$DIMALTZ
 70
     0
  9
$DIMALTTZ
 70
     0
  9
$DIMUPT
 70
     0
  9
$DIMDEC
 70
     4
  9
$DIMTDEC
 70
     4
  9
$DIMALTU
 70
     2
  9
$DIMALTTD
 70
     2
  9
$DIMTXSTY
  7
STANDARD
  9
$DIMAUNIT
 70
     0
  9
$DIMADEC
 70
     0
  9
$DIMALTRND
 40
0.0
  9
$DIMAZIN
 70
     0
  9
$DIMDSEP
 70
    46
  9
$DIMATFIT
 70
     3
  9
$DIMFRAC
 70
     0
  9
$DIMLDRBLK
  1

  9
$DIMLUNIT
 70
     2
  9
$DIMLWD
 70
    -2
  9
$DIMLWE
 70
    -2
  9
$DIMTMOVE
 70
     0
  9
$LUNITS
 70
     2
  9
$LUPREC
 70
     4
  9
$SKETCHINC
 40
0.1
  9
$FILLETRAD
 40
2.0
  9
$AUNITS
 70
     0
  9
$AUPREC
 70
     0
  9
$MENU
  1
ACAD
  9
$ELEVATION
 40
0.0
  9
$PELEVATION
 40
0.0
  9
$THICKNESS
 40
0.0
  9
$LIMCHECK
 70
     0
  9
$CHAMFERA
 40
0.0
  9
$CHAMFERB
 40
0.0
  9
$CHAMFERC
 40
0.0
  9
$CHAMFERD
 40
0.0
  9
$SKPOLY
 70
     0
  9
$TDCREATE
 40
2452095.118462269
  9
$TDUCREATE
 40
2452095.285128935
  9
$TDUPDATE
 40
2453209.453366204
  9
$TDUUPDATE
 40
2453209.620032871
  9
$TDINDWG
 40
0.0005147338
  9
$TDUSRTIMER
 40
0.0005145486
  9
$USRTIMER
 70
     1
  9
$ANGBASE
 50
0.0
  9
$ANGDIR
 70
     0
  9
$PDMODE
 70
     0
  9
$PDSIZE
 40
0.0
  9
$PLINEWID
 40
0.0
  9
$SPLFRAME
 70
     0
  9
$SPLINETYPE
 70
     6
  9
$SPLINESEGS
 70
     8
  9
$HANDSEED
  5
100
  9
$SURFTAB1
 70
     6
  9
$SURFTAB2
 70
     6
  9
$SURFTYPE
 70
     6
  9
$SURFU
 70
     6
  9
$SURFV
 70
     6
  9
$UCSBASE
  2

  9
$UCSNAME
  2

  9
$UCSORG
 10
0.0
 20
0.0
 30
0.0
  9
$UCSXDIR
 10
1.0
 20
0.0
 30
0.0
  9
$UCSYDIR
 10
0.0
 20
1.0
 30
0.0
  9
$UCSORTHOREF
  2

  9
$UCSORTHOVIEW
 70
     0
  9
$UCSORGTOP
 10
0.0
 20
0.0
 30
0.0
  9
$UCSORGBOTTOM
 10
0.0
 20
0.0
 30
0.0
  9
$UCSORGLEFT
 10
0.0
 20
0.0
 30
0.0
  9
$UCSORGRIGHT
 10
0.0
 20
0.0
 30
0.0
  9
$UCSORGFRONT
 10
0.0
 20
0.0
 30
0.0
  9
$UCSORGBACK
 10
0.0
 20
0.0
 30
0.0
  9
$PUCSBASE
  2

  9
$PUCSNAME
  2

  9
$PUCSORG
 10
0.0
 20
0.0
 30
0.0
  9
$PUCSXDIR
 10
1.0
 20
0.0
 30
0.0
  9
$PUCSYDIR
 10
0.0
 20
1.0
 30
0.0
  9
$PUCSORTHOREF
  2

  9
$PUCSORTHOVIEW
 70
     0
  9
$PUCSORGTOP
 10
0.0
 20
0.0
 30
0.0
  9
$PUCSORGBOTTOM
 10
0.0
 20
0.0
 30
0.0
  9
$PUCSORGLEFT
 10
0.0
 20
0.0
 30
0.0
  9
$PUCSORGRIGHT
 10
0.0
 20
0.0
 30
0.0
  9
$PUCSORGFRONT
 10
0.0
 20
0.0
 30
0.0
  9
$PUCSORGBACK
 10
0.0
 20
0.0
 30
0.0
  9
$USERI1
 70
     0
  9
$USERI2
 70
     0
  9
$USERI3
 70
     0
  9
$USERI4
 70
     0
  9
$USERI5
 70
     0
  9
$USERR1
 40
0.0
  9
$USERR2
 40
0.0
  9
$USERR3
 40
0.0
  9
$USERR4
 40
0.0
  9
$USERR5
 40
0.0
  9
$WORLDVIEW
 70
     1
  9
$SHADEDGE
 70
     3
  9
$SHADEDIF
 70
    70
  9
$TILEMODE
 70
     1
  9
$MAXACTVP
 70
    64
  9
$PINSBASE
 10
0.0
 20
0.0
 30
0.0
  9
$PLIMCHECK
 70
     0
  9
$PEXTMIN
 10
1.000000000000000E+20
 20
1.000000000000000E+20
 30
1.000000000000000E+20
  9
$PEXTMAX
 10
-1.000000000000000E+20
 20
-1.000000000000000E+20
 30
-1.000000000000000E+20
  9
$PLIMMIN
 10
0.0
 20
0.0
  9
$PLIMMAX
 10
12.0
 20
9.0
  9
$UNITMODE
 70
     0
  9
$VISRETAIN
 70
     1
  9
$PLINEGEN
 70
     0
  9
$PSLTSCALE
 70
     1
  9
$TREEDEPTH
 70
  3020
  9
$CMLSTYLE
  2
Standard
  9
$CMLJUST
 70
     0
  9
$CMLSCALE
 40
1.0
  9
$PROXYGRAPHICS
 70
     1
  9
$MEASUREMENT
 70
     0
  9
$CELWEIGHT
370
    -1
  9
$ENDCAPS
280
     0
  9
$JOINSTYLE
280
     0
  9
$LWDISPLAY
290
     0
  9
$INSUNITS
 70
     0
  9
$HYPERLINKBASE
  1

  9
$STYLESHEET
  1

  9
$XEDIT
290
     1
  9
$CEPSNTYPE
380
     0
  9
$PSTYLEMODE
290
     1
  9
$FINGERPRINTGUID
  2
{E95DA170-DA8D-4650-BD01-C7DCF20511D6}
  9
$VERSIONGUID
  2
{5797A72D-5B33-424E-8FD6-1949E959B869}
  9
$EXTNAMES
290
     1
  9
$PSVPSCALE
 40
0.0
  9
$OLESTARTUP
290
     0
  9
$SORTENTS
280
   127
  9
$INDEXCTL
280
     0
  9
$HIDETEXT
280
     0
  9
$XCLIPFRAME
290
     0
  9
$HALOGAP
280
     0
  9
$OBSCOLOR
 70
   257
  9
$OBSLTYPE
280
     0
  9
$INTERSECTIONDISPLAY
280
     0
  9
$INTERSECTIONCOLOR
 70
   257
  9
$DIMASSOC
280
     1
  9
$PROJECTNAME
  1

  0
ENDSEC
  0
SECTION
  2
CLASSES
  0
CLASS
  1
ACDBDICTIONARYWDFLT
  2
AcDbDictionaryWithDefault
  3
ObjectDBX Classes
 90
        0
 91
        1
280
     0
281
     0
  0
ENDSEC
  0
SECTION
  2
TABLES
  0
TABLE
  2
VPORT
  5
CD
330
0
100
AcDbSymbolTable
 70
     2
  0
VPORT
  5
FF
330
CD
100
AcDbSymbolTableRecord
100
AcDbViewportTableRecord
  2
*Active
 70
     0
 10
0.0
 20
0.0
 11
1.0
 21
1.0
 12
122.8152748867904
 22
13.95074447694748
 13
0.0
 23
0.0
 14
1.0
 24
1.0
 15
0.0
 25
0.0
 16
0.0
 26
0.0
 36
1.0
 17
0.0
 27
0.0
 37
0.0
 40
218.6788969600963
 41
1.625
 42
50.0
 43
0.0
 44
0.0
 50
0.0
 51
0.0
 71
     0
 72
   100
 73
     1
 74
     1
 75
     0
 76
     0
 77
     0
 78
     0
281
     0
 65
     1
110
0.0
120
0.0
130
0.0
111
1.0
121
0.0
131
0.0
112
0.0
122
1.0
132
0.0
 79
     0
146
0.0
  0
ENDTAB
  0
TABLE
  2
LTYPE
  5
CA
330
0
100
AcDbSymbolTable
 70
     9
  0
LTYPE
  5
D8
330
CA
100
AcDbSymbolTableRecord
100
AcDbLinetypeTableRecord
  2
ByBlock
 70
     0
  3

 72
    65
 73
     0
 40
0.0
  0
LTYPE
  5
D9
330
CA
100
AcDbSymbolTableRecord
100
AcDbLinetypeTableRecord
  2
ByLayer
 70
     0
  3

 72
    65
 73
     0
 40
0.0
  0
LTYPE
  5
DA
330
CA
100
AcDbSymbolTableRecord
100
AcDbLinetypeTableRecord
  2
CONTINUOUS
 70
     0
  3
Solid line
 72
    65
 73
     0
 40
0.0
  0
LTYPE
  5
EA
330
CA
100
AcDbSymbolTableRecord
100
AcDbLinetypeTableRecord
  2
BORDER
 70
     0
  3
__ __ . __ __ .
 72
    65
 73
     6
 40
16.3034456791192
 49
4.6581273368912
 74
     0
 49
-2.329063668445598
 74
     0
 49
4.6581273368912
 74
     0
 49
-2.329063668445598
 74
     0
 49
0.0
 74
     0
 49
-2.329063668445598
 74
     0
  0
LTYPE
  5
EB
330
CA
100
AcDbSymbolTableRecord
100
AcDbLinetypeTableRecord
  2
CENTER
 70
     0
  3
____ _ ____ _
 72
    65
 73
     4
 40
18.6325093475648
 49
11.645318342228
 74
     0
 49
-2.329063668445598
 74
     0
 49
2.329063668445598
 74
     0
 49
-2.329063668445598
 74
     0
  0
LTYPE
  5
EC
330
CA
100
AcDbSymbolTableRecord
100
AcDbLinetypeTableRecord
  2
DASHDOT
 70
     0
  3
__ . __ . __ .
 72
    65
 73
     4
 40
9.316254673782399
 49
4.6581273368912
 74
     0
 49
-2.329063668445598
 74
     0
 49
0.0
 74
     0
 49
-2.329063668445598
 74
     0
  0
LTYPE
  5
ED
330
CA
100
AcDbSymbolTableRecord
100
AcDbLinetypeTableRecord
  2
DASHED
 70
     0
  3
__ __ __ __ __
 72
    65
 73
     2
 40
6.987191005336799
 49
4.6581273368912
 74
     0
 49
-2.329063668445598
 74
     0
  0
LTYPE
  5
EE
330
CA
100
AcDbSymbolTableRecord
100
AcDbLinetypeTableRecord
  2
DIVIDE
 70
     0
  3
__ . . __ . . 
 72
    65
 73
     6
 40
11.645318342228
 49
4.6581273368912
 74
     0
 49
-2.329063668445598
 74
     0
 49
0.0
 74
     0
 49
-2.329063668445598
 74
     0
 49
0.0
 74
     0
 49
-2.329063668445598
 74
     0
  0
LTYPE
  5
EF
330
CA
100
AcDbSymbolTableRecord
100
AcDbLinetypeTableRecord
  2
DOT
 70
     0
  3
..............
 72
    65
 73
     4
 40
4.6581273368912
 49
0.0
 74
     0
 49
-2.329063668445598
 74
     0
 49
0.0
 74
     0
 49
-2.329063668445598
 74
     0
  0
LTYPE
  5
F0
330
CA
100
AcDbSymbolTableRecord
100
AcDbLinetypeTableRecord
  2
HIDDEN
 70
     0
  3
_ _ _ _ _ _ _
 72
    65
 73
     2
 40
3.493595502668398
 49
2.329063668445598
 74
     0
 49
-1.164531834222799
 74
     0
  0
LTYPE
  5
F1
330
CA
100
AcDbSymbolTableRecord
100
AcDbLinetypeTableRecord
  2
PHANTOM
 70
     0
  3
_____ _ _ _____ _ _ 
 72
    65
 73
     6
 40
23.290636684456
 49
11.645318342228
 74
     0
 49
-2.329063668445598
 74
     0
 49
2.329063668445598
 74
     0
 49
-2.329063668445598
 74
     0
 49
2.329063668445598
 74
     0
 49
-2.329063668445598
 74
     0
  0
ENDTAB
  0
TABLE
  2
LAYER
  5
C7
330
0
100
AcDbSymbolTable
 70
     2
  0
LAYER
  5
D5
330
C7
100
AcDbSymbolTableRecord
100
AcDbLayerTableRecord
  2
0
 70
     0
 62
     7
  6
CONTINUOUS
370
    -3
390
D4
  0
LAYER
  5
F2
330
C7
100
AcDbSymbolTableRecord
100
AcDbLayerTableRecord
  2
1
 70
     0
 62
     7
  6
CONTINUOUS
370
    -3
390
D4
  0
ENDTAB
  0
TABLE
  2
STYLE
  5
C8
330
0
100
AcDbSymbolTable
 70
     4
  0
STYLE
  5
D6
330
C8
100
AcDbSymbolTableRecord
100
AcDbTextStyleTableRecord
  2
STANDARD
 70
     0
 40
0.0
 41
1.0
 50
0.0
 71
     0
 42
3.5
  3
txt
  4

  0
STYLE
  5
F3
330
C8
100
AcDbSymbolTableRecord
100
AcDbTextStyleTableRecord
  2
SIMPLEX
 70
     0
 40
0.0
 41
1.0
 50
0.0
 71
     0
 42
3.5
  3
simplex
  4

  0
STYLE
  5
F4
330
C8
100
AcDbSymbolTableRecord
100
AcDbTextStyleTableRecord
  2
COMPLEX
 70
     0
 40
0.0
 41
1.0
 50
0.0
 71
     0
 42
3.5
  3
complex
  4

  0
STYLE
  5
F5
330
C8
100
AcDbSymbolTableRecord
100
AcDbTextStyleTableRecord
  2
ITALIC
 70
     0
 40
0.0
 41
1.0
 50
0.0
 71
     0
 42
3.5
  3
italic
  4

  0
ENDTAB
  0
TABLE
  2
VIEW
  5
CB
330
0
100
AcDbSymbolTable
 70
     0
  0
ENDTAB
  0
TABLE
  2
UCS
  5
CC
330
0
100
AcDbSymbolTable
 70
     0
  0
ENDTAB
  0
TABLE
  2
APPID
  5
CE
330
0
100
AcDbSymbolTable
 70
     1
  0
APPID
  5
D7
330
CE
100
AcDbSymbolTableRecord
100
AcDbRegAppTableRecord
  2
ACAD
 70
     0
  0
ENDTAB
  0
TABLE
  2
DIMSTYLE
  5
CF
330
0
100
AcDbSymbolTable
 70
     1
100
AcDbDimStyleTable
 71
     0
  0
DIMSTYLE
105
F6
330
CF
100
AcDbSymbolTableRecord
100
AcDbDimStyleTableRecord
  2
STANDARD
 70
     0
279
     2
340
D6
  0
ENDTAB
  0
TABLE
  2
BLOCK_RECORD
  5
C6
330
0
100
AcDbSymbolTable
 70
     2
  0
BLOCK_RECORD
  5
E5
330
C6
100
AcDbSymbolTableRecord
100
AcDbBlockTableRecord
  2
*Model_Space
340
E8
  0
BLOCK_RECORD
  5
E1
330
C6
100
AcDbSymbolTableRecord
100
AcDbBlockTableRecord
  2
*Paper_Space
340
E4
  0
BLOCK_RECORD
  5
FB
330
C6
100
AcDbSymbolTableRecord
100
AcDbBlockTableRecord
  2
$MODEL_SPACE
340
0
  0
BLOCK_RECORD
  5
FD
330
C6
100
AcDbSymbolTableRecord
100
AcDbBlockTableRecord
  2
$PAPER_SPACE
340
0
  0
ENDTAB
  0
ENDSEC
  0
SECTION
  2
BLOCKS
  0
BLOCK
  5
E6
330
E5
100
AcDbEntity
  8
0
100
AcDbBlockBegin
  2
*Model_Space
 70
     0
 10
0.0
 20
0.0
 30
0.0
  3
*Model_Space
  1

  0
ENDBLK
  5
E7
330
E5
100
AcDbEntity
  8
0
100
AcDbBlockEnd
  0
BLOCK
  5
E2
330
E1
100
AcDbEntity
 67
     1
  8
0
100
AcDbBlockBegin
  2
*Paper_Space
 70
     0
 10
0.0
 20
0.0
 30
0.0
  3
*Paper_Space
  1

  0
ENDBLK
  5
E3
330
E1
100
AcDbEntity
 67
     1
  8
0
100
AcDbBlockEnd
  0
BLOCK
  5
FC
330
FB
100
AcDbEntity
  8
0
100
AcDbBlockBegin
  2
$MODEL_SPACE
 70
     0
 10
0.0
 20
0.0
 30
0.0
  3
$MODEL_SPACE
  1

  0
ENDBLK
  5
20
330
FB
100
AcDbEntity
  8
0
100
AcDbBlockEnd
  0
BLOCK
  5
FE
330
FD
100
AcDbEntity
  8
0
100
AcDbBlockBegin
  2
$PAPER_SPACE
 70
     0
 10
0.0
 20
0.0
 30
0.0
  3
$PAPER_SPACE
  1

  0
ENDBLK
  5
1C
330
FD
100
AcDbEntity
  8
0
100
AcDbBlockEnd
  0
ENDSEC
  0
SECTION
  2
ENTITIES
  0
POINT
  5
33
330
E5
100
AcDbEntity
  8
1
  6
DOT
 62
     7
100
AcDbPoint
 10
5.0
 20
0.0
 30
0.0
  0
LINE
  5
34
330
E5
100
AcDbEntity
  8
1
 62
     7
100
AcDbLine
 10
92.34999999999999
 20
-4.799999999999998
 30
0.0
 11
92.2
 21
-4.799999999999998
 31
0.0
  0
LINE
  5
35
330
E5
100
AcDbEntity
  8
1
 62
     7
100
AcDbLine
 10
92.34999999999999
 20
4.799999999999998
 30
0.0
 11
92.2
 21
4.799999999999998
 31
0.0
  0
LINE
  5
36
330
E5
100
AcDbEntity
  8
1
 62
     7
100
AcDbLine
 10
93.34999999999999
 20
6.499999999999985
 30
0.0
 11
93.34999999999999
 21
-7.663869458396345
 31
0.0
  0
LINE
  5
37
330
E5
100
AcDbEntity
  8
1
 62
     7
100
AcDbLine
 10
92.2
 20
5.0
 30
0.0
 11
92.2
 21
-5.000000000000004
 31
0.0
  0
LINE
  5
38
330
E5
100
AcDbEntity
  8
1
 62
     7
100
AcDbLine
 10
93.34999999999999
 20
-5.000000000000006
 30
0.0
 11
93.49999999999999
 21
-5.000000000000006
 31
0.0
  0
LINE
  5
39
330
E5
100
AcDbEntity
  8
1
 62
     7
100
AcDbLine
 10
93.34999999999999
 20
5.0
 30
0.0
 11
93.49999999999999
 21
5.0
 31
0.0
  0
LINE
  5
3A
330
E5
100
AcDbEntity
  8
1
 62
     7
100
AcDbLine
 10
-3.0
 20
34.36931771216878
 30
0.0
 11
-3.0
 21
35.43662459930681
 31
0.0
  0
LINE
  5
3B
330
E5
100
AcDbEntity
  8
1
 62
     7
100
AcDbLine
 10
251.6599999999999
 20
61.0
 30
0.0
 11
251.6599999999999
 21
45.96318526821221
 31
0.0
  0
LINE
  5
3C
330
E5
100
AcDbEntity
  8
1
 62
     3
100
AcDbLine
 10
252.97
 20
64.0
 30
0.0
 11
252.97
 21
61.0
 31
0.0
  0
LINE
  5
3D
330
E5
100
AcDbEntity
  8
1
 62
     3
100
AcDbLine
 10
252.19
 20
61.0
 30
0.0
 11
252.19
 21
64.0
 31
0.0
  0
LINE
  5
3E
330
E5
100
AcDbEntity
  8
1
 62
     7
100
AcDbLine
 10
255.3399999999999
 20
61.0
 30
0.0
 11
255.3399999999999
 21
45.96318526821221
 31
0.0
  0
LINE
  5
3F
330
E5
100
AcDbEntity
  8
1
 62
     7
100
AcDbLine
 10
253.5
 20
61.0
 30
0.0
 11
253.5
 21
46.0
 31
0.0
  0
LINE
  5
40
330
E5
100
AcDbEntity
  8
1
 62
     7
100
AcDbLine
 10
251.6599999999999
 20
61.0
 30
0.0
 11
255.3399999999999
 21
61.0
 31
0.0
  0
LINE
  5
41
330
E5
100
AcDbEntity
  8
1
 62
     3
100
AcDbLine
 10
254.03
 20
61.0
 30
0.0
 11
254.03
 21
64.0
 31
0.0
  0
LINE
  5
42
330
E5
100
AcDbEntity
  8
1
 62
     3
100
AcDbLine
 10
254.81
 20
64.0
 30
0.0
 11
254.81
 21
61.0
 31
0.0
  0
LINE
  5
43
330
E5
100
AcDbEntity
  8
1
 62
     3
100
AcDbLine
 10
118.89
 20
64.0
 30
0.0
 11
118.89
 21
61.0
 31
0.0
  0
LINE
  5
44
330
E5
100
AcDbEntity
  8
1
 62
     3
100
AcDbLine
 10
118.11
 20
61.0
 30
0.0
 11
118.11
 21
64.0
 31
0.0
  0
LINE
  5
45
330
E5
100
AcDbEntity
  8
1
 62
     7
100
AcDbLine
 10
117.5799999999999
 20
61.0
 30
0.0
 11
119.42
 21
61.0
 31
0.0
  0
LINE
  5
46
330
E5
100
AcDbEntity
  8
1
 62
     7
100
AcDbLine
 10
117.5799999999999
 20
61.0
 30
0.0
 11
117.5799999999999
 21
35.43662459930681
 31
0.0
  0
LINE
  5
47
330
E5
100
AcDbEntity
  8
1
 62
     7
100
AcDbLine
 10
119.42
 20
61.0
 30
0.0
 11
119.42
 21
35.43662459930681
 31
0.0
  0
LINE
  5
48
330
E5
100
AcDbEntity
  8
1
 62
     7
100
AcDbLine
 10
3.0
 20
35.43662459930681
 30
0.0
 11
3.0
 21
34.36931771216878
 31
0.0
  0
LINE
  5
49
330
E5
100
AcDbEntity
  8
1
 62
     7
100
AcDbLine
 10
-3.0
 20
35.43662459930681
 30
0.0
 11
3.0
 21
35.43662459930681
 31
0.0
  0
LINE
  5
4A
330
E5
100
AcDbEntity
  8
1
 62
     7
100
AcDbLine
 10
-1.839999999999974
 20
61.0
 30
0.0
 11
1.839999999999974
 21
61.0
 31
0.0
  0
LINE
  5
4B
330
E5
100
AcDbEntity
  8
1
 62
     7
100
AcDbLine
 10
-1.839999999999974
 20
61.0
 30
0.0
 11
-1.839999999999974
 21
35.43662459930681
 31
0.0
  0
LINE
  5
4C
330
E5
100
AcDbEntity
  8
1
 62
     3
100
AcDbLine
 10
-0.5300000000000296
 20
64.0
 30
0.0
 11
-0.5300000000000296
 21
61.0
 31
0.0
  0
LINE
  5
4D
330
E5
100
AcDbEntity
  8
1
 62
     3
100
AcDbLine
 10
-1.31
 20
61.0
 30
0.0
 11
-1.31
 21
64.0
 31
0.0
  0
LINE
  5
4E
330
E5
100
AcDbEntity
  8
1
 62
     7
100
AcDbLine
 10
1.839999999999974
 20
61.0
 30
0.0
 11
1.839999999999974
 21
35.43662459930681
 31
0.0
  0
LINE
  5
4F
330
E5
100
AcDbEntity
  8
1
 62
     7
100
AcDbLine
 10
0.0
 20
61.0
 30
0.0
 11
0.0
 21
35.43662459930681
 31
0.0
  0
LINE
  5
50
330
E5
100
AcDbEntity
  8
1
 62
     3
100
AcDbLine
 10
0.5300000000000296
 20
61.0
 30
0.0
 11
0.5300000000000296
 21
64.0
 31
0.0
  0
LINE
  5
51
330
E5
100
AcDbEntity
  8
1
 62
     3
100
AcDbLine
 10
1.31
 20
64.0
 30
0.0
 11
1.31
 21
61.0
 31
0.0
  0
LINE
  5
52
330
E5
100
AcDbEntity
  8
1
  6
DASHDOT
 62
     3
100
AcDbLine
 10
0.0
 20
1.5
 30
0.0
 11
0.0
 21
-1.5
 31
0.0
  0
LINE
  5
53
330
E5
100
AcDbEntity
  8
1
  6
DASHDOT
 62
     3
100
AcDbLine
 10
-1.5
 20
0.0
 30
0.0
 11
1.5
 21
0.0
 31
0.0
  0
LINE
  5
54
330
E5
100
AcDbEntity
  8
1
  6
CENTER
 62
     3
100
AcDbLine
 10
31.28947506750474
 20
-31.28947506750483
 30
0.0
 11
26.69328098979219
 21
-26.69328098979226
 31
0.0
  0
LINE
  5
55
330
E5
100
AcDbEntity
  8
1
  6
CENTER
 62
     3
100
AcDbLine
 10
-31.28947506750482
 20
-31.28947506750474
 30
0.0
 11
-26.69328098979226
 21
-26.69328098979219
 31
0.0
  0
LINE
  5
56
330
E5
100
AcDbEntity
  8
1
  6
CENTER
 62
     3
100
AcDbLine
 10
-31.28947506750474
 20
31.28947506750482
 30
0.0
 11
-26.69328098979219
 21
26.69328098979226
 31
0.0
  0
LINE
  5
57
330
E5
100
AcDbEntity
  8
1
  6
CENTER
 62
     3
100
AcDbLine
 10
31.28947506750482
 20
31.28947506750475
 30
0.0
 11
26.69328098979226
 21
26.69328098979219
 31
0.0
  0
LINE
  5
58
330
E5
100
AcDbEntity
  8
1
 62
     7
100
AcDbLine
 10
123.5
 20
-34.5
 30
0.0
 11
93.49999999999999
 21
-34.5
 31
0.0
  0
LINE
  5
59
330
E5
100
AcDbEntity
  8
1
 62
     7
100
AcDbLine
 10
130.4999999999998
 20
-34.5
 30
0.0
 11
130.4999999999998
 21
34.5
 31
0.0
  0
LINE
  5
5A
330
E5
100
AcDbEntity
  8
1
 62
     7
100
AcDbLine
 10
93.49999999999999
 20
34.5
 30
0.0
 11
93.49999999999999
 21
-34.5
 31
0.0
  0
LINE
  5
5B
330
E5
100
AcDbEntity
  8
1
 62
     3
100
AcDbLine
 10
142.5
 20
-3.000000000000003
 30
0.0
 11
162.5
 21
3.0
 31
0.0
  0
LINE
  5
5C
330
E5
100
AcDbEntity
  8
1
 62
     3
100
AcDbLine
 10
142.5
 20
3.0
 30
0.0
 11
162.5
 21
-3.000000000000003
 31
0.0
  0
LINE
  5
5D
330
E5
100
AcDbEntity
  8
1
 62
     7
100
AcDbLine
 10
142.5
 20
-3.000000000000003
 30
0.0
 11
162.5
 21
-3.000000000000003
 31
0.0
  0
LINE
  5
5E
330
E5
100
AcDbEntity
  8
1
 62
     7
100
AcDbLine
 10
142.5
 20
3.0
 30
0.0
 11
142.5
 21
-3.000000000000003
 31
0.0
  0
LINE
  5
5F
330
E5
100
AcDbEntity
  8
1
 62
     7
100
AcDbLine
 10
162.5
 20
3.0
 30
0.0
 11
142.5
 21
3.0
 31
0.0
  0
LINE
  5
60
330
E5
100
AcDbEntity
  8
1
 62
     7
100
AcDbLine
 10
142.5
 20
5.0
 30
0.0
 11
131.4999999999998
 21
5.0
 31
0.0
  0
LINE
  5
61
330
E5
100
AcDbEntity
  8
1
 62
     7
100
AcDbLine
 10
142.5
 20
4.0
 30
0.0
 11
142.5
 21
5.0
 31
0.0
  0
LINE
  5
62
330
E5
100
AcDbEntity
  8
1
 62
     7
100
AcDbLine
 10
162.5
 20
4.0
 30
0.0
 11
142.5
 21
4.0
 31
0.0
  0
LINE
  5
63
330
E5
100
AcDbEntity
  8
1
 62
     7
100
AcDbLine
 10
162.5
 20
-5.000000000000004
 30
0.0
 11
162.5
 21
4.0
 31
0.0
  0
LINE
  5
64
330
E5
100
AcDbEntity
  8
1
 62
     7
100
AcDbLine
 10
131.4999999999998
 20
-5.000000000000004
 30
0.0
 11
162.5
 21
-5.000000000000004
 31
0.0
  0
LINE
  5
65
330
E5
100
AcDbEntity
  8
1
 62
     7
100
AcDbLine
 10
131.4999999999998
 20
6.499999999999985
 30
0.0
 11
131.4999999999998
 21
-7.663869458396348
 31
0.0
  0
LINE
  5
66
330
E5
100
AcDbEntity
  8
1
 62
     7
100
AcDbLine
 10
91.0
 20
5.0
 30
0.0
 11
91.0
 21
-5.000000000000004
 31
0.0
  0
LINE
  5
67
330
E5
100
AcDbEntity
  8
1
 62
     7
100
AcDbLine
 10
92.2
 20
5.0
 30
0.0
 11
91.0
 21
5.0
 31
0.0
  0
LINE
  5
68
330
E5
100
AcDbEntity
  8
1
 62
     7
100
AcDbLine
 10
92.34999999999999
 20
6.499999999999985
 30
0.0
 11
92.34999999999999
 21
-7.663869458396348
 31
0.0
  0
LINE
  5
69
330
E5
100
AcDbEntity
  8
1
 62
     7
100
AcDbLine
 10
91.0
 20
-5.000000000000004
 30
0.0
 11
92.2
 21
-5.000000000000004
 31
0.0
  0
LINE
  5
6A
330
E5
100
AcDbEntity
  8
1
 62
     7
100
AcDbLine
 10
115.5
 20
35.43662459930681
 30
0.0
 11
121.5
 21
35.43662459930681
 31
0.0
  0
LINE
  5
6B
330
E5
100
AcDbEntity
  8
1
 62
     7
100
AcDbLine
 10
93.49999999999999
 20
34.5
 30
0.0
 11
123.5
 21
34.5
 31
0.0
  0
LINE
  5
6C
330
E5
100
AcDbEntity
  8
1
 62
     7
100
AcDbLine
 10
123.5
 20
46.0
 30
0.0
 11
127.5
 21
46.0
 31
0.0
  0
LINE
  5
6D
330
E5
100
AcDbEntity
  8
1
 62
     7
100
AcDbLine
 10
127.5
 20
46.0
 30
0.0
 11
127.5
 21
-46.0
 31
0.0
  0
LINE
  5
6E
330
E5
100
AcDbEntity
  8
1
 62
     7
100
AcDbLine
 10
127.5
 20
-46.0
 30
0.0
 11
123.5
 21
-46.0
 31
0.0
  0
LINE
  5
6F
330
E5
100
AcDbEntity
  8
1
 62
     7
100
AcDbLine
 10
130.4999999999998
 20
-34.5
 30
0.0
 11
127.5
 21
-34.5
 31
0.0
  0
LINE
  5
70
330
E5
100
AcDbEntity
  8
1
 62
     7
100
AcDbLine
 10
130.4999999999998
 20
6.499999999999985
 30
0.0
 11
131.4999999999998
 21
6.499999999999985
 31
0.0
  0
LINE
  5
71
330
E5
100
AcDbEntity
  8
1
 62
     7
100
AcDbLine
 10
130.4999999999998
 20
-7.663869458396345
 30
0.0
 11
131.4999999999998
 21
-7.663869458396348
 31
0.0
  0
LINE
  5
72
330
E5
100
AcDbEntity
  8
1
 62
     7
100
AcDbLine
 10
92.34999999999999
 20
6.499999999999985
 30
0.0
 11
93.34999999999999
 21
6.499999999999985
 31
0.0
  0
LINE
  5
73
330
E5
100
AcDbEntity
  8
1
 62
     7
100
AcDbLine
 10
92.34999999999999
 20
-7.663869458396348
 30
0.0
 11
93.34999999999999
 21
-7.663869458396345
 31
0.0
  0
LINE
  5
74
330
E5
100
AcDbEntity
  8
1
 62
     7
100
AcDbLine
 10
250.4999999999999
 20
4.0
 30
0.0
 11
256.4999999999999
 21
4.0
 31
0.0
  0
LINE
  5
75
330
E5
100
AcDbEntity
  8
1
 62
     7
100
AcDbLine
 10
249.5
 20
-2.999999999999996
 30
0.0
 11
249.5
 21
3.0
 31
0.0
  0
LINE
  5
76
330
E5
100
AcDbEntity
  8
1
 62
     7
100
AcDbLine
 10
115.5
 20
35.43662459930681
 30
0.0
 11
115.5
 21
34.5
 31
0.0
  0
LINE
  5
77
330
E5
100
AcDbEntity
  8
1
 62
     7
100
AcDbLine
 10
121.5
 20
35.43662459930681
 30
0.0
 11
121.5
 21
34.5
 31
0.0
  0
LINE
  5
78
330
E5
100
AcDbEntity
  8
1
 62
     7
100
AcDbLine
 10
127.5
 20
34.5
 30
0.0
 11
130.4999999999998
 21
34.5
 31
0.0
  0
LINE
  5
79
330
E5
100
AcDbEntity
  8
1
 62
     7
100
AcDbLine
 10
123.5
 20
46.0
 30
0.0
 11
123.5
 21
-46.0
 31
0.0
  0
LINE
  5
7A
330
E5
100
AcDbEntity
  8
1
  6
CENTER
 62
     3
100
AcDbLine
 10
284.7894750675049
 20
31.28947506750472
 30
0.0
 11
280.1932809897924
 21
26.69328098979216
 31
0.0
  0
LINE
  5
7B
330
E5
100
AcDbEntity
  8
1
  6
CENTER
 62
     3
100
AcDbLine
 10
222.2105249324953
 20
31.28947506750489
 30
0.0
 11
226.8067190102079
 21
26.69328098979236
 31
0.0
  0
LINE
  5
7C
330
E5
100
AcDbEntity
  8
1
  6
CENTER
 62
     3
100
AcDbLine
 10
222.210524932495
 20
-31.28947506750469
 30
0.0
 11
226.8067190102076
 21
-26.69328098979214
 31
0.0
  0
LINE
  5
7D
330
E5
100
AcDbEntity
  8
1
  6
CENTER
 62
     3
100
AcDbLine
 10
284.7894750675046
 20
-31.28947506750489
 30
0.0
 11
280.1932809897921
 21
-26.69328098979236
 31
0.0
  0
LINE
  5
7E
330
E5
100
AcDbEntity
  8
1
  6
DASHDOT
 62
     3
100
AcDbLine
 10
252.0
 20
0.0
 30
0.0
 11
255.0
 21
0.0
 31
0.0
  0
LINE
  5
7F
330
E5
100
AcDbEntity
  8
1
  6
DASHDOT
 62
     3
100
AcDbLine
 10
253.5
 20
1.5
 30
0.0
 11
253.5
 21
-1.5
 31
0.0
  0
LINE
  5
80
330
E5
100
AcDbEntity
  8
1
 62
     7
100
AcDbLine
 10
249.9
 20
-6.363869458396351
 30
0.0
 11
249.9
 21
-5.128498911788121
 31
0.0
  0
LINE
  5
81
330
E5
100
AcDbEntity
  8
1
 62
     7
100
AcDbLine
 10
251.2
 20
-7.663869458396345
 30
0.0
 11
252.8999999999999
 21
-7.663869458396345
 31
0.0
  0
LINE
  5
82
330
E5
100
AcDbEntity
  8
1
 62
     7
100
AcDbLine
 10
252.8999999999999
 20
-4.963869458396345
 30
0.0
 11
252.8999999999999
 21
-7.663869458396345
 31
0.0
  0
LINE
  5
83
330
E5
100
AcDbEntity
  8
1
 62
     7
100
AcDbLine
 10
254.0999999999999
 20
-7.663869458396345
 30
0.0
 11
254.0999999999999
 21
-4.963869458396345
 31
0.0
  0
LINE
  5
84
330
E5
100
AcDbEntity
  8
1
 62
     7
100
AcDbLine
 10
254.0999999999999
 20
-7.663869458396345
 30
0.0
 11
255.8
 21
-7.663869458396345
 31
0.0
  0
LINE
  5
85
330
E5
100
AcDbEntity
  8
1
 62
     7
100
AcDbLine
 10
257.1
 20
-5.128498911788121
 30
0.0
 11
257.1
 21
-6.363869458396351
 31
0.0
  0
LINE
  5
86
330
E5
100
AcDbEntity
  8
1
 62
     7
100
AcDbLine
 10
-3.599999999999979
 20
-6.363869458396351
 30
0.0
 11
-3.599999999999979
 21
-5.128498911788121
 31
0.0
  0
LINE
  5
87
330
E5
100
AcDbEntity
  8
1
 62
     7
100
AcDbLine
 10
-2.299999999999982
 20
-7.663869458396345
 30
0.0
 11
-0.5999999999999801
 21
-7.663869458396345
 31
0.0
  0
LINE
  5
88
330
E5
100
AcDbEntity
  8
1
 62
     7
100
AcDbLine
 10
-0.5999999999999801
 20
-4.963869458396345
 30
0.0
 11
-0.5999999999999801
 21
-7.663869458396345
 31
0.0
  0
LINE
  5
89
330
E5
100
AcDbEntity
  8
1
 62
     7
100
AcDbLine
 10
0.5999999999999944
 20
-7.663869458396345
 30
0.0
 11
0.5999999999999944
 21
-4.963869458396345
 31
0.0
  0
LINE
  5
8A
330
E5
100
AcDbEntity
  8
1
 62
     7
100
AcDbLine
 10
0.5999999999999944
 20
-7.663869458396345
 30
0.0
 11
2.299999999999996
 21
-7.663869458396345
 31
0.0
  0
LINE
  5
8B
330
E5
100
AcDbEntity
  8
1
 62
     7
100
AcDbLine
 10
3.599999999999993
 20
-5.128498911788121
 30
0.0
 11
3.599999999999993
 21
-6.363869458396351
 31
0.0
  0
LINE
  5
8C
330
E5
100
AcDbEntity
  8
1
  6
DASHDOT
 62
     3
100
AcDbLine
 10
165.5
 20
0.0
 30
0.0
 11
162.5
 21
0.0
 31
0.0
  0
LINE
  5
8D
330
E5
100
AcDbEntity
  8
1
  6
DASHDOT
 62
     3
100
AcDbLine
 10
91.0
 20
0.0
 30
0.0
 11
88.0
 21
0.0
 31
0.0
  0
LINE
  5
8E
330
E5
100
AcDbEntity
  8
1
 62
     3
100
AcDbLine
 10
254.42
 20
64.0
 30
0.0
 11
254.42
 21
61.0
 31
0.0
  0
LINE
  5
8F
330
E5
100
AcDbEntity
  8
1
 62
     3
100
AcDbLine
 10
252.58
 20
64.0
 30
0.0
 11
252.58
 21
61.0
 31
0.0
  0
LINE
  5
90
330
E5
100
AcDbEntity
  8
1
 62
     3
100
AcDbLine
 10
118.5
 20
64.0
 30
0.0
 11
118.5
 21
61.0
 31
0.0
  0
LINE
  5
91
330
E5
100
AcDbEntity
  8
1
 62
     3
100
AcDbLine
 10
0.9200000000000015
 20
64.0
 30
0.0
 11
0.9200000000000015
 21
61.0
 31
0.0
  0
LINE
  5
92
330
E5
100
AcDbEntity
  8
1
 62
     3
100
AcDbLine
 10
-0.9200000000000299
 20
64.0
 30
0.0
 11
-0.9200000000000299
 21
61.0
 31
0.0
  0
ARC
  5
93
330
E5
100
AcDbEntity
  8
1
 62
     7
100
AcDbCircle
 10
248.0999999999999
 20
-5.128498911788121
 30
0.0
 40
1.80000000000001
100
AcDbArc
 50
0.0
 51
46.1869385395961
  0
ARC
  5
94
330
E5
100
AcDbEntity
  8
1
 62
     7
100
AcDbCircle
 10
251.2
 20
-6.363869458396351
 30
0.0
 40
1.299999999999982
100
AcDbArc
 50
180.0
 51
270.0
  0
ARC
  5
95
330
E5
100
AcDbEntity
  8
1
 62
     7
100
AcDbCircle
 10
255.8
 20
-6.363869458396351
 30
0.0
 40
1.299999999999994
100
AcDbArc
 50
270.0
 51
0.0
  0
ARC
  5
96
330
E5
100
AcDbEntity
  8
1
 62
     7
100
AcDbCircle
 10
258.8999999999999
 20
-5.128498911788121
 30
0.0
 40
1.800000000000038
100
AcDbArc
 50
133.8130614604044
 51
180.0
  0
ARC
  5
97
330
E5
100
AcDbEntity
  8
1
 62
     7
100
AcDbCircle
 10
-5.399999999999976
 20
-5.128498911788121
 30
0.0
 40
1.799999999999995
100
AcDbArc
 50
0.0
 51
46.186938539597
  0
ARC
  5
98
330
E5
100
AcDbEntity
  8
1
 62
     7
100
AcDbCircle
 10
-2.299999999999982
 20
-6.363869458396351
 30
0.0
 40
1.299999999999995
100
AcDbArc
 50
180.0
 51
270.0
  0
ARC
  5
99
330
E5
100
AcDbEntity
  8
1
 62
     7
100
AcDbCircle
 10
2.299999999999996
 20
-6.363869458396351
 30
0.0
 40
1.299999999999994
100
AcDbArc
 50
270.0
 51
0.0
  0
ARC
  5
9A
330
E5
100
AcDbEntity
  8
1
 62
     7
100
AcDbCircle
 10
5.399999999999991
 20
-5.128498911788121
 30
0.0
 40
1.799999999999998
100
AcDbArc
 50
133.8130614604031
 51
180.0
  0
ARC
  5
9B
330
E5
100
AcDbEntity
  8
1
  6
CENTER
 62
     3
100
AcDbCircle
 10
0.0
 20
0.0
 30
0.0
 40
41.0
100
AcDbArc
 50
310.4570714619338
 51
319.5429285380658
  0
ARC
  5
9C
330
E5
100
AcDbEntity
  8
1
  6
CENTER
 62
     3
100
AcDbCircle
 10
0.0
 20
0.0
 30
0.0
 40
41.0
100
AcDbArc
 50
220.4570714619339
 51
229.5429285380659
  0
ARC
  5
9D
330
E5
100
AcDbEntity
  8
1
  6
CENTER
 62
     3
100
AcDbCircle
 10
0.0
 20
0.0
 30
0.0
 40
40.99999999999999
100
AcDbArc
 50
130.4570714619339
 51
139.5429285380658
  0
ARC
  5
9E
330
E5
100
AcDbEntity
  8
1
  6
CENTER
 62
     3
100
AcDbCircle
 10
0.0
 20
0.0
 30
0.0
 40
41.0
100
AcDbArc
 50
40.45707146193384
 51
49.54292853806591
  0
ARC
  5
9F
330
E5
100
AcDbEntity
  8
1
 62
     7
100
AcDbCircle
 10
0.0
 20
0.0
 30
0.0
 40
45.99999999999999
100
AcDbArc
 50
92.29244277595585
 51
87.70755722404414
  0
ARC
  5
A0
330
E5
100
AcDbEntity
  8
1
  6
CENTER
 62
     3
100
AcDbCircle
 10
253.5
 20
0.0
 30
0.0
 40
40.99999999999996
100
AcDbArc
 50
40.45707146193384
 51
49.54292853806581
  0
ARC
  5
A1
330
E5
100
AcDbEntity
  8
1
  6
CENTER
 62
     3
100
AcDbCircle
 10
253.5
 20
0.0
 30
0.0
 40
40.99999999999996
100
AcDbArc
 50
130.4570714619337
 51
139.5429285380658
  0
ARC
  5
A2
330
E5
100
AcDbEntity
  8
1
  6
CENTER
 62
     3
100
AcDbCircle
 10
253.5
 20
0.0
 30
0.0
 40
40.99999999999996
100
AcDbArc
 50
220.4570714619337
 51
229.5429285380659
  0
ARC
  5
A3
330
E5
100
AcDbEntity
  8
1
  6
CENTER
 62
     3
100
AcDbCircle
 10
253.5
 20
0.0
 30
0.0
 40
41.00000000000004
100
AcDbArc
 50
310.4570714619338
 51
319.5429285380658
  0
ARC
  5
A4
330
E5
100
AcDbEntity
  8
1
 62
     7
100
AcDbCircle
 10
253.5
 20
0.5
 30
0.0
 40
5.999999999999947
100
AcDbArc
 50
313.8130614604025
 51
226.1869385395971
  0
ARC
  5
A5
330
E5
100
AcDbEntity
  8
1
 62
     7
100
AcDbCircle
 10
0.0
 20
0.5
 30
0.0
 40
5.999999999999999
100
AcDbArc
 50
313.8130614604032
 51
226.186938539597
  0
CIRCLE
  5
A6
330
E5
100
AcDbEntity
  8
1
 62
     7
100
AcDbCircle
 10
0.0
 20
0.0
 30
0.0
 40
13.0
  0
CIRCLE
  5
A7
330
E5
100
AcDbEntity
  8
1
 62
     7
100
AcDbCircle
 10
0.0
 20
0.0
 30
0.0
 40
5.0
  0
CIRCLE
  5
A8
330
E5
100
AcDbEntity
  8
1
 62
     7
100
AcDbCircle
 10
0.0
 20
0.0
 30
0.0
 40
22.5
  0
CIRCLE
  5
A9
330
E5
100
AcDbEntity
  8
1
 62
     7
100
AcDbCircle
 10
0.0
 20
0.0
 30
0.0
 40
31.0
  0
CIRCLE
  5
AA
330
E5
100
AcDbEntity
  8
1
 62
     7
100
AcDbCircle
 10
0.0
 20
0.0
 30
0.0
 40
34.5
  0
CIRCLE
  5
AB
330
E5
100
AcDbEntity
  8
1
 62
     7
100
AcDbCircle
 10
28.99137802864857
 20
28.99137802864844
 30
0.0
 40
2.25
  0
CIRCLE
  5
AC
330
E5
100
AcDbEntity
  8
1
 62
     7
100
AcDbCircle
 10
-28.9913780286484
 20
28.99137802864845
 30
0.0
 40
2.25
  0
CIRCLE
  5
AD
330
E5
100
AcDbEntity
  8
1
 62
     7
100
AcDbCircle
 10
-28.9913780286484
 20
-28.99137802864844
 30
0.0
 40
2.25
  0
CIRCLE
  5
AE
330
E5
100
AcDbEntity
  8
1
 62
     7
100
AcDbCircle
 10
28.99137802864845
 20
-28.99137802864844
 30
0.0
 40
2.25
  0
CIRCLE
  5
AF
330
E5
100
AcDbEntity
  8
1
 62
     7
100
AcDbCircle
 10
253.5
 20
0.0
 30
0.0
 40
5.0
  0
CIRCLE
  5
B0
330
E5
100
AcDbEntity
  8
1
 62
     7
100
AcDbCircle
 10
253.5
 20
0.0
 30
0.0
 40
22.5
  0
CIRCLE
  5
B1
330
E5
100
AcDbEntity
  8
1
 62
     7
100
AcDbCircle
 10
253.5
 20
0.0
 30
0.0
 40
31.0
  0
CIRCLE
  5
B2
330
E5
100
AcDbEntity
  8
1
 62
     7
100
AcDbCircle
 10
253.5
 20
0.0
 30
0.0
 40
34.5
  0
CIRCLE
  5
B3
330
E5
100
AcDbEntity
  8
1
 62
     7
100
AcDbCircle
 10
253.5
 20
0.0
 30
0.0
 40
46.0
  0
CIRCLE
  5
B4
330
E5
100
AcDbEntity
  8
1
 62
     7
100
AcDbCircle
 10
282.4913780286486
 20
28.99137802864844
 30
0.0
 40
2.25
  0
CIRCLE
  5
B5
330
E5
100
AcDbEntity
  8
1
 62
     7
100
AcDbCircle
 10
224.5086219713516
 20
28.99137802864845
 30
0.0
 40
2.25
  0
CIRCLE
  5
B6
330
E5
100
AcDbEntity
  8
1
 62
     7
100
AcDbCircle
 10
224.5086219713516
 20
-28.99137802864844
 30
0.0
 40
2.25
  0
CIRCLE
  5
B7
330
E5
100
AcDbEntity
  8
1
 62
     7
100
AcDbCircle
 10
282.4913780286485
 20
-28.99137802864844
 30
0.0
 40
2.25
  0
CIRCLE
  5
B8
330
E5
100
AcDbEntity
  8
1
 62
     7
100
AcDbCircle
 10
251.5915627261505
 20
-6.383259120514236
 30
0.0
 40
0.8000000000000111
  0
CIRCLE
  5
B9
330
E5
100
AcDbEntity
  8
1
 62
     7
100
AcDbCircle
 10
255.4084372738496
 20
-6.383259120514236
 30
0.0
 40
0.7999999999998977
  0
CIRCLE
  5
BA
330
E5
100
AcDbEntity
  8
1
 62
     7
100
AcDbCircle
 10
-1.908437273849543
 20
-6.383259120514236
 30
0.0
 40
0.7999999999999971
  0
CIRCLE
  5
BB
330
E5
100
AcDbEntity
  8
1
 62
     7
100
AcDbCircle
 10
1.908437273849555
 20
-6.383259120514236
 30
0.0
 40
0.7999999999999981
  0
CIRCLE
  5
BC
330
E5
100
AcDbEntity
  8
1
 62
     7
100
AcDbCircle
 10
253.5
 20
0.0
 30
0.0
 40
13.0
  0
TEXT
  5
BE
330
E5
100
AcDbEntity
  8
1
 62
     7
100
AcDbText
 10
-53.85912498198067
 20
69.40148839556011
 30
0.0
 40
4.5
  1
OPB 20N
 41
0.9
  7
SIMPLEX
 72
     1
 11
-40.64841069626639
 21
69.40148839556011
 31
0.0
100
AcDbText
  0
ENDSEC
  0
SECTION
  2
OBJECTS
  0
DICTIONARY
  5
D1
330
0
100
AcDbDictionary
281
     1
  3
ACAD_COLOR
350
E0
  3
ACAD_GROUP
350
D2
  3
ACAD_LAYOUT
350
DE
  3
ACAD_MATERIAL
350
DF
  3
ACAD_MLINESTYLE
350
DB
  3
ACAD_PLOTSETTINGS
350
DD
  3
ACAD_PLOTSTYLENAME
350
D3
  0
DICTIONARY
  5
E0
102
{ACAD_REACTORS
330
D1
102
}
330
D1
100
AcDbDictionary
281
     1
  0
DICTIONARY
  5
D2
102
{ACAD_REACTORS
330
D1
102
}
330
D1
100
AcDbDictionary
281
     1
  0
DICTIONARY
  5
DE
102
{ACAD_REACTORS
330
D1
102
}
330
D1
100
AcDbDictionary
281
     1
  3
Layout1
350
E4
  3
Model
350
E8
  0
DICTIONARY
  5
DF
102
{ACAD_REACTORS
330
D1
102
}
330
D1
100
AcDbDictionary
281
     1
  0
DICTIONARY
  5
DB
102
{ACAD_REACTORS
330
D1
102
}
330
D1
100
AcDbDictionary
281
     1
  3
Standard
350
DC
  0
DICTIONARY
  5
DD
102
{ACAD_REACTORS
330
D1
102
}
330
D1
100
AcDbDictionary
281
     1
  0
ACDBDICTIONARYWDFLT
  5
D3
102
{ACAD_REACTORS
330
D1
102
}
330
D1
100
AcDbDictionary
281
     1
  3
Normal
350
D4
100
AcDbDictionaryWithDefault
340
D4
  0
LAYOUT
  5
E4
102
{ACAD_REACTORS
330
DE
102
}
330
DE
100
AcDbPlotSettings
  1

  2
\\Ogura1\HP Color LaserJet 4600 PCL 5c
  4

  6

 40
0.0
 41
0.0
 42
0.0
 43
0.0
 44
0.0
 45
0.0
 46
0.0
 47
0.0
 48
0.0
 49
0.0
140
0.0
141
0.0
142
1.0
143
1.0
 70
   688
 72
     0
 73
     0
 74
     5
  7

 75
    16
147
1.0
 76
     0
 77
     2
 78
   300
148
0.0
149
0.0
100
AcDbLayout
  1
Layout1
 70
     1
 71
     1
 10
0.0
 20
0.0
 11
12.0
 21
9.0
 12
0.0
 22
0.0
 32
0.0
 14
1.000000000000000E+20
 24
1.000000000000000E+20
 34
1.000000000000000E+20
 15
-1.000000000000000E+20
 25
-1.000000000000000E+20
 35
-1.000000000000000E+20
146
0.0
 13
0.0
 23
0.0
 33
0.0
 16
1.0
 26
0.0
 36
0.0
 17
0.0
 27
1.0
 37
0.0
 76
     0
330
E1
  0
LAYOUT
  5
E8
102
{ACAD_REACTORS
330
DE
102
}
330
DE
100
AcDbPlotSettings
  1

  2
\\Ogura1\HP Color LaserJet 4600 PCL 5c
  4

  6

 40
0.0
 41
0.0
 42
0.0
 43
0.0
 44
0.0
 45
0.0
 46
0.0
 47
0.0
 48
0.0
 49
0.0
140
0.0
141
0.0
142
1.0
143
1.0
 70
  1712
 72
     0
 73
     0
 74
     0
  7

 75
     0
147
1.0
 76
     0
 77
     2
 78
   300
148
0.0
149
0.0
100
AcDbLayout
  1
Model
 70
     1
 71
     0
 10
0.0
 20
0.0
 11
12.0
 21
9.0
 12
0.0
 22
0.0
 32
0.0
 14
0.0
 24
0.0
 34
0.0
 15
0.0
 25
0.0
 35
0.0
146
0.0
 13
0.0
 23
0.0
 33
0.0
 16
1.0
 26
0.0
 36
0.0
 17
0.0
 27
1.0
 37
0.0
 76
     0
330
E5
  0
MLINESTYLE
  5
DC
102
{ACAD_REACTORS
330
DB
102
}
330
DB
100
AcDbMlineStyle
  2
STANDARD
 70
     0
  3

 62
   256
 51
90.0
 52
90.0
 71
     2
 49
0.5
 62
   256
  6
BYLAYER
 49
-0.5
 62
   256
  6
BYLAYER
  0
ACDBPLACEHOLDER
  5
D4
102
{ACAD_REACTORS
330
D3
102
}
330
D3
  0
ENDSEC
  0
EOF
