  0
SECTION
  2
HEADER
  9
$ACADVER
  1
AC1018
  9
$ACADMAINTVER
 70
     0
  9
$DWGCODEPAGE
  3
ANSI_932
  9
$INSBASE
 10
0.0
 20
0.0
 30
0.0
  9
$EXTMIN
 10
-40.82468720520103
 20
-37.50321829806205
 30
-0.0015258207003583
  9
$EXTMAX
 10
263.5092968981536
 20
67.96845592338079
 30
0.0000000349246037
  9
$LIMMIN
 10
-41.1175178651253
 20
-37.5
  9
$LIMMAX
 10
263.5
 20
67.96523713420789
  9
$ORTHOMODE
 70
     0
  9
$REGENMODE
 70
     1
  9
$FILLMODE
 70
     1
  9
$QTEXTMODE
 70
     0
  9
$MIRRTEXT
 70
     1
  9
$LTSCALE
 40
1.0
  9
$ATTMODE
 70
     1
  9
$TEXTSIZE
 40
3.5
  9
$TRACEWID
 40
0.5
  9
$TEXTSTYLE
  7
STANDARD
  9
$CLAYER
  8
0
  9
$CELTYPE
  6
ByLayer
  9
$CECOLOR
 62
   256
  9
$CELTSCALE
 40
1.0
  9
$DISPSILH
 70
     0
  9
$DIMSCALE
 40
1.0
  9
$DIMASZ
 40
0.18
  9
$DIMEXO
 40
0.0625
  9
$DIMDLI
 40
0.38
  9
$DIMRND
 40
0.0
  9
$DIMDLE
 40
0.0
  9
$DIMEXE
 40
0.18
  9
$DIMTP
 40
0.0
  9
$DIMTM
 40
0.0
  9
$DIMTXT
 40
0.18
  9
$DIMCEN
 40
0.09
  9
$DIMTSZ
 40
0.0
  9
$DIMTOL
 70
     0
  9
$DIMLIM
 70
     0
  9
$DIMTIH
 70
     1
  9
$DIMTOH
 70
     1
  9
$DIMSE1
 70
     0
  9
$DIMSE2
 70
     0
  9
$DIMTAD
 70
     0
  9
$DIMZIN
 70
     0
  9
$DIMBLK
  1

  9
$DIMASO
 70
     1
  9
$DIMSHO
 70
     1
  9
$DIMPOST
  1

  9
$DIMAPOST
  1

  9
$DIMALT
 70
     0
  9
$DIMALTD
 70
     2
  9
$DIMALTF
 40
25.4
  9
$DIMLFAC
 40
1.0
  9
$DIMTOFL
 70
     0
  9
$DIMTVP
 40
0.0
  9
$DIMTIX
 70
     0
  9
$DIMSOXD
 70
     0
  9
$DIMSAH
 70
     0
  9
$DIMBLK1
  1

  9
$DIMBLK2
  1

  9
$DIMSTYLE
  2
STANDARD
  9
$DIMCLRD
 70
     0
  9
$DIMCLRE
 70
     0
  9
$DIMCLRT
 70
     0
  9
$DIMTFAC
 40
1.0
  9
$DIMGAP
 40
0.09
  9
$DIMJUST
 70
     0
  9
$DIMSD1
 70
     0
  9
$DIMSD2
 70
     0
  9
$DIMTOLJ
 70
     1
  9
$DIMTZIN
 70
     0
  9
$DIMALTZ
 70
     0
  9
$DIMALTTZ
 70
     0
  9
$DIMUPT
 70
     0
  9
$DIMDEC
 70
     4
  9
$DIMTDEC
 70
     4
  9
$DIMALTU
 70
     2
  9
$DIMALTTD
 70
     2
  9
$DIMTXSTY
  7
STANDARD
  9
$DIMAUNIT
 70
     0
  9
$DIMADEC
 70
     0
  9
$DIMALTRND
 40
0.0
  9
$DIMAZIN
 70
     0
  9
$DIMDSEP
 70
    46
  9
$DIMATFIT
 70
     3
  9
$DIMFRAC
 70
     0
  9
$DIMLDRBLK
  1

  9
$DIMLUNIT
 70
     2
  9
$DIMLWD
 70
    -2
  9
$DIMLWE
 70
    -2
  9
$DIMTMOVE
 70
     0
  9
$LUNITS
 70
     2
  9
$LUPREC
 70
     4
  9
$SKETCHINC
 40
0.1
  9
$FILLETRAD
 40
2.0
  9
$AUNITS
 70
     0
  9
$AUPREC
 70
     0
  9
$MENU
  1
ACAD
  9
$ELEVATION
 40
0.0
  9
$PELEVATION
 40
0.0
  9
$THICKNESS
 40
0.0
  9
$LIMCHECK
 70
     0
  9
$CHAMFERA
 40
0.0
  9
$CHAMFERB
 40
0.0
  9
$CHAMFERC
 40
0.0
  9
$CHAMFERD
 40
0.0
  9
$SKPOLY
 70
     0
  9
$TDCREATE
 40
2452095.117590047
  9
$TDUCREATE
 40
2452095.284256713
  9
$TDUPDATE
 40
2453209.453345405
  9
$TDUUPDATE
 40
2453209.620012072
  9
$TDINDWG
 40
0.0004962963
  9
$TDUSRTIMER
 40
0.0004962963
  9
$USRTIMER
 70
     1
  9
$ANGBASE
 50
0.0
  9
$ANGDIR
 70
     0
  9
$PDMODE
 70
     0
  9
$PDSIZE
 40
0.0
  9
$PLINEWID
 40
0.0
  9
$SPLFRAME
 70
     0
  9
$SPLINETYPE
 70
     6
  9
$SPLINESEGS
 70
     8
  9
$HANDSEED
  5
107
  9
$SURFTAB1
 70
     6
  9
$SURFTAB2
 70
     6
  9
$SURFTYPE
 70
     6
  9
$SURFU
 70
     6
  9
$SURFV
 70
     6
  9
$UCSBASE
  2

  9
$UCSNAME
  2

  9
$UCSORG
 10
0.0
 20
0.0
 30
0.0
  9
$UCSXDIR
 10
1.0
 20
0.0
 30
0.0
  9
$UCSYDIR
 10
0.0
 20
1.0
 30
0.0
  9
$UCSORTHOREF
  2

  9
$UCSORTHOVIEW
 70
     0
  9
$UCSORGTOP
 10
0.0
 20
0.0
 30
0.0
  9
$UCSORGBOTTOM
 10
0.0
 20
0.0
 30
0.0
  9
$UCSORGLEFT
 10
0.0
 20
0.0
 30
0.0
  9
$UCSORGRIGHT
 10
0.0
 20
0.0
 30
0.0
  9
$UCSORGFRONT
 10
0.0
 20
0.0
 30
0.0
  9
$UCSORGBACK
 10
0.0
 20
0.0
 30
0.0
  9
$PUCSBASE
  2

  9
$PUCSNAME
  2

  9
$PUCSORG
 10
0.0
 20
0.0
 30
0.0
  9
$PUCSXDIR
 10
1.0
 20
0.0
 30
0.0
  9
$PUCSYDIR
 10
0.0
 20
1.0
 30
0.0
  9
$PUCSORTHOREF
  2

  9
$PUCSORTHOVIEW
 70
     0
  9
$PUCSORGTOP
 10
0.0
 20
0.0
 30
0.0
  9
$PUCSORGBOTTOM
 10
0.0
 20
0.0
 30
0.0
  9
$PUCSORGLEFT
 10
0.0
 20
0.0
 30
0.0
  9
$PUCSORGRIGHT
 10
0.0
 20
0.0
 30
0.0
  9
$PUCSORGFRONT
 10
0.0
 20
0.0
 30
0.0
  9
$PUCSORGBACK
 10
0.0
 20
0.0
 30
0.0
  9
$USERI1
 70
     0
  9
$USERI2
 70
     0
  9
$USERI3
 70
     0
  9
$USERI4
 70
     0
  9
$USERI5
 70
     0
  9
$USERR1
 40
0.0
  9
$USERR2
 40
0.0
  9
$USERR3
 40
0.0
  9
$USERR4
 40
0.0
  9
$USERR5
 40
0.0
  9
$WORLDVIEW
 70
     1
  9
$SHADEDGE
 70
     3
  9
$SHADEDIF
 70
    70
  9
$TILEMODE
 70
     1
  9
$MAXACTVP
 70
    64
  9
$PINSBASE
 10
0.0
 20
0.0
 30
0.0
  9
$PLIMCHECK
 70
     0
  9
$PEXTMIN
 10
1.000000000000000E+20
 20
1.000000000000000E+20
 30
1.000000000000000E+20
  9
$PEXTMAX
 10
-1.000000000000000E+20
 20
-1.000000000000000E+20
 30
-1.000000000000000E+20
  9
$PLIMMIN
 10
0.0
 20
0.0
  9
$PLIMMAX
 10
12.0
 20
9.0
  9
$UNITMODE
 70
     0
  9
$VISRETAIN
 70
     1
  9
$PLINEGEN
 70
     0
  9
$PSLTSCALE
 70
     1
  9
$TREEDEPTH
 70
  3020
  9
$CMLSTYLE
  2
Standard
  9
$CMLJUST
 70
     0
  9
$CMLSCALE
 40
1.0
  9
$PROXYGRAPHICS
 70
     1
  9
$MEASUREMENT
 70
     0
  9
$CELWEIGHT
370
    -1
  9
$ENDCAPS
280
     0
  9
$JOINSTYLE
280
     0
  9
$LWDISPLAY
290
     0
  9
$INSUNITS
 70
     0
  9
$HYPERLINKBASE
  1

  9
$STYLESHEET
  1

  9
$XEDIT
290
     1
  9
$CEPSNTYPE
380
     0
  9
$PSTYLEMODE
290
     1
  9
$FINGERPRINTGUID
  2
{573D09C2-DFA9-438E-AB5C-5E322492CC2A}
  9
$VERSIONGUID
  2
{8025DA8F-07E3-4041-A402-BCF3B5F97CAA}
  9
$EXTNAMES
290
     1
  9
$PSVPSCALE
 40
0.0
  9
$OLESTARTUP
290
     0
  9
$SORTENTS
280
   127
  9
$INDEXCTL
280
     0
  9
$HIDETEXT
280
     0
  9
$XCLIPFRAME
290
     0
  9
$HALOGAP
280
     0
  9
$OBSCOLOR
 70
   257
  9
$OBSLTYPE
280
     0
  9
$INTERSECTIONDISPLAY
280
     0
  9
$INTERSECTIONCOLOR
 70
   257
  9
$DIMASSOC
280
     1
  9
$PROJECTNAME
  1

  0
ENDSEC
  0
SECTION
  2
CLASSES
  0
CLASS
  1
ACDBDICTIONARYWDFLT
  2
AcDbDictionaryWithDefault
  3
ObjectDBX Classes
 90
        0
 91
        1
280
     0
281
     0
  0
ENDSEC
  0
SECTION
  2
TABLES
  0
TABLE
  2
VPORT
  5
D4
330
0
100
AcDbSymbolTable
 70
     2
  0
VPORT
  5
106
330
D4
100
AcDbSymbolTableRecord
100
AcDbViewportTableRecord
  2
*Active
 70
     0
 10
0.0
 20
0.0
 11
1.0
 21
1.0
 12
111.3423048464762
 22
15.23261881265937
 13
0.0
 23
0.0
 14
1.0
 24
1.0
 15
0.0
 25
0.0
 16
0.0
 26
0.0
 36
1.0
 17
0.0
 27
0.0
 37
0.0
 40
188.3223080525309
 41
1.625
 42
50.0
 43
0.0
 44
0.0
 50
0.0
 51
0.0
 71
     0
 72
   100
 73
     1
 74
     1
 75
     0
 76
     0
 77
     0
 78
     0
281
     0
 65
     1
110
0.0
120
0.0
130
0.0
111
1.0
121
0.0
131
0.0
112
0.0
122
1.0
132
0.0
 79
     0
146
0.0
  0
ENDTAB
  0
TABLE
  2
LTYPE
  5
D1
330
0
100
AcDbSymbolTable
 70
     9
  0
LTYPE
  5
DF
330
D1
100
AcDbSymbolTableRecord
100
AcDbLinetypeTableRecord
  2
ByBlock
 70
     0
  3

 72
    65
 73
     0
 40
0.0
  0
LTYPE
  5
E0
330
D1
100
AcDbSymbolTableRecord
100
AcDbLinetypeTableRecord
  2
ByLayer
 70
     0
  3

 72
    65
 73
     0
 40
0.0
  0
LTYPE
  5
E1
330
D1
100
AcDbSymbolTableRecord
100
AcDbLinetypeTableRecord
  2
CONTINUOUS
 70
     0
  3
Solid line
 72
    65
 73
     0
 40
0.0
  0
LTYPE
  5
F1
330
D1
100
AcDbSymbolTableRecord
100
AcDbLinetypeTableRecord
  2
BORDER
 70
     0
  3
__ __ . __ __ .
 72
    65
 73
     6
 40
14.02843832273602
 49
4.008125235067438
 74
     0
 49
-2.004062617533719
 74
     0
 49
4.008125235067438
 74
     0
 49
-2.004062617533719
 74
     0
 49
0.0
 74
     0
 49
-2.004062617533719
 74
     0
  0
LTYPE
  5
F2
330
D1
100
AcDbSymbolTableRecord
100
AcDbLinetypeTableRecord
  2
CENTER
 70
     0
  3
____ _ ____ _
 72
    65
 73
     4
 40
16.03250094026974
 49
10.02031308766859
 74
     0
 49
-2.004062617533719
 74
     0
 49
2.004062617533719
 74
     0
 49
-2.004062617533719
 74
     0
  0
LTYPE
  5
F3
330
D1
100
AcDbSymbolTableRecord
100
AcDbLinetypeTableRecord
  2
DASHDOT
 70
     0
  3
__ . __ . __ .
 72
    65
 73
     4
 40
8.016250470134876
 49
4.008125235067438
 74
     0
 49
-2.004062617533719
 74
     0
 49
0.0
 74
     0
 49
-2.004062617533719
 74
     0
  0
LTYPE
  5
F4
330
D1
100
AcDbSymbolTableRecord
100
AcDbLinetypeTableRecord
  2
DASHED
 70
     0
  3
__ __ __ __ __
 72
    65
 73
     2
 40
6.012187852601156
 49
4.008125235067438
 74
     0
 49
-2.004062617533719
 74
     0
  0
LTYPE
  5
F5
330
D1
100
AcDbSymbolTableRecord
100
AcDbLinetypeTableRecord
  2
DIVIDE
 70
     0
  3
__ . . __ . . 
 72
    65
 73
     6
 40
10.02031308766859
 49
4.008125235067438
 74
     0
 49
-2.004062617533719
 74
     0
 49
0.0
 74
     0
 49
-2.004062617533719
 74
     0
 49
0.0
 74
     0
 49
-2.004062617533719
 74
     0
  0
LTYPE
  5
F6
330
D1
100
AcDbSymbolTableRecord
100
AcDbLinetypeTableRecord
  2
DOT
 70
     0
  3
..............
 72
    65
 73
     4
 40
4.008125235067438
 49
0.0
 74
     0
 49
-2.004062617533719
 74
     0
 49
0.0
 74
     0
 49
-2.004062617533719
 74
     0
  0
LTYPE
  5
F7
330
D1
100
AcDbSymbolTableRecord
100
AcDbLinetypeTableRecord
  2
HIDDEN
 70
     0
  3
_ _ _ _ _ _ _
 72
    65
 73
     2
 40
3.006093926300577
 49
2.004062617533719
 74
     0
 49
-1.002031308766859
 74
     0
  0
LTYPE
  5
F8
330
D1
100
AcDbSymbolTableRecord
100
AcDbLinetypeTableRecord
  2
PHANTOM
 70
     0
  3
_____ _ _ _____ _ _ 
 72
    65
 73
     6
 40
20.04062617533719
 49
10.02031308766859
 74
     0
 49
-2.004062617533719
 74
     0
 49
2.004062617533719
 74
     0
 49
-2.004062617533719
 74
     0
 49
2.004062617533719
 74
     0
 49
-2.004062617533719
 74
     0
  0
ENDTAB
  0
TABLE
  2
LAYER
  5
CE
330
0
100
AcDbSymbolTable
 70
     2
  0
LAYER
  5
DC
330
CE
100
AcDbSymbolTableRecord
100
AcDbLayerTableRecord
  2
0
 70
     0
 62
     7
  6
CONTINUOUS
370
    -3
390
DB
  0
LAYER
  5
F9
330
CE
100
AcDbSymbolTableRecord
100
AcDbLayerTableRecord
  2
1
 70
     0
 62
     7
  6
CONTINUOUS
370
    -3
390
DB
  0
ENDTAB
  0
TABLE
  2
STYLE
  5
CF
330
0
100
AcDbSymbolTable
 70
     4
  0
STYLE
  5
DD
330
CF
100
AcDbSymbolTableRecord
100
AcDbTextStyleTableRecord
  2
STANDARD
 70
     0
 40
0.0
 41
1.0
 50
0.0
 71
     0
 42
3.5
  3
txt
  4

  0
STYLE
  5
FA
330
CF
100
AcDbSymbolTableRecord
100
AcDbTextStyleTableRecord
  2
SIMPLEX
 70
     0
 40
0.0
 41
1.0
 50
0.0
 71
     0
 42
3.5
  3
simplex
  4

  0
STYLE
  5
FB
330
CF
100
AcDbSymbolTableRecord
100
AcDbTextStyleTableRecord
  2
COMPLEX
 70
     0
 40
0.0
 41
1.0
 50
0.0
 71
     0
 42
3.5
  3
complex
  4

  0
STYLE
  5
FC
330
CF
100
AcDbSymbolTableRecord
100
AcDbTextStyleTableRecord
  2
ITALIC
 70
     0
 40
0.0
 41
1.0
 50
0.0
 71
     0
 42
3.5
  3
italic
  4

  0
ENDTAB
  0
TABLE
  2
VIEW
  5
D2
330
0
100
AcDbSymbolTable
 70
     0
  0
ENDTAB
  0
TABLE
  2
UCS
  5
D3
330
0
100
AcDbSymbolTable
 70
     0
  0
ENDTAB
  0
TABLE
  2
APPID
  5
D5
330
0
100
AcDbSymbolTable
 70
     1
  0
APPID
  5
DE
330
D5
100
AcDbSymbolTableRecord
100
AcDbRegAppTableRecord
  2
ACAD
 70
     0
  0
ENDTAB
  0
TABLE
  2
DIMSTYLE
  5
D6
330
0
100
AcDbSymbolTable
 70
     1
100
AcDbDimStyleTable
 71
     0
  0
DIMSTYLE
105
FD
330
D6
100
AcDbSymbolTableRecord
100
AcDbDimStyleTableRecord
  2
STANDARD
 70
     0
279
     2
340
DD
  0
ENDTAB
  0
TABLE
  2
BLOCK_RECORD
  5
CD
330
0
100
AcDbSymbolTable
 70
     2
  0
BLOCK_RECORD
  5
EC
330
CD
100
AcDbSymbolTableRecord
100
AcDbBlockTableRecord
  2
*Model_Space
340
EF
  0
BLOCK_RECORD
  5
E8
330
CD
100
AcDbSymbolTableRecord
100
AcDbBlockTableRecord
  2
*Paper_Space
340
EB
  0
BLOCK_RECORD
  5
102
330
CD
100
AcDbSymbolTableRecord
100
AcDbBlockTableRecord
  2
$MODEL_SPACE
340
0
  0
BLOCK_RECORD
  5
104
330
CD
100
AcDbSymbolTableRecord
100
AcDbBlockTableRecord
  2
$PAPER_SPACE
340
0
  0
ENDTAB
  0
ENDSEC
  0
SECTION
  2
BLOCKS
  0
BLOCK
  5
ED
330
EC
100
AcDbEntity
  8
0
100
AcDbBlockBegin
  2
*Model_Space
 70
     0
 10
0.0
 20
0.0
 30
0.0
  3
*Model_Space
  1

  0
ENDBLK
  5
EE
330
EC
100
AcDbEntity
  8
0
100
AcDbBlockEnd
  0
BLOCK
  5
E9
330
E8
100
AcDbEntity
 67
     1
  8
0
100
AcDbBlockBegin
  2
*Paper_Space
 70
     0
 10
0.0
 20
0.0
 30
0.0
  3
*Paper_Space
  1

  0
ENDBLK
  5
EA
330
E8
100
AcDbEntity
 67
     1
  8
0
100
AcDbBlockEnd
  0
BLOCK
  5
103
330
102
100
AcDbEntity
  8
0
100
AcDbBlockBegin
  2
$MODEL_SPACE
 70
     0
 10
0.0
 20
0.0
 30
0.0
  3
$MODEL_SPACE
  1

  0
ENDBLK
  5
20
330
102
100
AcDbEntity
  8
0
100
AcDbBlockEnd
  0
BLOCK
  5
105
330
104
100
AcDbEntity
  8
0
100
AcDbBlockBegin
  2
$PAPER_SPACE
 70
     0
 10
0.0
 20
0.0
 30
0.0
  3
$PAPER_SPACE
  1

  0
ENDBLK
  5
1C
330
104
100
AcDbEntity
  8
0
100
AcDbBlockEnd
  0
ENDSEC
  0
SECTION
  2
ENTITIES
  0
LINE
  5
33
330
EC
100
AcDbEntity
  8
1
 62
     7
100
AcDbLine
 10
83.89999999999998
 20
4.699999999999993
 30
0.0
 11
84.69999999999997
 21
4.699999999999995
 31
0.0
  0
LINE
  5
34
330
EC
100
AcDbEntity
  8
1
  6
DASHDOT
 62
     3
100
AcDbLine
 10
143.5
 20
0.0
 30
0.0
 11
146.5
 21
0.0
 31
0.0
  0
LINE
  5
35
330
EC
100
AcDbEntity
  8
1
  6
DASHDOT
 62
     3
100
AcDbLine
 10
-25.63262081801236
 20
25.63262081801234
 30
0.0
 11
-21.03642674029982
 21
21.03642674029976
 31
0.0
  0
LINE
  5
36
330
EC
100
AcDbEntity
  8
1
  6
DASHDOT
 62
     3
100
AcDbLine
 10
25.63262081801236
 20
25.63262081801234
 30
0.0
 11
21.03642674029982
 21
21.03642674029976
 31
0.0
  0
LINE
  5
37
330
EC
100
AcDbEntity
  8
1
  6
DASHDOT
 62
     3
100
AcDbLine
 10
0.0
 20
1.5
 30
0.0
 11
0.0
 21
-1.5
 31
0.0
  0
LINE
  5
38
330
EC
100
AcDbEntity
  8
1
  6
DASHDOT
 62
     3
100
AcDbLine
 10
1.5
 20
0.0
 30
0.0
 11
-1.5
 21
0.0
 31
0.0
  0
LINE
  5
39
330
EC
100
AcDbEntity
  8
1
  6
DASHDOT
 62
     3
100
AcDbLine
 10
-25.72100916566069
 20
-25.72100916566069
 30
0.0
 11
-20.94803839265148
 21
-20.94803839265149
 31
0.0
  0
LINE
  5
3A
330
EC
100
AcDbEntity
  8
1
  6
DASHDOT
 62
     3
100
AcDbLine
 10
25.72100916566069
 20
-25.72100916566073
 30
0.0
 11
20.94803839265148
 21
-20.94803839265153
 31
0.0
  0
LINE
  5
3B
330
EC
100
AcDbEntity
  8
1
 62
     3
100
AcDbLine
 10
1.31
 20
52.5
 30
0.0
 11
1.31
 21
49.5
 31
0.0
  0
LINE
  5
3C
330
EC
100
AcDbEntity
  8
1
 62
     3
100
AcDbLine
 10
0.5300000000000296
 20
49.5
 30
0.0
 11
0.5300000000000296
 21
52.5
 31
0.0
  0
LINE
  5
3D
330
EC
100
AcDbEntity
  8
1
 62
     7
100
AcDbLine
 10
-1.839999999999974
 20
49.5
 30
0.0
 11
1.839999999999974
 21
49.5
 31
0.0
  0
LINE
  5
3E
330
EC
100
AcDbEntity
  8
1
 62
     7
100
AcDbLine
 10
0.0
 20
49.5
 30
0.0
 11
0.0
 21
28.5
 31
0.0
  0
LINE
  5
3F
330
EC
100
AcDbEntity
  8
1
 62
     7
100
AcDbLine
 10
1.839999999999974
 20
49.5
 30
0.0
 11
1.839999999999974
 21
28.5
 31
0.0
  0
LINE
  5
40
330
EC
100
AcDbEntity
  8
1
 62
     3
100
AcDbLine
 10
-1.31
 20
49.5
 30
0.0
 11
-1.31
 21
52.5
 31
0.0
  0
LINE
  5
41
330
EC
100
AcDbEntity
  8
1
 62
     3
100
AcDbLine
 10
-0.5300000000000296
 20
52.5
 30
0.0
 11
-0.5300000000000296
 21
49.5
 31
0.0
  0
LINE
  5
42
330
EC
100
AcDbEntity
  8
1
 62
     7
100
AcDbLine
 10
-1.839999999999974
 20
49.5
 30
0.0
 11
-1.839999999999974
 21
28.5
 31
0.0
  0
LINE
  5
43
330
EC
100
AcDbEntity
  8
1
 62
     7
100
AcDbLine
 10
2.600000000000021
 20
-5.277067730142738
 30
0.0
 11
2.600000000000021
 21
-4.180639222761904
 31
0.0
  0
LINE
  5
44
330
EC
100
AcDbEntity
  8
1
 62
     7
100
AcDbLine
 10
0.3999999999999773
 20
-6.277067730142738
 30
0.0
 11
1.600000000000023
 21
-6.277067730142738
 31
0.0
  0
LINE
  5
45
330
EC
100
AcDbEntity
  8
1
 62
     7
100
AcDbLine
 10
0.3999999999999773
 20
-6.277067730142738
 30
0.0
 11
0.3999999999999773
 21
-5.377067730142741
 31
0.0
  0
LINE
  5
46
330
EC
100
AcDbEntity
  8
1
 62
     7
100
AcDbLine
 10
0.3999999999999773
 20
-5.377067730142741
 30
0.0
 11
1.373465458485439
 21
-5.377067730142741
 31
0.0
  0
LINE
  5
47
330
EC
100
AcDbEntity
  8
1
 62
     7
100
AcDbLine
 10
1.356719398800634
 20
-4.277067730142738
 30
0.0
 11
0.3999999999999773
 21
-4.277067730142738
 31
0.0
  0
LINE
  5
48
330
EC
100
AcDbEntity
  8
1
 62
     7
100
AcDbLine
 10
0.3999999999999773
 20
-4.277067730142738
 30
0.0
 11
0.3999999999999773
 21
-3.477067730142743
 31
0.0
  0
LINE
  5
49
330
EC
100
AcDbEntity
  8
1
 62
     7
100
AcDbLine
 10
-0.3999999999999773
 20
-3.477067730142743
 30
0.0
 11
-0.3999999999999773
 21
-4.277067730142738
 31
0.0
  0
LINE
  5
4A
330
EC
100
AcDbEntity
  8
1
 62
     7
100
AcDbLine
 10
-0.3999999999999773
 20
-4.277067730142738
 30
0.0
 11
-1.356719398800634
 21
-4.277067730142738
 31
0.0
  0
LINE
  5
4B
330
EC
100
AcDbEntity
  8
1
 62
     7
100
AcDbLine
 10
-1.373465458485439
 20
-5.377067730142741
 30
0.0
 11
-0.3999999999999773
 21
-5.377067730142741
 31
0.0
  0
LINE
  5
4C
330
EC
100
AcDbEntity
  8
1
 62
     7
100
AcDbLine
 10
-0.3999999999999773
 20
-5.377067730142741
 30
0.0
 11
-0.3999999999999773
 21
-6.277067730142738
 31
0.0
  0
LINE
  5
4D
330
EC
100
AcDbEntity
  8
1
 62
     7
100
AcDbLine
 10
-1.600000000000023
 20
-6.277067730142738
 30
0.0
 11
-0.3999999999999773
 21
-6.277067730142738
 31
0.0
  0
LINE
  5
4E
330
EC
100
AcDbEntity
  8
1
 62
     7
100
AcDbLine
 10
-2.600000000000021
 20
-4.180639222761904
 30
0.0
 11
-2.600000000000021
 21
-5.277067730142738
 31
0.0
  0
LINE
  5
4F
330
EC
100
AcDbEntity
  8
1
  6
DASHDOT
 62
     3
100
AcDbLine
 10
200.3673791819876
 20
25.63262081801234
 30
0.0
 11
204.9635732597002
 21
21.03642674029976
 31
0.0
  0
LINE
  5
50
330
EC
100
AcDbEntity
  8
1
  6
DASHDOT
 62
     3
100
AcDbLine
 10
251.6326208180124
 20
25.63262081801234
 30
0.0
 11
247.0364267402997
 21
21.03642674029976
 31
0.0
  0
LINE
  5
51
330
EC
100
AcDbEntity
  8
1
  6
DASHDOT
 62
     3
100
AcDbLine
 10
226.0
 20
1.5
 30
0.0
 11
226.0
 21
-1.5
 31
0.0
  0
LINE
  5
52
330
EC
100
AcDbEntity
  8
1
  6
DASHDOT
 62
     3
100
AcDbLine
 10
227.4999999999999
 20
0.0
 30
0.0
 11
224.5
 21
0.0
 31
0.0
  0
LINE
  5
53
330
EC
100
AcDbEntity
  8
1
 62
     7
100
AcDbLine
 10
110.6999999999999
 20
28.5
 30
0.0
 11
104.7
 21
28.5
 31
0.0
  0
LINE
  5
54
330
EC
100
AcDbEntity
  8
1
 62
     7
100
AcDbLine
 10
108.62
 20
49.5
 30
0.0
 11
108.62
 21
28.5
 31
0.0
  0
LINE
  5
55
330
EC
100
AcDbEntity
  8
1
 62
     7
100
AcDbLine
 10
106.78
 20
49.5
 30
0.0
 11
106.78
 21
28.5
 31
0.0
  0
LINE
  5
56
330
EC
100
AcDbEntity
  8
1
 62
     7
100
AcDbLine
 10
106.78
 20
49.5
 30
0.0
 11
108.62
 21
49.5
 31
0.0
  0
LINE
  5
57
330
EC
100
AcDbEntity
  8
1
 62
     3
100
AcDbLine
 10
107.3099999999999
 20
49.5
 30
0.0
 11
107.3099999999999
 21
52.5
 31
0.0
  0
LINE
  5
58
330
EC
100
AcDbEntity
  8
1
 62
     3
100
AcDbLine
 10
108.0899999999999
 20
52.5
 30
0.0
 11
108.0899999999999
 21
49.5
 31
0.0
  0
LINE
  5
59
330
EC
100
AcDbEntity
  8
1
 62
     7
100
AcDbLine
 10
110.6999999999999
 20
28.5
 30
0.0
 11
110.6999999999999
 21
28.0
 31
0.0
  0
LINE
  5
5A
330
EC
100
AcDbEntity
  8
1
 62
     7
100
AcDbLine
 10
104.7
 20
28.5
 30
0.0
 11
104.7
 21
28.0
 31
0.0
  0
LINE
  5
5B
330
EC
100
AcDbEntity
  8
1
 62
     7
100
AcDbLine
 10
84.69999999999997
 20
28.0
 30
0.0
 11
84.69999999999997
 21
-28.0
 31
0.0
  0
LINE
  5
5C
330
EC
100
AcDbEntity
  8
1
 62
     7
100
AcDbLine
 10
84.69999999999997
 20
28.0
 30
0.0
 11
113.7
 21
28.0
 31
0.0
  0
LINE
  5
5D
330
EC
100
AcDbEntity
  8
1
 62
     7
100
AcDbLine
 10
113.7
 20
37.5
 30
0.0
 11
117.7
 21
37.5
 31
0.0
  0
LINE
  5
5E
330
EC
100
AcDbEntity
  8
1
 62
     7
100
AcDbLine
 10
117.7
 20
37.5
 30
0.0
 11
117.7
 21
27.0
 31
0.0
  0
LINE
  5
5F
330
EC
100
AcDbEntity
  8
1
 62
     7
100
AcDbLine
 10
117.7
 20
27.0
 30
0.0
 11
120.7
 21
27.0
 31
0.0
  0
LINE
  5
60
330
EC
100
AcDbEntity
  8
1
 62
     7
100
AcDbLine
 10
120.7
 20
27.0
 30
0.0
 11
120.7
 21
-27.0
 31
0.0
  0
LINE
  5
61
330
EC
100
AcDbEntity
  8
1
 62
     7
100
AcDbLine
 10
120.7
 20
-27.0
 30
0.0
 11
117.7
 21
-27.0
 31
0.0
  0
LINE
  5
62
330
EC
100
AcDbEntity
  8
1
 62
     7
100
AcDbLine
 10
113.7
 20
-37.5
 30
0.0
 11
113.7
 21
37.5
 31
0.0
  0
LINE
  5
63
330
EC
100
AcDbEntity
  8
1
 62
     7
100
AcDbLine
 10
117.7
 20
-37.5
 30
0.0
 11
113.7
 21
-37.5
 31
0.0
  0
LINE
  5
64
330
EC
100
AcDbEntity
  8
1
 62
     7
100
AcDbLine
 10
113.7
 20
-28.0
 30
0.0
 11
84.69999999999997
 21
-28.0
 31
0.0
  0
LINE
  5
65
330
EC
100
AcDbEntity
  8
1
 62
     7
100
AcDbLine
 10
83.89999999999998
 20
-6.277067730142738
 30
0.0
 11
84.69999999999997
 21
-6.277067730142738
 31
0.0
  0
LINE
  5
66
330
EC
100
AcDbEntity
  8
1
 62
     7
100
AcDbLine
 10
121.5
 20
-6.277067730142738
 30
0.0
 11
120.7
 21
-6.277067730142738
 31
0.0
  0
LINE
  5
67
330
EC
100
AcDbEntity
  8
1
 62
     7
100
AcDbLine
 10
121.5
 20
4.699999999999993
 30
0.0
 11
120.7
 21
4.699999999999995
 31
0.0
  0
LINE
  5
68
330
EC
100
AcDbEntity
  8
1
 62
     7
100
AcDbLine
 10
143.5
 20
3.0
 30
0.0
 11
143.5
 21
-3.5
 31
0.0
  0
LINE
  5
69
330
EC
100
AcDbEntity
  8
1
 62
     7
100
AcDbLine
 10
131.4999999999998
 20
3.0
 30
0.0
 11
143.5
 21
3.0
 31
0.0
  0
LINE
  5
6A
330
EC
100
AcDbEntity
  8
1
 62
     7
100
AcDbLine
 10
131.4999999999998
 20
3.5
 30
0.0
 11
131.4999999999998
 21
3.0
 31
0.0
  0
LINE
  5
6B
330
EC
100
AcDbEntity
  8
1
 62
     3
100
AcDbLine
 10
131.4999999999998
 20
1.802775637731995
 30
0.0
 11
143.5
 21
-1.802775637731995
 31
0.0
  0
LINE
  5
6C
330
EC
100
AcDbEntity
  8
1
 62
     3
100
AcDbLine
 10
143.5
 20
1.802775637731995
 30
0.0
 11
131.4999999999998
 21
-1.802775637731995
 31
0.0
  0
LINE
  5
6D
330
EC
100
AcDbEntity
  8
1
 62
     7
100
AcDbLine
 10
131.4999999999998
 20
-1.802775637731995
 30
0.0
 11
143.5
 21
-1.802775637731995
 31
0.0
  0
LINE
  5
6E
330
EC
100
AcDbEntity
  8
1
 62
     7
100
AcDbLine
 10
131.4999999999998
 20
1.802775637731995
 30
0.0
 11
131.4999999999998
 21
-1.802775637731995
 31
0.0
  0
LINE
  5
6F
330
EC
100
AcDbEntity
  8
1
 62
     7
100
AcDbLine
 10
143.5
 20
1.802775637731995
 30
0.0
 11
131.4999999999998
 21
1.802775637731995
 31
0.0
  0
LINE
  5
70
330
EC
100
AcDbEntity
  8
1
 62
     7
100
AcDbLine
 10
121.5
 20
-6.277067730142738
 30
0.0
 11
121.5
 21
4.699999999999993
 31
0.0
  0
LINE
  5
71
330
EC
100
AcDbEntity
  8
1
 62
     7
100
AcDbLine
 10
143.5
 20
-3.5
 30
0.0
 11
121.5
 21
-3.5
 31
0.0
  0
LINE
  5
72
330
EC
100
AcDbEntity
  8
1
 62
     7
100
AcDbLine
 10
121.5
 20
3.5
 30
0.0
 11
131.4999999999998
 21
3.5
 31
0.0
  0
LINE
  5
73
330
EC
100
AcDbEntity
  8
1
 62
     7
100
AcDbLine
 10
82.5
 20
-3.5
 30
0.0
 11
82.5
 21
3.5
 31
0.0
  0
LINE
  5
74
330
EC
100
AcDbEntity
  8
1
 62
     7
100
AcDbLine
 10
83.89999999999998
 20
-3.5
 30
0.0
 11
82.5
 21
-3.5
 31
0.0
  0
LINE
  5
75
330
EC
100
AcDbEntity
  8
1
 62
     7
100
AcDbLine
 10
83.89999999999998
 20
-6.277067730142738
 30
0.0
 11
83.89999999999998
 21
4.699999999999993
 31
0.0
  0
LINE
  5
76
330
EC
100
AcDbEntity
  8
1
 62
     7
100
AcDbLine
 10
82.5
 20
3.5
 30
0.0
 11
83.89999999999998
 21
3.5
 31
0.0
  0
LINE
  5
77
330
EC
100
AcDbEntity
  8
1
  6
DASHDOT
 62
     3
100
AcDbLine
 10
79.5
 20
0.0
 30
0.0
 11
82.5
 21
0.0
 31
0.0
  0
LINE
  5
78
330
EC
100
AcDbEntity
  8
1
 62
     7
100
AcDbLine
 10
117.7
 20
27.0
 30
0.0
 11
117.7
 21
-37.5
 31
0.0
  0
LINE
  5
79
330
EC
100
AcDbEntity
  8
1
 62
     7
100
AcDbLine
 10
224.1972243622679
 20
3.0
 30
0.0
 11
227.802775637732
 21
3.0
 31
0.0
  0
LINE
  5
7A
330
EC
100
AcDbEntity
  8
1
 62
     7
100
AcDbLine
 10
223.0
 20
1.802775637731995
 30
0.0
 11
223.0
 21
-1.802775637731995
 31
0.0
  0
LINE
  5
7B
330
EC
100
AcDbEntity
  8
1
  6
DASHDOT
 62
     3
100
AcDbLine
 10
200.2789908343391
 20
-25.72100916566069
 30
0.0
 11
205.0519616073485
 21
-20.94803839265149
 31
0.0
  0
LINE
  5
7C
330
EC
100
AcDbEntity
  8
1
  6
DASHDOT
 62
     3
100
AcDbLine
 10
251.7210091656607
 20
-25.72100916566073
 30
0.0
 11
246.9480383926514
 21
-20.94803839265153
 31
0.0
  0
LINE
  5
7D
330
EC
100
AcDbEntity
  8
1
 62
     3
100
AcDbLine
 10
227.3099999999999
 20
52.5
 30
0.0
 11
227.3099999999999
 21
49.5
 31
0.0
  0
LINE
  5
7E
330
EC
100
AcDbEntity
  8
1
 62
     3
100
AcDbLine
 10
226.5299999999999
 20
49.5
 30
0.0
 11
226.5299999999999
 21
52.5
 31
0.0
  0
LINE
  5
7F
330
EC
100
AcDbEntity
  8
1
 62
     7
100
AcDbLine
 10
224.16
 20
49.5
 30
0.0
 11
227.8399999999999
 21
49.5
 31
0.0
  0
LINE
  5
80
330
EC
100
AcDbEntity
  8
1
 62
     7
100
AcDbLine
 10
226.0
 20
49.5
 30
0.0
 11
226.0
 21
37.5
 31
0.0
  0
LINE
  5
81
330
EC
100
AcDbEntity
  8
1
 62
     7
100
AcDbLine
 10
227.8399999999999
 20
49.5
 30
0.0
 11
227.8399999999999
 21
37.46585111805149
 31
0.0
  0
LINE
  5
82
330
EC
100
AcDbEntity
  8
1
 62
     3
100
AcDbLine
 10
224.69
 20
49.5
 30
0.0
 11
224.69
 21
52.5
 31
0.0
  0
LINE
  5
83
330
EC
100
AcDbEntity
  8
1
 62
     3
100
AcDbLine
 10
225.47
 20
52.5
 30
0.0
 11
225.47
 21
49.5
 31
0.0
  0
LINE
  5
84
330
EC
100
AcDbEntity
  8
1
 62
     7
100
AcDbLine
 10
224.16
 20
49.5
 30
0.0
 11
224.16
 21
37.46585111805149
 31
0.0
  0
LINE
  5
85
330
EC
100
AcDbEntity
  8
1
 62
     7
100
AcDbLine
 10
228.6
 20
-5.277067730142738
 30
0.0
 11
228.6
 21
-4.180639222761904
 31
0.0
  0
LINE
  5
86
330
EC
100
AcDbEntity
  8
1
 62
     7
100
AcDbLine
 10
226.4
 20
-6.277067730142738
 30
0.0
 11
227.5999999999999
 21
-6.277067730142738
 31
0.0
  0
LINE
  5
87
330
EC
100
AcDbEntity
  8
1
 62
     7
100
AcDbLine
 10
226.4
 20
-6.277067730142738
 30
0.0
 11
226.4
 21
-5.377067730142741
 31
0.0
  0
LINE
  5
88
330
EC
100
AcDbEntity
  8
1
 62
     7
100
AcDbLine
 10
226.4
 20
-5.377067730142741
 30
0.0
 11
227.3734654584854
 21
-5.377067730142741
 31
0.0
  0
LINE
  5
89
330
EC
100
AcDbEntity
  8
1
 62
     7
100
AcDbLine
 10
227.3567193988005
 20
-4.277067730142738
 30
0.0
 11
226.4
 21
-4.277067730142738
 31
0.0
  0
LINE
  5
8A
330
EC
100
AcDbEntity
  8
1
 62
     7
100
AcDbLine
 10
226.4
 20
-4.277067730142738
 30
0.0
 11
226.4
 21
-3.477067730142743
 31
0.0
  0
LINE
  5
8B
330
EC
100
AcDbEntity
  8
1
 62
     7
100
AcDbLine
 10
225.5999999999999
 20
-3.477067730142743
 30
0.0
 11
225.5999999999999
 21
-4.277067730142738
 31
0.0
  0
LINE
  5
8C
330
EC
100
AcDbEntity
  8
1
 62
     7
100
AcDbLine
 10
225.5999999999999
 20
-4.277067730142738
 30
0.0
 11
224.6432806011994
 21
-4.277067730142738
 31
0.0
  0
LINE
  5
8D
330
EC
100
AcDbEntity
  8
1
 62
     7
100
AcDbLine
 10
224.6265345415145
 20
-5.377067730142741
 30
0.0
 11
225.5999999999999
 21
-5.377067730142741
 31
0.0
  0
LINE
  5
8E
330
EC
100
AcDbEntity
  8
1
 62
     7
100
AcDbLine
 10
225.5999999999999
 20
-5.377067730142741
 30
0.0
 11
225.5999999999999
 21
-6.277067730142738
 31
0.0
  0
LINE
  5
8F
330
EC
100
AcDbEntity
  8
1
 62
     7
100
AcDbLine
 10
224.4
 20
-6.277067730142738
 30
0.0
 11
225.5999999999999
 21
-6.277067730142738
 31
0.0
  0
LINE
  5
90
330
EC
100
AcDbEntity
  8
1
 62
     7
100
AcDbLine
 10
223.3999999999999
 20
-4.180639222761904
 30
0.0
 11
223.3999999999999
 21
-5.277067730142738
 31
0.0
  0
LINE
  5
91
330
EC
100
AcDbEntity
  8
1
 62
     7
100
AcDbLine
 10
-3.0
 20
27.83882181415011
 30
0.0
 11
-3.0
 21
28.5
 31
0.0
  0
LINE
  5
92
330
EC
100
AcDbEntity
  8
1
 62
     7
100
AcDbLine
 10
-3.0
 20
28.5
 30
0.0
 11
3.0
 21
28.5
 31
0.0
  0
LINE
  5
93
330
EC
100
AcDbEntity
  8
1
 62
     7
100
AcDbLine
 10
3.0
 20
28.5
 30
0.0
 11
3.0
 21
27.83882181415011
 31
0.0
  0
LINE
  5
94
330
EC
100
AcDbEntity
  8
1
 62
     3
100
AcDbLine
 10
226.92
 20
52.5
 30
0.0
 11
226.92
 21
49.5
 31
0.0
  0
LINE
  5
95
330
EC
100
AcDbEntity
  8
1
 62
     3
100
AcDbLine
 10
225.08
 20
52.5
 30
0.0
 11
225.08
 21
49.5
 31
0.0
  0
LINE
  5
96
330
EC
100
AcDbEntity
  8
1
 62
     3
100
AcDbLine
 10
107.6999999999999
 20
52.5
 30
0.0
 11
107.6999999999999
 21
49.5
 31
0.0
  0
LINE
  5
97
330
EC
100
AcDbEntity
  8
1
 62
     3
100
AcDbLine
 10
0.9200000000000155
 20
52.5
 30
0.0
 11
0.9200000000000155
 21
49.5
 31
0.0
  0
LINE
  5
98
330
EC
100
AcDbEntity
  8
1
 62
     3
100
AcDbLine
 10
-0.9200000000000155
 20
52.5
 30
0.0
 11
-0.9200000000000155
 21
49.5
 31
0.0
  0
ARC
  5
99
330
EC
100
AcDbEntity
  8
1
 62
     7
100
AcDbCircle
 10
1.600000000000023
 20
-5.277067730142738
 30
0.0
 40
1.0
100
AcDbArc
 50
270.0
 51
0.0
  0
ARC
  5
9A
330
EC
100
AcDbEntity
  8
1
 62
     7
100
AcDbCircle
 10
4.100000000000023
 20
-4.180639222761904
 30
0.0
 40
1.500000000000024
100
AcDbArc
 50
133.104673819897
 51
180.0
  0
ARC
  5
9B
330
EC
100
AcDbEntity
  8
1
 62
     7
100
AcDbCircle
 10
-4.100000000000023
 20
-4.180639222761904
 30
0.0
 40
1.5
100
AcDbArc
 50
0.0
 51
46.89532618010335
  0
ARC
  5
9C
330
EC
100
AcDbEntity
  8
1
 62
     7
100
AcDbCircle
 10
-1.600000000000023
 20
-5.277067730142738
 30
0.0
 40
1.0
100
AcDbArc
 50
180.0
 51
270.0
  0
ARC
  5
9D
330
EC
100
AcDbEntity
  8
1
 62
     7
100
AcDbCircle
 10
227.5999999999999
 20
-5.277067730142738
 30
0.0
 40
1.0
100
AcDbArc
 50
270.0
 51
0.0
  0
ARC
  5
9E
330
EC
100
AcDbEntity
  8
1
 62
     7
100
AcDbCircle
 10
230.1
 20
-4.180639222761904
 30
0.0
 40
1.500000000000001
100
AcDbArc
 50
133.1046738198961
 51
180.0
  0
ARC
  5
9F
330
EC
100
AcDbEntity
  8
1
 62
     7
100
AcDbCircle
 10
221.9
 20
-4.180639222761904
 30
0.0
 40
1.5
100
AcDbArc
 50
0.0
 51
46.89532618010398
  0
ARC
  5
A0
330
EC
100
AcDbEntity
  8
1
 62
     7
100
AcDbCircle
 10
224.4
 20
-5.277067730142738
 30
0.0
 40
1.0
100
AcDbArc
 50
180.0
 51
270.0
  0
ARC
  5
A1
330
EC
100
AcDbEntity
  8
1
  6
DASHDOT
 62
     3
100
AcDbCircle
 10
0.0
 20
0.0
 30
0.0
 40
33.0
100
AcDbArc
 50
129.3549508986167
 51
140.6450491013834
  0
ARC
  5
A2
330
EC
100
AcDbEntity
  8
1
  6
DASHDOT
 62
     3
100
AcDbCircle
 10
0.0
 20
0.0
 30
0.0
 40
33.0
100
AcDbArc
 50
219.3549508986166
 51
230.6450491013833
  0
ARC
  5
A3
330
EC
100
AcDbEntity
  8
1
  6
DASHDOT
 62
     3
100
AcDbCircle
 10
0.0
 20
0.0
 30
0.0
 40
33.0
100
AcDbArc
 50
309.3549508986168
 51
320.6450491013832
  0
ARC
  5
A4
330
EC
100
AcDbEntity
  8
1
  6
DASHDOT
 62
     3
100
AcDbCircle
 10
0.0
 20
0.0
 30
0.0
 40
33.0
100
AcDbArc
 50
39.35495089861664
 51
50.64504910138329
  0
ARC
  5
A5
330
EC
100
AcDbEntity
  8
1
 62
     7
100
AcDbCircle
 10
1.356719398800634
 20
-4.827195198558633
 30
0.0
 40
0.5501274684158954
100
AcDbArc
 50
271.7443716919301
 51
90.0
  0
ARC
  5
A6
330
EC
100
AcDbEntity
  8
1
 62
     7
100
AcDbCircle
 10
-1.356719398800634
 20
-4.827195198558633
 30
0.0
 40
0.5501274684158945
100
AcDbArc
 50
90.0
 51
268.2556283080697
  0
ARC
  5
A7
330
EC
100
AcDbEntity
  8
1
 62
     7
100
AcDbCircle
 10
0.0
 20
0.2000000000000028
 30
0.0
 40
4.499999999999994
100
AcDbArc
 50
313.1046738198958
 51
226.8953261801041
  0
ARC
  5
A8
330
EC
100
AcDbEntity
  8
1
  6
DASHDOT
 62
     3
100
AcDbCircle
 10
226.0
 20
0.0
 30
0.0
 40
33.0
100
AcDbArc
 50
129.3549508986167
 51
140.6450491013833
  0
ARC
  5
A9
330
EC
100
AcDbEntity
  8
1
  6
DASHDOT
 62
     3
100
AcDbCircle
 10
226.0
 20
0.0
 30
0.0
 40
32.99999999999997
100
AcDbArc
 50
219.3549508986166
 51
230.6450491013833
  0
ARC
  5
AA
330
EC
100
AcDbEntity
  8
1
  6
DASHDOT
 62
     3
100
AcDbCircle
 10
226.0
 20
0.0
 30
0.0
 40
32.99999999999999
100
AcDbArc
 50
309.3549508986168
 51
320.6450491013832
  0
ARC
  5
AB
330
EC
100
AcDbEntity
  8
1
  6
DASHDOT
 62
     3
100
AcDbCircle
 10
226.0
 20
0.0
 30
0.0
 40
32.99999999999997
100
AcDbArc
 50
39.35495089861667
 51
50.64504910138329
  0
ARC
  5
AC
330
EC
100
AcDbEntity
  8
1
 62
     7
100
AcDbCircle
 10
227.3567193988005
 20
-4.827195198558633
 30
0.0
 40
0.5501274684158954
100
AcDbArc
 50
271.7443716919301
 51
90.0
  0
ARC
  5
AD
330
EC
100
AcDbEntity
  8
1
 62
     7
100
AcDbCircle
 10
224.6432806011994
 20
-4.827195198558633
 30
0.0
 40
0.5501274684158945
100
AcDbArc
 50
90.0
 51
268.2556283080697
  0
ARC
  5
AE
330
EC
100
AcDbEntity
  8
1
 62
     7
100
AcDbCircle
 10
226.0
 20
0.2000000000000028
 30
0.0
 40
4.499999999999999
100
AcDbArc
 50
313.1046738198958
 51
226.8953261801041
  0
ARC
  5
AF
330
EC
100
AcDbEntity
  8
1
 62
     7
100
AcDbCircle
 10
0.0
 20
0.0
 30
0.0
 40
37.5
100
AcDbArc
 50
92.81244219566533
 51
87.18755780433466
  0
CIRCLE
  5
B0
330
EC
100
AcDbEntity
  8
1
 62
     7
100
AcDbCircle
 10
226.0
 20
0.0
 30
0.0
 40
28.0
  0
CIRCLE
  5
B1
330
EC
100
AcDbEntity
  8
1
 62
     7
100
AcDbCircle
 10
0.0
 20
0.0
 30
0.0
 40
3.5
  0
CIRCLE
  5
B2
330
EC
100
AcDbEntity
  8
1
 62
     7
100
AcDbCircle
 10
0.0
 20
0.0
 30
0.0
 40
9.5
  0
CIRCLE
  5
B3
330
EC
100
AcDbEntity
  8
1
 62
     7
100
AcDbCircle
 10
0.0
 20
0.0
 30
0.0
 40
15.0
  0
CIRCLE
  5
B4
330
EC
100
AcDbEntity
  8
1
 62
     7
100
AcDbCircle
 10
0.0
 20
0.0
 30
0.0
 40
24.5
  0
CIRCLE
  5
B5
330
EC
100
AcDbEntity
  8
1
 62
     7
100
AcDbCircle
 10
0.0
 20
0.0
 30
0.0
 40
28.0
  0
CIRCLE
  5
B6
330
EC
100
AcDbEntity
  8
1
 62
     7
100
AcDbCircle
 10
23.33452377915608
 20
23.33452377915606
 30
0.0
 40
2.25
  0
CIRCLE
  5
B7
330
EC
100
AcDbEntity
  8
1
 62
     7
100
AcDbCircle
 10
-23.33452377915608
 20
23.33452377915606
 30
0.0
 40
2.25
  0
CIRCLE
  5
B8
330
EC
100
AcDbEntity
  8
1
 62
     7
100
AcDbCircle
 10
-23.33452377915608
 20
-23.33452377915608
 30
0.0
 40
2.25
  0
CIRCLE
  5
B9
330
EC
100
AcDbEntity
  8
1
 62
     7
100
AcDbCircle
 10
23.33452377915608
 20
-23.33452377915612
 30
0.0
 40
2.25
  0
CIRCLE
  5
BA
330
EC
100
AcDbEntity
  8
1
 62
     7
100
AcDbCircle
 10
226.0
 20
0.0
 30
0.0
 40
3.5
  0
CIRCLE
  5
BB
330
EC
100
AcDbEntity
  8
1
 62
     7
100
AcDbCircle
 10
226.0
 20
0.0
 30
0.0
 40
9.5
  0
CIRCLE
  5
BC
330
EC
100
AcDbEntity
  8
1
 62
     7
100
AcDbCircle
 10
226.0
 20
0.0
 30
0.0
 40
15.0
  0
CIRCLE
  5
BD
330
EC
100
AcDbEntity
  8
1
 62
     7
100
AcDbCircle
 10
226.0
 20
0.0
 30
0.0
 40
24.5
  0
CIRCLE
  5
BE
330
EC
100
AcDbEntity
  8
1
 62
     7
100
AcDbCircle
 10
226.0
 20
0.0
 30
0.0
 40
27.0
  0
CIRCLE
  5
BF
330
EC
100
AcDbEntity
  8
1
 62
     7
100
AcDbCircle
 10
226.0
 20
0.0
 30
0.0
 40
37.5
  0
CIRCLE
  5
C0
330
EC
100
AcDbEntity
  8
1
 62
     7
100
AcDbCircle
 10
249.3345237791561
 20
23.33452377915606
 30
0.0
 40
2.25
  0
CIRCLE
  5
C1
330
EC
100
AcDbEntity
  8
1
 62
     7
100
AcDbCircle
 10
202.6654762208438
 20
23.33452377915606
 30
0.0
 40
2.25
  0
CIRCLE
  5
C2
330
EC
100
AcDbEntity
  8
1
 62
     7
100
AcDbCircle
 10
202.6654762208438
 20
-23.33452377915608
 30
0.0
 40
2.25
  0
CIRCLE
  5
C3
330
EC
100
AcDbEntity
  8
1
 62
     7
100
AcDbCircle
 10
249.3345237791561
 20
-23.33452377915612
 30
0.0
 40
2.25
  0
TEXT
  5
C5
330
EC
100
AcDbEntity
  8
1
 62
     7
100
AcDbText
 10
-40.8080474268416
 20
64.4652371342079
 30
0.0
 40
3.5
  1
OPB 10N
 41
0.9
  7
SIMPLEX
 72
     1
 11
-30.8330474268416
 21
64.4652371342079
 31
0.0
100
AcDbText
  0
ENDSEC
  0
SECTION
  2
OBJECTS
  0
DICTIONARY
  5
D8
330
0
100
AcDbDictionary
281
     1
  3
ACAD_COLOR
350
E7
  3
ACAD_GROUP
350
D9
  3
ACAD_LAYOUT
350
E5
  3
ACAD_MATERIAL
350
E6
  3
ACAD_MLINESTYLE
350
E2
  3
ACAD_PLOTSETTINGS
350
E4
  3
ACAD_PLOTSTYLENAME
350
DA
  0
DICTIONARY
  5
E7
102
{ACAD_REACTORS
330
D8
102
}
330
D8
100
AcDbDictionary
281
     1
  0
DICTIONARY
  5
D9
102
{ACAD_REACTORS
330
D8
102
}
330
D8
100
AcDbDictionary
281
     1
  0
DICTIONARY
  5
E5
102
{ACAD_REACTORS
330
D8
102
}
330
D8
100
AcDbDictionary
281
     1
  3
Layout1
350
EB
  3
Model
350
EF
  0
DICTIONARY
  5
E6
102
{ACAD_REACTORS
330
D8
102
}
330
D8
100
AcDbDictionary
281
     1
  0
DICTIONARY
  5
E2
102
{ACAD_REACTORS
330
D8
102
}
330
D8
100
AcDbDictionary
281
     1
  3
Standard
350
E3
  0
DICTIONARY
  5
E4
102
{ACAD_REACTORS
330
D8
102
}
330
D8
100
AcDbDictionary
281
     1
  0
ACDBDICTIONARYWDFLT
  5
DA
102
{ACAD_REACTORS
330
D8
102
}
330
D8
100
AcDbDictionary
281
     1
  3
Normal
350
DB
100
AcDbDictionaryWithDefault
340
DB
  0
LAYOUT
  5
EB
102
{ACAD_REACTORS
330
E5
102
}
330
E5
100
AcDbPlotSettings
  1

  2
\\Ogura1\HP Color LaserJet 4600 PCL 5c
  4

  6

 40
0.0
 41
0.0
 42
0.0
 43
0.0
 44
0.0
 45
0.0
 46
0.0
 47
0.0
 48
0.0
 49
0.0
140
0.0
141
0.0
142
1.0
143
1.0
 70
   688
 72
     0
 73
     0
 74
     5
  7

 75
    16
147
1.0
 76
     0
 77
     2
 78
   300
148
0.0
149
0.0
100
AcDbLayout
  1
Layout1
 70
     1
 71
     1
 10
0.0
 20
0.0
 11
12.0
 21
9.0
 12
0.0
 22
0.0
 32
0.0
 14
1.000000000000000E+20
 24
1.000000000000000E+20
 34
1.000000000000000E+20
 15
-1.000000000000000E+20
 25
-1.000000000000000E+20
 35
-1.000000000000000E+20
146
0.0
 13
0.0
 23
0.0
 33
0.0
 16
1.0
 26
0.0
 36
0.0
 17
0.0
 27
1.0
 37
0.0
 76
     0
330
E8
  0
LAYOUT
  5
EF
102
{ACAD_REACTORS
330
E5
102
}
330
E5
100
AcDbPlotSettings
  1

  2
\\Ogura1\HP Color LaserJet 4600 PCL 5c
  4

  6

 40
0.0
 41
0.0
 42
0.0
 43
0.0
 44
0.0
 45
0.0
 46
0.0
 47
0.0
 48
0.0
 49
0.0
140
0.0
141
0.0
142
1.0
143
1.0
 70
  1712
 72
     0
 73
     0
 74
     0
  7

 75
     0
147
1.0
 76
     0
 77
     2
 78
   300
148
0.0
149
0.0
100
AcDbLayout
  1
Model
 70
     1
 71
     0
 10
0.0
 20
0.0
 11
12.0
 21
9.0
 12
0.0
 22
0.0
 32
0.0
 14
0.0
 24
0.0
 34
0.0
 15
0.0
 25
0.0
 35
0.0
146
0.0
 13
0.0
 23
0.0
 33
0.0
 16
1.0
 26
0.0
 36
0.0
 17
0.0
 27
1.0
 37
0.0
 76
     0
330
EC
  0
MLINESTYLE
  5
E3
102
{ACAD_REACTORS
330
E2
102
}
330
E2
100
AcDbMlineStyle
  2
STANDARD
 70
     0
  3

 62
   256
 51
90.0
 52
90.0
 71
     2
 49
0.5
 62
   256
  6
BYLAYER
 49
-0.5
 62
   256
  6
BYLAYER
  0
ACDBPLACEHOLDER
  5
DB
102
{ACAD_REACTORS
330
DA
102
}
330
DA
  0
ENDSEC
  0
EOF
