  0
SECTION
  2
HEADER
  9
$ACADVER
  1
AC1018
  9
$ACADMAINTVER
 70
     0
  9
$DWGCODEPAGE
  3
ANSI_932
  9
$INSBASE
 10
0.0
 20
0.0
 30
0.0
  9
$EXTMIN
 10
-219.5800082393518
 20
-25.91922015244796
 30
-0.0015258207003583
  9
$EXTMAX
 10
267.2879203772186
 20
115.6490327422921
 30
0.0000000349246037
  9
$LIMMIN
 10
-219.565152249602
 20
-25.9149004254947
  9
$LIMMAX
 10
267.2730621204513
 20
115.6447123561505
  9
$ORTHOMODE
 70
     0
  9
$REGENMODE
 70
     1
  9
$FILLMODE
 70
     1
  9
$QTEXTMODE
 70
     0
  9
$MIRRTEXT
 70
     1
  9
$LTSCALE
 40
1.0
  9
$ATTMODE
 70
     1
  9
$TEXTSIZE
 40
3.5
  9
$TRACEWID
 40
0.5
  9
$TEXTSTYLE
  7
STANDARD
  9
$CLAYER
  8
0
  9
$CELTYPE
  6
ByLayer
  9
$CECOLOR
 62
   256
  9
$CELTSCALE
 40
1.0
  9
$DISPSILH
 70
     0
  9
$DIMSCALE
 40
1.0
  9
$DIMASZ
 40
0.18
  9
$DIMEXO
 40
0.0625
  9
$DIMDLI
 40
0.38
  9
$DIMRND
 40
0.0
  9
$DIMDLE
 40
0.0
  9
$DIMEXE
 40
0.18
  9
$DIMTP
 40
0.0
  9
$DIMTM
 40
0.0
  9
$DIMTXT
 40
0.18
  9
$DIMCEN
 40
0.09
  9
$DIMTSZ
 40
0.0
  9
$DIMTOL
 70
     0
  9
$DIMLIM
 70
     0
  9
$DIMTIH
 70
     1
  9
$DIMTOH
 70
     1
  9
$DIMSE1
 70
     0
  9
$DIMSE2
 70
     0
  9
$DIMTAD
 70
     0
  9
$DIMZIN
 70
     0
  9
$DIMBLK
  1

  9
$DIMASO
 70
     1
  9
$DIMSHO
 70
     1
  9
$DIMPOST
  1

  9
$DIMAPOST
  1

  9
$DIMALT
 70
     0
  9
$DIMALTD
 70
     2
  9
$DIMALTF
 40
25.4
  9
$DIMLFAC
 40
1.0
  9
$DIMTOFL
 70
     0
  9
$DIMTVP
 40
0.0
  9
$DIMTIX
 70
     0
  9
$DIMSOXD
 70
     0
  9
$DIMSAH
 70
     0
  9
$DIMBLK1
  1

  9
$DIMBLK2
  1

  9
$DIMSTYLE
  2
STANDARD
  9
$DIMCLRD
 70
     0
  9
$DIMCLRE
 70
     0
  9
$DIMCLRT
 70
     0
  9
$DIMTFAC
 40
1.0
  9
$DIMGAP
 40
0.09
  9
$DIMJUST
 70
     0
  9
$DIMSD1
 70
     0
  9
$DIMSD2
 70
     0
  9
$DIMTOLJ
 70
     1
  9
$DIMTZIN
 70
     0
  9
$DIMALTZ
 70
     0
  9
$DIMALTTZ
 70
     0
  9
$DIMUPT
 70
     0
  9
$DIMDEC
 70
     4
  9
$DIMTDEC
 70
     4
  9
$DIMALTU
 70
     2
  9
$DIMALTTD
 70
     2
  9
$DIMTXSTY
  7
STANDARD
  9
$DIMAUNIT
 70
     0
  9
$DIMADEC
 70
     0
  9
$DIMALTRND
 40
0.0
  9
$DIMAZIN
 70
     0
  9
$DIMDSEP
 70
    46
  9
$DIMATFIT
 70
     3
  9
$DIMFRAC
 70
     0
  9
$DIMLDRBLK
  1

  9
$DIMLUNIT
 70
     2
  9
$DIMLWD
 70
    -2
  9
$DIMLWE
 70
    -2
  9
$DIMTMOVE
 70
     0
  9
$LUNITS
 70
     2
  9
$LUPREC
 70
     4
  9
$SKETCHINC
 40
0.1
  9
$FILLETRAD
 40
2.0
  9
$AUNITS
 70
     0
  9
$AUPREC
 70
     0
  9
$MENU
  1
ACAD
  9
$ELEVATION
 40
0.0
  9
$PELEVATION
 40
0.0
  9
$THICKNESS
 40
0.0
  9
$LIMCHECK
 70
     0
  9
$CHAMFERA
 40
0.0
  9
$CHAMFERB
 40
0.0
  9
$CHAMFERC
 40
0.0
  9
$CHAMFERD
 40
0.0
  9
$SKPOLY
 70
     0
  9
$TDCREATE
 40
2452093.891057408
  9
$TDUCREATE
 40
2452094.057724074
  9
$TDUPDATE
 40
2453209.435800451
  9
$TDUUPDATE
 40
2453209.602467118
  9
$TDINDWG
 40
0.0006709722
  9
$TDUSRTIMER
 40
0.0006709722
  9
$USRTIMER
 70
     1
  9
$ANGBASE
 50
0.0
  9
$ANGDIR
 70
     0
  9
$PDMODE
 70
     0
  9
$PDSIZE
 40
0.0
  9
$PLINEWID
 40
0.0
  9
$SPLFRAME
 70
     0
  9
$SPLINETYPE
 70
     6
  9
$SPLINESEGS
 70
     8
  9
$HANDSEED
  5
1BA
  9
$SURFTAB1
 70
     6
  9
$SURFTAB2
 70
     6
  9
$SURFTYPE
 70
     6
  9
$SURFU
 70
     6
  9
$SURFV
 70
     6
  9
$UCSBASE
  2

  9
$UCSNAME
  2

  9
$UCSORG
 10
0.0
 20
0.0
 30
0.0
  9
$UCSXDIR
 10
1.0
 20
0.0
 30
0.0
  9
$UCSYDIR
 10
0.0
 20
1.0
 30
0.0
  9
$UCSORTHOREF
  2

  9
$UCSORTHOVIEW
 70
     0
  9
$UCSORGTOP
 10
0.0
 20
0.0
 30
0.0
  9
$UCSORGBOTTOM
 10
0.0
 20
0.0
 30
0.0
  9
$UCSORGLEFT
 10
0.0
 20
0.0
 30
0.0
  9
$UCSORGRIGHT
 10
0.0
 20
0.0
 30
0.0
  9
$UCSORGFRONT
 10
0.0
 20
0.0
 30
0.0
  9
$UCSORGBACK
 10
0.0
 20
0.0
 30
0.0
  9
$PUCSBASE
  2

  9
$PUCSNAME
  2

  9
$PUCSORG
 10
0.0
 20
0.0
 30
0.0
  9
$PUCSXDIR
 10
1.0
 20
0.0
 30
0.0
  9
$PUCSYDIR
 10
0.0
 20
1.0
 30
0.0
  9
$PUCSORTHOREF
  2

  9
$PUCSORTHOVIEW
 70
     0
  9
$PUCSORGTOP
 10
0.0
 20
0.0
 30
0.0
  9
$PUCSORGBOTTOM
 10
0.0
 20
0.0
 30
0.0
  9
$PUCSORGLEFT
 10
0.0
 20
0.0
 30
0.0
  9
$PUCSORGRIGHT
 10
0.0
 20
0.0
 30
0.0
  9
$PUCSORGFRONT
 10
0.0
 20
0.0
 30
0.0
  9
$PUCSORGBACK
 10
0.0
 20
0.0
 30
0.0
  9
$USERI1
 70
     0
  9
$USERI2
 70
     0
  9
$USERI3
 70
     0
  9
$USERI4
 70
     0
  9
$USERI5
 70
     0
  9
$USERR1
 40
0.0
  9
$USERR2
 40
0.0
  9
$USERR3
 40
0.0
  9
$USERR4
 40
0.0
  9
$USERR5
 40
0.0
  9
$WORLDVIEW
 70
     1
  9
$SHADEDGE
 70
     3
  9
$SHADEDIF
 70
    70
  9
$TILEMODE
 70
     1
  9
$MAXACTVP
 70
    64
  9
$PINSBASE
 10
0.0
 20
0.0
 30
0.0
  9
$PLIMCHECK
 70
     0
  9
$PEXTMIN
 10
1.000000000000000E+20
 20
1.000000000000000E+20
 30
1.000000000000000E+20
  9
$PEXTMAX
 10
-1.000000000000000E+20
 20
-1.000000000000000E+20
 30
-1.000000000000000E+20
  9
$PLIMMIN
 10
0.0
 20
0.0
  9
$PLIMMAX
 10
12.0
 20
9.0
  9
$UNITMODE
 70
     0
  9
$VISRETAIN
 70
     1
  9
$PLINEGEN
 70
     0
  9
$PSLTSCALE
 70
     1
  9
$TREEDEPTH
 70
  3020
  9
$CMLSTYLE
  2
Standard
  9
$CMLJUST
 70
     0
  9
$CMLSCALE
 40
1.0
  9
$PROXYGRAPHICS
 70
     1
  9
$MEASUREMENT
 70
     0
  9
$CELWEIGHT
370
    -1
  9
$ENDCAPS
280
     0
  9
$JOINSTYLE
280
     0
  9
$LWDISPLAY
290
     0
  9
$INSUNITS
 70
     0
  9
$HYPERLINKBASE
  1

  9
$STYLESHEET
  1

  9
$XEDIT
290
     1
  9
$CEPSNTYPE
380
     0
  9
$PSTYLEMODE
290
     1
  9
$FINGERPRINTGUID
  2
{5BAE559D-F2EF-4BB6-8486-E9C318EDC241}
  9
$VERSIONGUID
  2
{F8A3C26A-EF7F-4385-B03B-16B03A1C912A}
  9
$EXTNAMES
290
     1
  9
$PSVPSCALE
 40
0.0
  9
$OLESTARTUP
290
     0
  9
$SORTENTS
280
   127
  9
$INDEXCTL
280
     0
  9
$HIDETEXT
280
     0
  9
$XCLIPFRAME
290
     0
  9
$HALOGAP
280
     0
  9
$OBSCOLOR
 70
   257
  9
$OBSLTYPE
280
     0
  9
$INTERSECTIONDISPLAY
280
     0
  9
$INTERSECTIONCOLOR
 70
   257
  9
$DIMASSOC
280
     1
  9
$PROJECTNAME
  1

  0
ENDSEC
  0
SECTION
  2
CLASSES
  0
CLASS
  1
ACDBDICTIONARYWDFLT
  2
AcDbDictionaryWithDefault
  3
ObjectDBX Classes
 90
        0
 91
        1
280
     0
281
     0
  0
ENDSEC
  0
SECTION
  2
TABLES
  0
TABLE
  2
VPORT
  5
187
330
0
100
AcDbSymbolTable
 70
     2
  0
VPORT
  5
1B9
330
187
100
AcDbSymbolTableRecord
100
AcDbViewportTableRecord
  2
*Active
 70
     0
 10
0.0
 20
0.0
 11
1.0
 21
1.0
 12
23.85395606893337
 22
44.86490629492206
 13
0.0
 23
0.0
 14
1.0
 24
1.0
 15
0.0
 25
0.0
 16
0.0
 26
0.0
 36
1.0
 17
0.0
 27
0.0
 37
0.0
 40
301.2745760351539
 41
1.625
 42
50.0
 43
0.0
 44
0.0
 50
0.0
 51
0.0
 71
     0
 72
   100
 73
     1
 74
     1
 75
     0
 76
     0
 77
     0
 78
     0
281
     0
 65
     1
110
0.0
120
0.0
130
0.0
111
1.0
121
0.0
131
0.0
112
0.0
122
1.0
132
0.0
 79
     0
146
0.0
  0
ENDTAB
  0
TABLE
  2
LTYPE
  5
184
330
0
100
AcDbSymbolTable
 70
     9
  0
LTYPE
  5
192
330
184
100
AcDbSymbolTableRecord
100
AcDbLinetypeTableRecord
  2
ByBlock
 70
     0
  3

 72
    65
 73
     0
 40
0.0
  0
LTYPE
  5
193
330
184
100
AcDbSymbolTableRecord
100
AcDbLinetypeTableRecord
  2
ByLayer
 70
     0
  3

 72
    65
 73
     0
 40
0.0
  0
LTYPE
  5
194
330
184
100
AcDbSymbolTableRecord
100
AcDbLinetypeTableRecord
  2
CONTINUOUS
 70
     0
  3
Solid line
 72
    65
 73
     0
 40
0.0
  0
LTYPE
  5
1A4
330
184
100
AcDbSymbolTableRecord
100
AcDbLinetypeTableRecord
  2
BORDER
 70
     0
  3
__ __ . __ __ .
 72
    65
 73
     6
 40
22.42018092493667
 49
6.405765978553334
 74
     0
 49
-3.202882989276667
 74
     0
 49
6.405765978553334
 74
     0
 49
-3.202882989276667
 74
     0
 49
0.0
 74
     0
 49
-3.202882989276667
 74
     0
  0
LTYPE
  5
1A5
330
184
100
AcDbSymbolTableRecord
100
AcDbLinetypeTableRecord
  2
CENTER
 70
     0
  3
____ _ ____ _
 72
    65
 73
     4
 40
25.62306391421333
 49
16.01441494638334
 74
     0
 49
-3.202882989276667
 74
     0
 49
3.202882989276667
 74
     0
 49
-3.202882989276667
 74
     0
  0
LTYPE
  5
1A6
330
184
100
AcDbSymbolTableRecord
100
AcDbLinetypeTableRecord
  2
DASHDOT
 70
     0
  3
__ . __ . __ .
 72
    65
 73
     4
 40
12.81153195710666
 49
6.405765978553334
 74
     0
 49
-3.202882989276667
 74
     0
 49
0.0
 74
     0
 49
-3.202882989276667
 74
     0
  0
LTYPE
  5
1A7
330
184
100
AcDbSymbolTableRecord
100
AcDbLinetypeTableRecord
  2
DASHED
 70
     0
  3
__ __ __ __ __
 72
    65
 73
     2
 40
9.608648967829999
 49
6.405765978553334
 74
     0
 49
-3.202882989276667
 74
     0
  0
LTYPE
  5
1A8
330
184
100
AcDbSymbolTableRecord
100
AcDbLinetypeTableRecord
  2
DIVIDE
 70
     0
  3
__ . . __ . . 
 72
    65
 73
     6
 40
16.01441494638334
 49
6.405765978553334
 74
     0
 49
-3.202882989276667
 74
     0
 49
0.0
 74
     0
 49
-3.202882989276667
 74
     0
 49
0.0
 74
     0
 49
-3.202882989276667
 74
     0
  0
LTYPE
  5
1A9
330
184
100
AcDbSymbolTableRecord
100
AcDbLinetypeTableRecord
  2
DOT
 70
     0
  3
..............
 72
    65
 73
     4
 40
6.405765978553334
 49
0.0
 74
     0
 49
-3.202882989276667
 74
     0
 49
0.0
 74
     0
 49
-3.202882989276667
 74
     0
  0
LTYPE
  5
1AA
330
184
100
AcDbSymbolTableRecord
100
AcDbLinetypeTableRecord
  2
HIDDEN
 70
     0
  3
_ _ _ _ _ _ _
 72
    65
 73
     2
 40
4.804324483914999
 49
3.202882989276667
 74
     0
 49
-1.601441494638334
 74
     0
  0
LTYPE
  5
1AB
330
184
100
AcDbSymbolTableRecord
100
AcDbLinetypeTableRecord
  2
PHANTOM
 70
     0
  3
_____ _ _ _____ _ _ 
 72
    65
 73
     6
 40
32.02882989276667
 49
16.01441494638334
 74
     0
 49
-3.202882989276667
 74
     0
 49
3.202882989276667
 74
     0
 49
-3.202882989276667
 74
     0
 49
3.202882989276667
 74
     0
 49
-3.202882989276667
 74
     0
  0
ENDTAB
  0
TABLE
  2
LAYER
  5
181
330
0
100
AcDbSymbolTable
 70
     2
  0
LAYER
  5
18F
330
181
100
AcDbSymbolTableRecord
100
AcDbLayerTableRecord
  2
0
 70
     0
 62
     7
  6
CONTINUOUS
370
    -3
390
18E
  0
LAYER
  5
1AC
330
181
100
AcDbSymbolTableRecord
100
AcDbLayerTableRecord
  2
1
 70
     0
 62
     7
  6
CONTINUOUS
370
    -3
390
18E
  0
ENDTAB
  0
TABLE
  2
STYLE
  5
182
330
0
100
AcDbSymbolTable
 70
     4
  0
STYLE
  5
190
330
182
100
AcDbSymbolTableRecord
100
AcDbTextStyleTableRecord
  2
STANDARD
 70
     0
 40
0.0
 41
1.0
 50
0.0
 71
     0
 42
3.5
  3
txt
  4

  0
STYLE
  5
1AD
330
182
100
AcDbSymbolTableRecord
100
AcDbTextStyleTableRecord
  2
SIMPLEX
 70
     0
 40
0.0
 41
1.0
 50
0.0
 71
     0
 42
3.5
  3
simplex
  4

  0
STYLE
  5
1AE
330
182
100
AcDbSymbolTableRecord
100
AcDbTextStyleTableRecord
  2
COMPLEX
 70
     0
 40
0.0
 41
1.0
 50
0.0
 71
     0
 42
3.5
  3
complex
  4

  0
STYLE
  5
1AF
330
182
100
AcDbSymbolTableRecord
100
AcDbTextStyleTableRecord
  2
ITALIC
 70
     0
 40
0.0
 41
1.0
 50
0.0
 71
     0
 42
3.5
  3
italic
  4

  0
ENDTAB
  0
TABLE
  2
VIEW
  5
185
330
0
100
AcDbSymbolTable
 70
     0
  0
ENDTAB
  0
TABLE
  2
UCS
  5
186
330
0
100
AcDbSymbolTable
 70
     0
  0
ENDTAB
  0
TABLE
  2
APPID
  5
188
330
0
100
AcDbSymbolTable
 70
     1
  0
APPID
  5
191
330
188
100
AcDbSymbolTableRecord
100
AcDbRegAppTableRecord
  2
ACAD
 70
     0
  0
ENDTAB
  0
TABLE
  2
DIMSTYLE
  5
189
330
0
100
AcDbSymbolTable
 70
     1
100
AcDbDimStyleTable
 71
     0
  0
DIMSTYLE
105
1B0
330
189
100
AcDbSymbolTableRecord
100
AcDbDimStyleTableRecord
  2
STANDARD
 70
     0
279
     2
340
190
  0
ENDTAB
  0
TABLE
  2
BLOCK_RECORD
  5
180
330
0
100
AcDbSymbolTable
 70
     2
  0
BLOCK_RECORD
  5
19F
330
180
100
AcDbSymbolTableRecord
100
AcDbBlockTableRecord
  2
*Model_Space
340
1A2
  0
BLOCK_RECORD
  5
19B
330
180
100
AcDbSymbolTableRecord
100
AcDbBlockTableRecord
  2
*Paper_Space
340
19E
  0
BLOCK_RECORD
  5
1B5
330
180
100
AcDbSymbolTableRecord
100
AcDbBlockTableRecord
  2
$MODEL_SPACE
340
0
  0
BLOCK_RECORD
  5
1B7
330
180
100
AcDbSymbolTableRecord
100
AcDbBlockTableRecord
  2
$PAPER_SPACE
340
0
  0
ENDTAB
  0
ENDSEC
  0
SECTION
  2
BLOCKS
  0
BLOCK
  5
1A0
330
19F
100
AcDbEntity
  8
0
100
AcDbBlockBegin
  2
*Model_Space
 70
     0
 10
0.0
 20
0.0
 30
0.0
  3
*Model_Space
  1

  0
ENDBLK
  5
1A1
330
19F
100
AcDbEntity
  8
0
100
AcDbBlockEnd
  0
BLOCK
  5
19C
330
19B
100
AcDbEntity
 67
     1
  8
0
100
AcDbBlockBegin
  2
*Paper_Space
 70
     0
 10
0.0
 20
0.0
 30
0.0
  3
*Paper_Space
  1

  0
ENDBLK
  5
19D
330
19B
100
AcDbEntity
 67
     1
  8
0
100
AcDbBlockEnd
  0
BLOCK
  5
1B6
330
1B5
100
AcDbEntity
  8
0
100
AcDbBlockBegin
  2
$MODEL_SPACE
 70
     0
 10
0.0
 20
0.0
 30
0.0
  3
$MODEL_SPACE
  1

  0
ENDBLK
  5
20
330
1B5
100
AcDbEntity
  8
0
100
AcDbBlockEnd
  0
BLOCK
  5
1B8
330
1B7
100
AcDbEntity
  8
0
100
AcDbBlockBegin
  2
$PAPER_SPACE
 70
     0
 10
0.0
 20
0.0
 30
0.0
  3
$PAPER_SPACE
  1

  0
ENDBLK
  5
1C
330
1B7
100
AcDbEntity
  8
0
100
AcDbBlockEnd
  0
ENDSEC
  0
SECTION
  2
ENTITIES
  0
LINE
  5
33
330
19F
100
AcDbEntity
  8
1
  6
DASHDOT
 62
     3
100
AcDbLine
 10
-17.51370684848938
 20
9.235099574505296
 30
0.0
 11
-12.51370684848938
 21
9.235099574505296
 31
0.0
  0
LINE
  5
34
330
19F
100
AcDbEntity
  8
1
  6
DASHDOT
 62
     3
100
AcDbLine
 10
-76.51370684848934
 20
9.235099574505296
 30
0.0
 11
-71.51370684848934
 21
9.235099574505296
 31
0.0
  0
LINE
  5
35
330
19F
100
AcDbEntity
  8
1
 62
     7
100
AcDbLine
 10
-69.51370684848939
 20
59.2350995745053
 30
0.0
 11
-69.51370684848939
 21
-24.76490042549469
 31
0.0
  0
LINE
  5
36
330
19F
100
AcDbEntity
  8
1
 62
     7
100
AcDbLine
 10
-59.51370684848938
 20
44.58509957450529
 30
0.0
 11
-59.51370684848938
 21
44.23509957450529
 31
0.0
  0
LINE
  5
37
330
19F
100
AcDbEntity
  8
1
 62
     7
100
AcDbLine
 10
-71.51370684848934
 20
59.23509957450531
 30
0.0
 11
-71.51370684848934
 21
-22.7649004254947
 31
0.0
  0
LINE
  5
38
330
19F
100
AcDbEntity
  8
1
 62
     7
100
AcDbLine
 10
-69.51370684848933
 20
-22.7649004254947
 30
0.0
 11
-71.51370684848934
 21
-22.7649004254947
 31
0.0
  0
LINE
  5
39
330
19F
100
AcDbEntity
  8
1
 62
     7
100
AcDbLine
 10
-71.51370684848934
 20
59.23509957450531
 30
0.0
 11
-69.51370684848939
 21
59.2350995745053
 31
0.0
  0
LINE
  5
3A
330
19F
100
AcDbEntity
  8
1
 62
     7
100
AcDbLine
 10
-69.51370684848938
 20
43.2350995745053
 30
0.0
 11
-68.51370684848939
 21
44.23509957450529
 31
0.0
  0
LINE
  5
3B
330
19F
100
AcDbEntity
  8
1
 62
     7
100
AcDbLine
 10
-68.51370684848939
 20
-25.76490042549469
 30
0.0
 11
-69.51370684848939
 21
-24.76490042549469
 31
0.0
  0
LINE
  5
3C
330
19F
100
AcDbEntity
  8
1
 62
     7
100
AcDbLine
 10
-68.51370684848939
 20
-25.76490042549469
 30
0.0
 11
-40.51370684848937
 21
-25.76490042549469
 31
0.0
  0
LINE
  5
3D
330
19F
100
AcDbEntity
  8
1
 62
     7
100
AcDbLine
 10
-59.51370684848938
 20
44.58509957450529
 30
0.0
 11
-64.51370684848939
 21
44.58509957450529
 31
0.0
  0
LINE
  5
3E
330
19F
100
AcDbEntity
  8
1
 62
     7
100
AcDbLine
 10
-64.51370684848939
 20
44.58509957450529
 30
0.0
 11
-64.51370684848939
 21
44.23509957450529
 31
0.0
  0
LINE
  5
3F
330
19F
100
AcDbEntity
  8
1
 62
     7
100
AcDbLine
 10
-61.09370684848943
 20
69.51673351132756
 30
0.0
 11
-61.09370684848943
 21
44.58509957450529
 31
0.0
  0
LINE
  5
40
330
19F
100
AcDbEntity
  8
1
 62
     7
100
AcDbLine
 10
-62.93370684848945
 20
69.51673351132756
 30
0.0
 11
-62.93370684848945
 21
44.58509957450529
 31
0.0
  0
LINE
  5
41
330
19F
100
AcDbEntity
  8
1
 62
     7
100
AcDbLine
 10
-68.51370684848939
 20
44.23509957450529
 30
0.0
 11
-40.51370684848937
 21
44.23509957450529
 31
0.0
  0
LINE
  5
42
330
19F
100
AcDbEntity
  8
1
 62
     7
100
AcDbLine
 10
-35.51370684848938
 20
-25.76490042549469
 30
0.0
 11
-35.51370684848938
 21
44.23509957450529
 31
0.0
  0
LINE
  5
43
330
19F
100
AcDbEntity
  8
1
 62
     7
100
AcDbLine
 10
-38.4259936082179
 20
-25.76490042549471
 30
0.0
 11
-38.4259936082179
 21
44.23509957450529
 31
0.0
  0
LINE
  5
44
330
19F
100
AcDbEntity
  8
1
 62
     7
100
AcDbLine
 10
-40.01370684848938
 20
-23.0149004254947
 30
0.0
 11
-40.01370684848938
 21
41.4850995745053
 31
0.0
  0
LINE
  5
45
330
19F
100
AcDbEntity
  8
1
 62
     7
100
AcDbLine
 10
-35.21370684848939
 20
-2.764900425494702
 30
0.0
 11
-35.51370684848938
 21
-2.764900425494702
 31
0.0
  0
LINE
  5
46
330
19F
100
AcDbEntity
  8
1
 62
     7
100
AcDbLine
 10
-35.51370684848938
 20
-25.76490042549469
 30
0.0
 11
-38.4259936082179
 21
-25.76490042549471
 31
0.0
  0
LINE
  5
47
330
19F
100
AcDbEntity
  8
1
 62
     7
100
AcDbLine
 10
-40.01370684848938
 20
-23.0149004254947
 30
0.0
 11
-40.51370684848937
 21
-23.0149004254947
 31
0.0
  0
LINE
  5
48
330
19F
100
AcDbEntity
  8
1
 62
     7
100
AcDbLine
 10
-38.4259936082179
 20
-25.76490042549471
 30
0.0
 11
-40.01370684848938
 21
-23.0149004254947
 31
0.0
  0
LINE
  5
49
330
19F
100
AcDbEntity
  8
1
 62
     7
100
AcDbLine
 10
-38.4259936082179
 20
44.23509957450529
 30
0.0
 11
-35.51370684848938
 21
44.23509957450529
 31
0.0
  0
LINE
  5
4A
330
19F
100
AcDbEntity
  8
1
 62
     7
100
AcDbLine
 10
-40.01370684848938
 20
41.4850995745053
 30
0.0
 11
-38.4259936082179
 21
44.23509957450529
 31
0.0
  0
LINE
  5
4B
330
19F
100
AcDbEntity
  8
1
 62
     7
100
AcDbLine
 10
-29.61370684848937
 20
-25.2649004254947
 30
0.0
 11
-30.21370684848939
 21
-25.2649004254947
 31
0.0
  0
LINE
  5
4C
330
19F
100
AcDbEntity
  8
1
 62
     7
100
AcDbLine
 10
-30.21370684848939
 20
43.73509957450528
 30
0.0
 11
-29.61370684848937
 21
43.73509957450528
 31
0.0
  0
LINE
  5
4D
330
19F
100
AcDbEntity
  8
1
 62
     7
100
AcDbLine
 10
-35.21370684848939
 20
44.3850995745053
 30
0.0
 11
-30.21370684848939
 21
44.3850995745053
 31
0.0
  0
LINE
  5
4E
330
19F
100
AcDbEntity
  8
1
 62
     7
100
AcDbLine
 10
-30.21370684848939
 20
44.3850995745053
 30
0.0
 11
-30.21370684848939
 21
-25.9149004254947
 31
0.0
  0
LINE
  5
4F
330
19F
100
AcDbEntity
  8
1
 62
     7
100
AcDbLine
 10
-30.21370684848939
 20
-25.9149004254947
 30
0.0
 11
-35.21370684848939
 21
-25.9149004254947
 31
0.0
  0
LINE
  5
50
330
19F
100
AcDbEntity
  8
1
 62
     7
100
AcDbLine
 10
-35.21370684848939
 20
-25.9149004254947
 30
0.0
 11
-35.21370684848939
 21
44.3850995745053
 31
0.0
  0
LINE
  5
51
330
19F
100
AcDbEntity
  8
1
 62
     7
100
AcDbLine
 10
-17.51370684848938
 20
36.23509957450529
 30
0.0
 11
-17.51370684848938
 21
-17.76490042549469
 31
0.0
  0
LINE
  5
52
330
19F
100
AcDbEntity
  8
1
 62
     7
100
AcDbLine
 10
-17.51370684848938
 20
36.23509957450529
 30
0.0
 11
-29.61370684848937
 21
36.23509957450529
 31
0.0
  0
LINE
  5
53
330
19F
100
AcDbEntity
  8
1
 62
     7
100
AcDbLine
 10
-17.51370684848938
 20
-17.76490042549469
 30
0.0
 11
-29.61370684848937
 21
-17.76490042549469
 31
0.0
  0
LINE
  5
54
330
19F
100
AcDbEntity
  8
1
 62
     7
100
AcDbLine
 10
-29.61370684848937
 20
-25.2649004254947
 30
0.0
 11
-29.61370684848937
 21
43.73509957450528
 31
0.0
  0
LINE
  5
55
330
19F
100
AcDbEntity
  8
1
 62
     7
100
AcDbLine
 10
-40.51370684848937
 20
-25.76490042549469
 30
0.0
 11
-40.51370684848937
 21
44.23509957450529
 31
0.0
  0
LINE
  5
56
330
19F
100
AcDbEntity
  8
1
  6
CENTER
 62
     3
100
AcDbLine
 10
209.6064016220558
 20
-3.764900425494694
 30
0.0
 11
214.8025540447626
 21
-0.7649004254946999
 31
0.0
  0
LINE
  5
57
330
19F
100
AcDbEntity
  8
1
  6
CENTER
 62
     3
100
AcDbLine
 10
232.1230621204513
 20
35.23509957450528
 30
0.0
 11
232.1230621204513
 21
29.23509957450527
 31
0.0
  0
LINE
  5
58
330
19F
100
AcDbEntity
  8
1
  6
DASHDOT
 62
     3
100
AcDbLine
 10
236.2932919720029
 20
9.235099574505296
 30
0.0
 11
227.9528322688996
 21
9.235099574505296
 31
0.0
  0
LINE
  5
59
330
19F
100
AcDbEntity
  8
1
  6
CENTER
 62
     3
100
AcDbLine
 10
232.1230621204513
 20
13.40532942605692
 30
0.0
 11
232.1230621204513
 21
5.06486972295367
 31
0.0
  0
LINE
  5
5A
330
19F
100
AcDbEntity
  8
1
  6
DASHDOT
 62
     3
100
AcDbLine
 10
60.73159571260318
 20
9.235099574505296
 30
0.0
 11
65.73159571260318
 21
9.235099574505296
 31
0.0
  0
LINE
  5
5B
330
19F
100
AcDbEntity
  8
1
 62
     7
100
AcDbLine
 10
77.73159571260312
 20
44.58509957450529
 30
0.0
 11
77.73159571260314
 21
44.23509957450529
 31
0.0
  0
LINE
  5
5C
330
19F
100
AcDbEntity
  8
1
 62
     7
100
AcDbLine
 10
234.6230621204512
 20
18.73509957450529
 30
0.0
 11
234.6230621204512
 21
16.30616738637076
 31
0.0
  0
LINE
  5
5D
330
19F
100
AcDbEntity
  8
1
 62
     7
100
AcDbLine
 10
229.6230621204514
 20
18.73509957450529
 30
0.0
 11
234.6230621204512
 21
18.73509957450529
 31
0.0
  0
LINE
  5
5E
330
19F
100
AcDbEntity
  8
1
 62
     7
100
AcDbLine
 10
229.6230621204514
 20
16.30616738637076
 30
0.0
 11
229.6230621204514
 21
18.73509957450529
 31
0.0
  0
LINE
  5
5F
330
19F
100
AcDbEntity
  8
1
 62
     7
100
AcDbLine
 10
243.6123267198233
 20
42.45436053807309
 30
0.0
 11
243.6742879709001
 21
42.68560307519281
 31
0.0
  0
LINE
  5
60
330
19F
100
AcDbEntity
  8
1
 62
     7
100
AcDbLine
 10
238.7826975883779
 20
43.74845576358569
 30
0.0
 11
238.8446588394549
 21
43.97969830070542
 31
0.0
  0
LINE
  5
61
330
19F
100
AcDbEntity
  8
1
 62
     7
100
AcDbLine
 10
238.8446588394549
 20
43.97969830070542
 30
0.0
 11
243.6742879709001
 21
42.68560307519281
 31
0.0
  0
LINE
  5
62
330
19F
100
AcDbEntity
  8
1
 62
     7
100
AcDbLine
 10
246.0638364923381
 20
68.37199190872801
 30
0.0
 11
239.4821698848056
 21
43.80887773093773
 31
0.0
  0
LINE
  5
63
330
19F
100
AcDbEntity
  8
1
 62
     7
100
AcDbLine
 10
247.8411400127099
 20
67.89576486573938
 30
0.0
 11
241.2594734051776
 21
43.33265068794911
 31
0.0
  0
LINE
  5
64
330
19F
100
AcDbEntity
  8
1
 62
     7
100
AcDbLine
 10
249.6184435330818
 20
67.41953782275072
 30
0.0
 11
243.0367769255495
 21
42.85642364496047
 31
0.0
  0
LINE
  5
65
330
19F
100
AcDbEntity
  8
1
 62
     7
100
AcDbLine
 10
229.5230621204513
 20
53.73509957450531
 30
0.0
 11
229.5230621204513
 21
47.73509957450531
 31
0.0
  0
LINE
  5
66
330
19F
100
AcDbEntity
  8
1
 62
     7
100
AcDbLine
 10
234.7230621204513
 20
53.73509957450531
 30
0.0
 11
234.7230621204513
 21
47.73509957450531
 31
0.0
  0
LINE
  5
67
330
19F
100
AcDbEntity
  8
1
 62
     7
100
AcDbLine
 10
238.1230621204514
 20
58.23509957450531
 30
0.0
 11
238.1230621204514
 21
43.86922292128572
 31
0.0
  0
LINE
  5
68
330
19F
100
AcDbEntity
  8
1
 62
     7
100
AcDbLine
 10
237.1230621204513
 20
59.23509957450531
 30
0.0
 11
227.1230621204513
 21
59.23509957450531
 31
0.0
  0
LINE
  5
69
330
19F
100
AcDbEntity
  8
1
 62
     7
100
AcDbLine
 10
226.1230621204513
 20
58.23509957450531
 30
0.0
 11
226.1230621204513
 21
43.86922292128572
 31
0.0
  0
LINE
  5
6A
330
19F
100
AcDbEntity
  8
1
  6
CENTER
 62
     3
100
AcDbLine
 10
254.6397226188466
 20
-3.764900425494718
 30
0.0
 11
249.44357019614
 21
-0.7649004254947159
 31
0.0
  0
LINE
  5
6B
330
19F
100
AcDbEntity
  8
1
 62
     7
100
AcDbLine
 10
85.73159571260314
 20
26.0850995745053
 30
0.0
 11
85.73159571260314
 21
16.73509957450529
 31
0.0
  0
LINE
  5
6C
330
19F
100
AcDbEntity
  8
1
 62
     7
100
AcDbLine
 10
76.73159571260315
 20
24.21509957450529
 30
0.0
 11
76.73159571260315
 21
17.75509957450528
 31
0.0
  0
LINE
  5
6D
330
19F
100
AcDbEntity
  8
1
 62
     7
100
AcDbLine
 10
67.73159571260316
 20
25.2350995745053
 30
0.0
 11
85.58159571260317
 21
25.2350995745053
 31
0.0
  0
LINE
  5
6E
330
19F
100
AcDbEntity
  8
1
 62
     7
100
AcDbLine
 10
85.58159571260317
 20
24.74754675498425
 30
0.0
 11
85.58159571260317
 21
26.0850995745053
 31
0.0
  0
LINE
  5
6F
330
19F
100
AcDbEntity
  8
1
 62
     7
100
AcDbLine
 10
85.73159571260314
 20
26.0850995745053
 30
0.0
 11
86.93159571260315
 21
26.0850995745053
 31
0.0
  0
LINE
  5
70
330
19F
100
AcDbEntity
  8
1
 62
     7
100
AcDbLine
 10
82.50659571260314
 20
18.77673479485498
 30
0.0
 11
85.73159571260314
 21
18.776734794855
 31
0.0
  0
LINE
  5
71
330
19F
100
AcDbEntity
  8
1
 62
     7
100
AcDbLine
 10
79.95659571260318
 20
23.19346435415561
 30
0.0
 11
73.52085787448352
 21
23.1934643541556
 31
0.0
  0
LINE
  5
72
330
19F
100
AcDbEntity
  8
1
 62
     7
100
AcDbLine
 10
82.50659571260314
 20
23.19346435415561
 30
0.0
 11
85.73159571260314
 21
23.1934643541556
 31
0.0
  0
LINE
  5
73
330
19F
100
AcDbEntity
  8
1
 62
     7
100
AcDbLine
 10
77.75159571260316
 20
16.73509957450529
 30
0.0
 11
84.71159571260313
 21
16.73509957450529
 31
0.0
  0
LINE
  5
74
330
19F
100
AcDbEntity
  8
1
 62
     7
100
AcDbLine
 10
73.50659571260314
 20
18.77673479485498
 30
0.0
 11
79.95659571260318
 21
18.77673479485498
 31
0.0
  0
LINE
  5
75
330
19F
100
AcDbEntity
  8
1
 62
     7
100
AcDbLine
 10
70.95659571260316
 20
18.77673479485498
 30
0.0
 11
67.73159571260316
 21
18.776734794855
 31
0.0
  0
LINE
  5
76
330
19F
100
AcDbEntity
  8
1
 62
     7
100
AcDbLine
 10
70.95659571260316
 20
23.19346435415561
 30
0.0
 11
67.73159571260316
 21
23.1934643541556
 31
0.0
  0
LINE
  5
77
330
19F
100
AcDbEntity
  8
1
 62
     7
100
AcDbLine
 10
68.75159571260316
 20
16.73509957450529
 30
0.0
 11
75.71159571260314
 21
16.73509957450529
 31
0.0
  0
LINE
  5
78
330
19F
100
AcDbEntity
  8
1
 62
     7
100
AcDbLine
 10
85.73159571260314
 20
22.93509957450527
 30
0.0
 11
86.93159571260315
 21
22.93509957450527
 31
0.0
  0
LINE
  5
79
330
19F
100
AcDbEntity
  8
1
 62
     7
100
AcDbLine
 10
65.73159571260318
 20
59.23509957450531
 30
0.0
 11
65.73159571260318
 21
23.2350995745053
 31
0.0
  0
LINE
  5
7A
330
19F
100
AcDbEntity
  8
1
 62
     7
100
AcDbLine
 10
65.73159571260318
 20
45.13509957450531
 30
0.0
 11
67.73159571260318
 21
45.13509957450531
 31
0.0
  0
LINE
  5
7B
330
19F
100
AcDbEntity
  8
1
 62
     7
100
AcDbLine
 10
65.73159571260318
 20
56.3350995745053
 30
0.0
 11
67.73159571260318
 21
56.3350995745053
 31
0.0
  0
LINE
  5
7C
330
19F
100
AcDbEntity
  8
1
 62
     7
100
AcDbLine
 10
65.73159571260318
 20
23.2350995745053
 30
0.0
 11
67.73159571260318
 21
23.2350995745053
 31
0.0
  0
LINE
  5
7D
330
19F
100
AcDbEntity
  8
1
 62
     7
100
AcDbLine
 10
67.73159571260318
 20
-22.7649004254947
 30
0.0
 11
65.73159571260318
 21
-22.7649004254947
 31
0.0
  0
LINE
  5
7E
330
19F
100
AcDbEntity
  8
1
 62
     7
100
AcDbLine
 10
65.73159571260318
 20
59.23509957450531
 30
0.0
 11
67.73159571260314
 21
59.2350995745053
 31
0.0
  0
LINE
  5
7F
330
19F
100
AcDbEntity
  8
1
 62
     7
100
AcDbLine
 10
92.73159571260315
 20
42.53509957450528
 30
0.0
 11
96.73159571260315
 21
42.53509957450528
 31
0.0
  0
LINE
  5
80
330
19F
100
AcDbEntity
  8
1
 62
     7
100
AcDbLine
 10
67.73159571260314
 20
43.2350995745053
 30
0.0
 11
68.73159571260313
 21
44.23509957450529
 31
0.0
  0
LINE
  5
81
330
19F
100
AcDbEntity
  8
1
 62
     7
100
AcDbLine
 10
85.58159571260317
 20
26.0850995745053
 30
0.0
 11
85.73159571260314
 21
26.0850995745053
 31
0.0
  0
LINE
  5
82
330
19F
100
AcDbEntity
  8
1
 62
     7
100
AcDbLine
 10
86.93159571260315
 20
25.2350995745053
 30
0.0
 11
92.73159571260315
 21
25.2350995745053
 31
0.0
  0
LINE
  5
83
330
19F
100
AcDbEntity
  8
1
 62
     7
100
AcDbLine
 10
86.93159571260315
 20
26.0850995745053
 30
0.0
 11
86.93159571260315
 21
20.2350995745053
 31
0.0
  0
LINE
  5
84
330
19F
100
AcDbEntity
  8
1
 62
     7
100
AcDbLine
 10
92.73159571260315
 20
42.53509957450528
 30
0.0
 11
92.73159571260315
 21
24.68509957450529
 31
0.0
  0
LINE
  5
85
330
19F
100
AcDbEntity
  8
1
 62
     7
100
AcDbLine
 10
96.73159571260315
 20
44.23509957450529
 30
0.0
 11
96.73159571260315
 21
41.4850995745053
 31
0.0
  0
LINE
  5
86
330
19F
100
AcDbEntity
  8
1
 62
     3
100
AcDbLine
 10
75.62159571260311
 20
72.47753865596533
 30
0.0
 11
75.62159571260311
 21
69.51673351132756
 31
0.0
  0
LINE
  5
87
330
19F
100
AcDbEntity
  8
1
 62
     3
100
AcDbLine
 10
74.84159571260301
 20
69.51673351132756
 30
0.0
 11
74.84159571260301
 21
72.47753865596533
 31
0.0
  0
LINE
  5
88
330
19F
100
AcDbEntity
  8
1
 62
     7
100
AcDbLine
 10
72.73159571260312
 20
44.58509957450529
 30
0.0
 11
77.73159571260312
 21
44.58509957450529
 31
0.0
  0
LINE
  5
89
330
19F
100
AcDbEntity
  8
1
 62
     7
100
AcDbLine
 10
72.73159571260312
 20
44.58509957450529
 30
0.0
 11
72.73159571260314
 21
44.23509957450529
 31
0.0
  0
LINE
  5
8A
330
19F
100
AcDbEntity
  8
1
 62
     7
100
AcDbLine
 10
74.31159571260306
 20
69.51673351132756
 30
0.0
 11
76.15159571260306
 21
69.51673351132756
 31
0.0
  0
LINE
  5
8B
330
19F
100
AcDbEntity
  8
1
 62
     7
100
AcDbLine
 10
76.15159571260306
 20
69.51673351132756
 30
0.0
 11
76.15159571260306
 21
44.58509957450529
 31
0.0
  0
LINE
  5
8C
330
19F
100
AcDbEntity
  8
1
 62
     7
100
AcDbLine
 10
74.31159571260306
 20
69.51673351132756
 30
0.0
 11
74.31159571260306
 21
44.58509957450529
 31
0.0
  0
LINE
  5
8D
330
19F
100
AcDbEntity
  8
1
 62
     7
100
AcDbLine
 10
68.73159571260313
 20
44.23509957450529
 30
0.0
 11
96.73159571260315
 21
44.23509957450529
 31
0.0
  0
LINE
  5
8E
330
19F
100
AcDbEntity
  8
1
 62
     7
100
AcDbLine
 10
115.731595712603
 20
21.23509957450529
 30
0.0
 11
101.231595712603
 21
21.23509957450529
 31
0.0
  0
LINE
  5
8F
330
19F
100
AcDbEntity
  8
1
 62
     7
100
AcDbLine
 10
101.7315957126031
 20
21.23509957450529
 30
0.0
 11
101.7315957126031
 21
44.23509957450529
 31
0.0
  0
LINE
  5
90
330
19F
100
AcDbEntity
  8
1
 62
     7
100
AcDbLine
 10
101.7315957126031
 20
30.98509957450529
 30
0.0
 11
100.7315957126031
 21
29.9850995745053
 31
0.0
  0
LINE
  5
91
330
19F
100
AcDbEntity
  8
1
 62
     7
100
AcDbLine
 10
85.73159571260314
 20
18.73509957450529
 30
0.0
 11
116.731595712603
 21
18.73509957450529
 31
0.0
  0
LINE
  5
92
330
19F
100
AcDbEntity
  8
1
 62
     7
100
AcDbLine
 10
85.73159571260314
 20
16.73509957450529
 30
0.0
 11
116.731595712603
 21
16.73509957450529
 31
0.0
  0
LINE
  5
93
330
19F
100
AcDbEntity
  8
1
 62
     7
100
AcDbLine
 10
98.81930895287462
 20
44.23509957450529
 30
0.0
 11
101.7315957126031
 21
44.23509957450529
 31
0.0
  0
LINE
  5
94
330
19F
100
AcDbEntity
  8
1
 62
     7
100
AcDbLine
 10
97.23159571260316
 20
41.4850995745053
 30
0.0
 11
98.81930895287462
 21
44.23509957450529
 31
0.0
  0
LINE
  5
95
330
19F
100
AcDbEntity
  8
1
 62
     7
100
AcDbLine
 10
93.73159571260314
 20
41.4850995745053
 30
0.0
 11
97.23159571260316
 21
41.4850995745053
 31
0.0
  0
LINE
  5
96
330
19F
100
AcDbEntity
  8
1
 62
     7
100
AcDbLine
 10
87.73159571260315
 20
20.2350995745053
 30
0.0
 11
85.73159571260314
 21
20.2350995745053
 31
0.0
  0
LINE
  5
97
330
19F
100
AcDbEntity
  8
1
 62
     7
100
AcDbLine
 10
87.73159571260315
 20
24.6850995745053
 30
0.0
 11
87.73159571260315
 21
20.2350995745053
 31
0.0
  0
LINE
  5
98
330
19F
100
AcDbEntity
  8
1
 62
     7
100
AcDbLine
 10
93.73159571260314
 20
24.6850995745053
 30
0.0
 11
87.73159571260315
 21
24.6850995745053
 31
0.0
  0
LINE
  5
99
330
19F
100
AcDbEntity
  8
1
 62
     7
100
AcDbLine
 10
93.73159571260314
 20
41.4850995745053
 30
0.0
 11
93.73159571260314
 21
24.6850995745053
 31
0.0
  0
LINE
  5
9A
330
19F
100
AcDbEntity
  8
1
 62
     7
100
AcDbLine
 10
100.7315957126031
 20
29.9850995745053
 30
0.0
 11
100.7315957126031
 21
21.7350995745053
 31
0.0
  0
LINE
  5
9B
330
19F
100
AcDbEntity
  8
1
 62
     7
100
AcDbLine
 10
115.731595712603
 20
21.23509957450529
 30
0.0
 11
116.7315957126032
 21
20.23509957450523
 31
0.0
  0
LINE
  5
9C
330
19F
100
AcDbEntity
  8
1
 62
     7
100
AcDbLine
 10
85.58159571260317
 20
-6.764900425494697
 30
0.0
 11
67.73159571260316
 21
-6.764900425494697
 31
0.0
  0
LINE
  5
9D
330
19F
100
AcDbEntity
  8
1
 62
     7
100
AcDbLine
 10
85.58159571260317
 20
-7.614900425494697
 30
0.0
 11
85.58159571260317
 21
-6.277347605973658
 31
0.0
  0
LINE
  5
9E
330
19F
100
AcDbEntity
  8
1
 62
     7
100
AcDbLine
 10
86.93159571260315
 20
-7.614900425494697
 30
0.0
 11
85.73159571260314
 21
-7.614900425494697
 31
0.0
  0
LINE
  5
9F
330
19F
100
AcDbEntity
  8
1
 62
     7
100
AcDbLine
 10
85.73159571260314
 20
-0.3065356458443986
 30
0.0
 11
82.50659571260314
 21
-0.3065356458443809
 31
0.0
  0
LINE
  5
A0
330
19F
100
AcDbEntity
  8
1
 62
     7
100
AcDbLine
 10
73.52085787448352
 20
-4.723265205145001
 30
0.0
 11
79.95659571260318
 21
-4.723265205145017
 31
0.0
  0
LINE
  5
A1
330
19F
100
AcDbEntity
  8
1
 62
     7
100
AcDbLine
 10
85.73159571260314
 20
-4.723265205145001
 30
0.0
 11
82.50659571260314
 21
-4.723265205145017
 31
0.0
  0
LINE
  5
A2
330
19F
100
AcDbEntity
  8
1
 62
     7
100
AcDbLine
 10
84.71159571260313
 20
1.735099574505301
 30
0.0
 11
77.75159571260316
 21
1.735099574505301
 31
0.0
  0
LINE
  5
A3
330
19F
100
AcDbEntity
  8
1
 62
     7
100
AcDbLine
 10
79.95659571260318
 20
-0.3065356458443809
 30
0.0
 11
73.50659571260314
 21
-0.3065356458443809
 31
0.0
  0
LINE
  5
A4
330
19F
100
AcDbEntity
  8
1
 62
     7
100
AcDbLine
 10
67.73159571260316
 20
-0.3065356458443986
 30
0.0
 11
70.95659571260316
 21
-0.3065356458443809
 31
0.0
  0
LINE
  5
A5
330
19F
100
AcDbEntity
  8
1
 62
     7
100
AcDbLine
 10
67.73159571260316
 20
-4.723265205145001
 30
0.0
 11
70.95659571260316
 21
-4.723265205145017
 31
0.0
  0
LINE
  5
A6
330
19F
100
AcDbEntity
  8
1
 62
     7
100
AcDbLine
 10
75.71159571260314
 20
1.735099574505301
 30
0.0
 11
68.75159571260316
 21
1.735099574505301
 31
0.0
  0
LINE
  5
A7
330
19F
100
AcDbEntity
  8
1
 62
     7
100
AcDbLine
 10
86.93159571260315
 20
-4.464900425494668
 30
0.0
 11
85.73159571260314
 21
-4.464900425494668
 31
0.0
  0
LINE
  5
A8
330
19F
100
AcDbEntity
  8
1
 62
     7
100
AcDbLine
 10
67.73159571260318
 20
-4.764900425494707
 30
0.0
 11
65.73159571260318
 21
-4.764900425494707
 31
0.0
  0
LINE
  5
A9
330
19F
100
AcDbEntity
  8
1
 62
     7
100
AcDbLine
 10
96.73159571260315
 20
-24.06490042549469
 30
0.0
 11
92.73159571260315
 21
-24.06490042549469
 31
0.0
  0
LINE
  5
AA
330
19F
100
AcDbEntity
  8
1
 62
     7
100
AcDbLine
 10
68.73159571260313
 20
-25.76490042549469
 30
0.0
 11
67.73159571260314
 21
-24.76490042549469
 31
0.0
  0
LINE
  5
AB
330
19F
100
AcDbEntity
  8
1
 62
     7
100
AcDbLine
 10
85.73159571260314
 20
-7.614900425494697
 30
0.0
 11
85.58159571260317
 21
-7.614900425494697
 31
0.0
  0
LINE
  5
AC
330
19F
100
AcDbEntity
  8
1
 62
     7
100
AcDbLine
 10
92.73159571260315
 20
-6.764900425494697
 30
0.0
 11
86.93159571260315
 21
-6.764900425494697
 31
0.0
  0
LINE
  5
AD
330
19F
100
AcDbEntity
  8
1
 62
     7
100
AcDbLine
 10
86.93159571260315
 20
-1.764900425494698
 30
0.0
 11
86.93159571260315
 21
-7.614900425494697
 31
0.0
  0
LINE
  5
AE
330
19F
100
AcDbEntity
  8
1
 62
     7
100
AcDbLine
 10
92.73159571260315
 20
-6.214900425494696
 30
0.0
 11
92.73159571260315
 21
-24.06490042549469
 31
0.0
  0
LINE
  5
AF
330
19F
100
AcDbEntity
  8
1
 62
     7
100
AcDbLine
 10
96.73159571260315
 20
-23.01490042549469
 30
0.0
 11
96.73159571260315
 21
-25.76490042549469
 31
0.0
  0
LINE
  5
B0
330
19F
100
AcDbEntity
  8
1
 62
     7
100
AcDbLine
 10
68.73159571260313
 20
-25.76490042549469
 30
0.0
 11
96.73159571260315
 21
-25.76490042549469
 31
0.0
  0
LINE
  5
B1
330
19F
100
AcDbEntity
  8
1
 62
     7
100
AcDbLine
 10
101.231595712603
 20
-2.764900425494698
 30
0.0
 11
115.731595712603
 21
-2.764900425494698
 31
0.0
  0
LINE
  5
B2
330
19F
100
AcDbEntity
  8
1
 62
     7
100
AcDbLine
 10
101.7315957126031
 20
-25.76490042549469
 30
0.0
 11
101.7315957126031
 21
-2.764900425494698
 31
0.0
  0
LINE
  5
B3
330
19F
100
AcDbEntity
  8
1
 62
     7
100
AcDbLine
 10
100.7315957126031
 20
-11.5149004254947
 30
0.0
 11
101.7315957126031
 21
-12.5149004254947
 31
0.0
  0
LINE
  5
B4
330
19F
100
AcDbEntity
  8
1
 62
     7
100
AcDbLine
 10
101.7315957126031
 20
-25.76490042549469
 30
0.0
 11
98.81930895287462
 21
-25.76490042549469
 31
0.0
  0
LINE
  5
B5
330
19F
100
AcDbEntity
  8
1
 62
     7
100
AcDbLine
 10
98.81930895287462
 20
-25.76490042549469
 30
0.0
 11
97.23159571260316
 21
-23.01490042549469
 31
0.0
  0
LINE
  5
B6
330
19F
100
AcDbEntity
  8
1
 62
     7
100
AcDbLine
 10
97.23159571260316
 20
-23.01490042549469
 30
0.0
 11
93.73159571260314
 21
-23.01490042549469
 31
0.0
  0
LINE
  5
B7
330
19F
100
AcDbEntity
  8
1
 62
     7
100
AcDbLine
 10
85.73159571260314
 20
-1.764900425494698
 30
0.0
 11
87.73159571260315
 21
-1.764900425494698
 31
0.0
  0
LINE
  5
B8
330
19F
100
AcDbEntity
  8
1
 62
     7
100
AcDbLine
 10
87.73159571260315
 20
-1.764900425494698
 30
0.0
 11
87.73159571260315
 21
-6.214900425494696
 31
0.0
  0
LINE
  5
B9
330
19F
100
AcDbEntity
  8
1
 62
     7
100
AcDbLine
 10
87.73159571260315
 20
-6.214900425494696
 30
0.0
 11
93.73159571260314
 21
-6.214900425494696
 31
0.0
  0
LINE
  5
BA
330
19F
100
AcDbEntity
  8
1
 62
     7
100
AcDbLine
 10
93.73159571260314
 20
-6.214900425494696
 30
0.0
 11
93.73159571260314
 21
-23.01490042549469
 31
0.0
  0
LINE
  5
BB
330
19F
100
AcDbEntity
  8
1
 62
     7
100
AcDbLine
 10
100.7315957126031
 20
-3.264900425494698
 30
0.0
 11
100.7315957126031
 21
-11.5149004254947
 31
0.0
  0
LINE
  5
BC
330
19F
100
AcDbEntity
  8
1
 62
     7
100
AcDbLine
 10
116.7315957126032
 20
-1.764900425494627
 30
0.0
 11
115.731595712603
 21
-2.764900425494698
 31
0.0
  0
LINE
  5
BD
330
19F
100
AcDbEntity
  8
1
 62
     7
100
AcDbLine
 10
67.73159571260314
 20
-24.76490042549469
 30
0.0
 11
67.73159571260316
 21
0.7150995745053095
 31
0.0
  0
LINE
  5
BE
330
19F
100
AcDbEntity
  8
1
 62
     7
100
AcDbLine
 10
85.73159571260314
 20
1.735099574505293
 30
0.0
 11
116.7315957126032
 21
1.735099574505293
 31
0.0
  0
LINE
  5
BF
330
19F
100
AcDbEntity
  8
1
  6
DASHDOT
 62
     3
100
AcDbLine
 10
119.7315957126032
 20
9.235099574505296
 30
0.0
 11
124.7315957126031
 21
9.235099574505296
 31
0.0
  0
LINE
  5
C0
330
19F
100
AcDbEntity
  8
1
 62
     7
100
AcDbLine
 10
107.6315957126033
 20
-2.764900425494702
 30
0.0
 11
107.6315957126033
 21
-5.264900425494657
 31
0.0
  0
LINE
  5
C1
330
19F
100
AcDbEntity
  8
1
 62
     7
100
AcDbLine
 10
107.0315957126031
 20
-2.764900425494702
 30
0.0
 11
107.0315957126031
 21
-25.91490042549469
 31
0.0
  0
LINE
  5
C2
330
19F
100
AcDbEntity
  8
1
 62
     7
100
AcDbLine
 10
102.031595712603
 20
21.23509957450529
 30
0.0
 11
102.031595712603
 21
44.38509957450532
 31
0.0
  0
LINE
  5
C3
330
19F
100
AcDbEntity
  8
1
 62
     7
100
AcDbLine
 10
103.3315957126031
 20
-10.76490042549466
 30
0.0
 11
103.3315957126031
 21
-3.764900425494657
 31
0.0
  0
LINE
  5
C4
330
19F
100
AcDbEntity
  8
1
 62
     7
100
AcDbLine
 10
103.3315957126031
 20
-3.764900425494657
 30
0.0
 11
107.0315957126031
 21
-3.764900425494657
 31
0.0
  0
LINE
  5
C5
330
19F
100
AcDbEntity
  8
1
 62
     7
100
AcDbLine
 10
103.031595712603
 20
-4.28451566776539
 30
0.0
 11
103.3315957126031
 21
-3.764900425494657
 31
0.0
  0
LINE
  5
C6
330
19F
100
AcDbEntity
  8
1
 62
     7
100
AcDbLine
 10
103.031595712603
 20
-10.24528518322409
 30
0.0
 11
103.031595712603
 21
-4.28451566776539
 31
0.0
  0
LINE
  5
C7
330
19F
100
AcDbEntity
  8
1
 62
     7
100
AcDbLine
 10
103.3315957126031
 20
-10.76490042549466
 30
0.0
 11
103.031595712603
 21
-10.24528518322409
 31
0.0
  0
LINE
  5
C8
330
19F
100
AcDbEntity
  8
1
 62
     7
100
AcDbLine
 10
107.0315957126031
 20
-10.76490042549466
 30
0.0
 11
103.3315957126031
 21
-10.76490042549466
 31
0.0
  0
LINE
  5
C9
330
19F
100
AcDbEntity
  8
1
 62
     7
100
AcDbLine
 10
107.6315957126033
 20
-9.264900425494658
 30
0.0
 11
107.6315957126033
 21
-25.26490042549466
 31
0.0
  0
LINE
  5
CA
330
19F
100
AcDbEntity
  8
1
 62
     7
100
AcDbLine
 10
111.8315957126032
 20
-5.664900425494692
 30
0.0
 11
114.7315957126032
 21
-5.664900425494692
 31
0.0
  0
LINE
  5
CB
330
19F
100
AcDbEntity
  8
1
 62
     3
100
AcDbLine
 10
111.4315957126032
 20
-9.264900425494658
 30
0.0
 11
113.1315957126032
 21
-9.264900425494658
 31
0.0
  0
LINE
  5
CC
330
19F
100
AcDbEntity
  8
1
 62
     3
100
AcDbLine
 10
111.4315957126032
 20
-5.264900425494657
 30
0.0
 11
113.1315957126032
 21
-5.264900425494657
 31
0.0
  0
LINE
  5
CD
330
19F
100
AcDbEntity
  8
1
 62
     7
100
AcDbLine
 10
111.4315957126032
 20
-9.264900425494658
 30
0.0
 11
107.0315957126031
 21
-9.264900425494658
 31
0.0
  0
LINE
  5
CE
330
19F
100
AcDbEntity
  8
1
 62
     7
100
AcDbLine
 10
115.6553561433065
 20
-7.264900425494657
 30
0.0
 11
114.7315957126032
 21
-8.864900425494795
 31
0.0
  0
LINE
  5
CF
330
19F
100
AcDbEntity
  8
1
 62
     7
100
AcDbLine
 10
114.7315957126032
 20
-5.664900425494692
 30
0.0
 11
115.6553561433065
 21
-7.264900425494657
 31
0.0
  0
LINE
  5
D0
330
19F
100
AcDbEntity
  8
1
 62
     7
100
AcDbLine
 10
111.8315957126032
 20
-8.864900425494795
 30
0.0
 11
114.7315957126032
 21
-8.864900425494795
 31
0.0
  0
LINE
  5
D1
330
19F
100
AcDbEntity
  8
1
 62
     7
100
AcDbLine
 10
114.7315957126032
 20
-5.664900425494692
 30
0.0
 11
114.7315957126032
 21
-8.864900425494795
 31
0.0
  0
LINE
  5
D2
330
19F
100
AcDbEntity
  8
1
 62
     3
100
AcDbLine
 10
113.8244160356307
 20
-8.864900425494795
 30
0.0
 11
113.1315957126032
 21
-9.264900425494658
 31
0.0
  0
LINE
  5
D3
330
19F
100
AcDbEntity
  8
1
 62
     7
100
AcDbLine
 10
113.1315957126032
 20
-5.264900425494657
 30
0.0
 11
113.1315957126032
 21
-9.264900425494658
 31
0.0
  0
LINE
  5
D4
330
19F
100
AcDbEntity
  8
1
 62
     3
100
AcDbLine
 10
113.1315957126032
 20
-5.264900425494657
 30
0.0
 11
113.8244160356307
 21
-5.664900425494692
 31
0.0
  0
LINE
  5
D5
330
19F
100
AcDbEntity
  8
1
 62
     7
100
AcDbLine
 10
111.4315957126032
 20
-5.264900425494657
 30
0.0
 11
107.0315957126031
 21
-5.264900425494657
 31
0.0
  0
LINE
  5
D6
330
19F
100
AcDbEntity
  8
1
 62
     3
100
AcDbLine
 10
108.5708261971445
 20
-8.664900425494693
 30
0.0
 11
107.531595712603
 21
-9.264900425494658
 31
0.0
  0
LINE
  5
D7
330
19F
100
AcDbEntity
  8
1
 62
     3
100
AcDbLine
 10
112.0315957126031
 20
-8.664900425494693
 30
0.0
 11
108.5708261971445
 21
-8.664900425494693
 31
0.0
  0
LINE
  5
D8
330
19F
100
AcDbEntity
  8
1
 62
     3
100
AcDbLine
 10
108.5708261971445
 20
-5.864900425494793
 30
0.0
 11
107.531595712603
 21
-5.264900425494657
 31
0.0
  0
LINE
  5
D9
330
19F
100
AcDbEntity
  8
1
 62
     3
100
AcDbLine
 10
112.0315957126031
 20
-5.864900425494793
 30
0.0
 11
108.5708261971445
 21
-5.864900425494793
 31
0.0
  0
LINE
  5
DA
330
19F
100
AcDbEntity
  8
1
 62
     7
100
AcDbLine
 10
108.5708261971445
 20
-5.264900425494657
 30
0.0
 11
108.5708261971445
 21
-9.264900425494658
 31
0.0
  0
LINE
  5
DB
330
19F
100
AcDbEntity
  8
1
 62
     7
100
AcDbLine
 10
111.4315957126032
 20
-5.264900425494657
 30
0.0
 11
111.4315957126032
 21
-9.264900425494658
 31
0.0
  0
LINE
  5
DC
330
19F
100
AcDbEntity
  8
1
 62
     7
100
AcDbLine
 10
112.0315957126031
 20
-8.664900425494693
 30
0.0
 11
111.4315957126032
 21
-9.264900425494658
 31
0.0
  0
LINE
  5
DD
330
19F
100
AcDbEntity
  8
1
 62
     7
100
AcDbLine
 10
112.0315957126031
 20
-5.864900425494793
 30
0.0
 11
112.0315957126031
 21
-8.664900425494693
 31
0.0
  0
LINE
  5
DE
330
19F
100
AcDbEntity
  8
1
 62
     7
100
AcDbLine
 10
111.4315957126032
 20
-5.264900425494657
 30
0.0
 11
112.0315957126031
 21
-5.864900425494793
 31
0.0
  0
LINE
  5
DF
330
19F
100
AcDbEntity
  8
1
 62
     7
100
AcDbLine
 10
116.7315957126032
 20
25.23509957450531
 30
0.0
 11
116.731595712603
 21
16.73509957450529
 31
0.0
  0
LINE
  5
E0
330
19F
100
AcDbEntity
  8
1
 62
     7
100
AcDbLine
 10
119.7315957126032
 20
25.23509957450531
 30
0.0
 11
116.7315957126032
 21
25.23509957450531
 31
0.0
  0
LINE
  5
E1
330
19F
100
AcDbEntity
  8
1
 62
     7
100
AcDbLine
 10
107.6315957126033
 20
-3.764900425494657
 30
0.0
 11
116.7315957126032
 21
-3.764900425494657
 31
0.0
  0
LINE
  5
E2
330
19F
100
AcDbEntity
  8
1
 62
     7
100
AcDbLine
 10
107.6315957126033
 20
22.23509957450529
 30
0.0
 11
116.7315957126032
 21
22.23509957450529
 31
0.0
  0
LINE
  5
E3
330
19F
100
AcDbEntity
  8
1
 62
     7
100
AcDbLine
 10
119.7315957126032
 20
-17.76490042549466
 30
0.0
 11
107.6315957126033
 21
-17.76490042549466
 31
0.0
  0
LINE
  5
E4
330
19F
100
AcDbEntity
  8
1
 62
     7
100
AcDbLine
 10
119.7315957126032
 20
36.23509957450532
 30
0.0
 11
107.6315957126033
 21
36.23509957450532
 31
0.0
  0
LINE
  5
E5
330
19F
100
AcDbEntity
  8
1
 62
     7
100
AcDbLine
 10
119.7315957126032
 20
36.23509957450532
 30
0.0
 11
119.7315957126032
 21
25.23509957450531
 31
0.0
  0
LINE
  5
E6
330
19F
100
AcDbEntity
  8
1
 62
     7
100
AcDbLine
 10
116.7315957126032
 20
-6.764900425494657
 30
0.0
 11
119.7315957126032
 21
-6.764900425494657
 31
0.0
  0
LINE
  5
E7
330
19F
100
AcDbEntity
  8
1
 62
     3
100
AcDbLine
 10
107.6315957126033
 20
30.7350995745053
 30
0.0
 11
119.7315957126032
 21
30.7350995745053
 31
0.0
  0
LINE
  5
E8
330
19F
100
AcDbEntity
  8
1
 62
     3
100
AcDbLine
 10
107.6315957126033
 20
33.73509957450532
 30
0.0
 11
119.7315957126032
 21
33.73509957450532
 31
0.0
  0
LINE
  5
E9
330
19F
100
AcDbEntity
  8
1
  6
CENTER
 62
     3
100
AcDbLine
 10
105.441595712603
 20
32.23509957450531
 30
0.0
 11
121.9215957126032
 21
32.23509957450531
 31
0.0
  0
LINE
  5
EA
330
19F
100
AcDbEntity
  8
1
 62
     7
100
AcDbLine
 10
107.6315957126033
 20
31.03509957450532
 30
0.0
 11
119.7315957126032
 21
31.03509957450532
 31
0.0
  0
LINE
  5
EB
330
19F
100
AcDbEntity
  8
1
 62
     7
100
AcDbLine
 10
107.6315957126033
 20
33.43509957450533
 30
0.0
 11
119.7315957126032
 21
33.43509957450533
 31
0.0
  0
LINE
  5
EC
330
19F
100
AcDbEntity
  8
1
 62
     7
100
AcDbLine
 10
104.531595712603
 20
38.13509957450532
 30
0.0
 11
107.6315957126033
 21
38.13509957450532
 31
0.0
  0
LINE
  5
ED
330
19F
100
AcDbEntity
  8
1
 62
     7
100
AcDbLine
 10
104.531595712603
 20
42.33509957450531
 30
0.0
 11
107.6315957126033
 21
42.33509957450531
 31
0.0
  0
LINE
  5
EE
330
19F
100
AcDbEntity
  8
1
 62
     7
100
AcDbLine
 10
104.531595712603
 20
36.63509957450532
 30
0.0
 11
102.031595712603
 21
36.63509957450532
 31
0.0
  0
LINE
  5
EF
330
19F
100
AcDbEntity
  8
1
 62
     7
100
AcDbLine
 10
104.531595712603
 20
43.8350995745053
 30
0.0
 11
104.531595712603
 21
36.63509957450532
 31
0.0
  0
LINE
  5
F0
330
19F
100
AcDbEntity
  8
1
 62
     7
100
AcDbLine
 10
102.031595712603
 20
43.8350995745053
 30
0.0
 11
104.531595712603
 21
43.8350995745053
 31
0.0
  0
LINE
  5
F1
330
19F
100
AcDbEntity
  8
1
 62
     7
100
AcDbLine
 10
102.031595712603
 20
25.7350995745053
 30
0.0
 11
107.0315957126031
 21
25.7350995745053
 31
0.0
  0
LINE
  5
F2
330
19F
100
AcDbEntity
  8
1
 62
     7
100
AcDbLine
 10
102.031595712603
 20
-11.76490042549466
 30
0.0
 11
107.0315957126031
 21
-11.76490042549466
 31
0.0
  0
LINE
  5
F3
330
19F
100
AcDbEntity
  8
1
 62
     7
100
AcDbLine
 10
102.031595712603
 20
-25.91490042549469
 30
0.0
 11
102.031595712603
 21
-2.764900425494702
 31
0.0
  0
LINE
  5
F4
330
19F
100
AcDbEntity
  8
1
 62
     7
100
AcDbLine
 10
107.0315957126031
 20
-25.91490042549469
 30
0.0
 11
102.031595712603
 21
-25.91490042549469
 31
0.0
  0
LINE
  5
F5
330
19F
100
AcDbEntity
  8
1
 62
     7
100
AcDbLine
 10
107.0315957126031
 20
44.38509957450532
 30
0.0
 11
107.0315957126031
 21
42.33509957450531
 31
0.0
  0
LINE
  5
F6
330
19F
100
AcDbEntity
  8
1
 62
     7
100
AcDbLine
 10
102.031595712603
 20
44.38509957450532
 30
0.0
 11
107.0315957126031
 21
44.38509957450532
 31
0.0
  0
LINE
  5
F7
330
19F
100
AcDbEntity
  8
1
 62
     7
100
AcDbLine
 10
107.0315957126031
 20
43.73509957450531
 30
0.0
 11
107.6315957126033
 21
43.73509957450531
 31
0.0
  0
LINE
  5
F8
330
19F
100
AcDbEntity
  8
1
 62
     7
100
AcDbLine
 10
107.6315957126033
 20
43.73509957450531
 30
0.0
 11
107.6315957126033
 21
21.23509957450529
 31
0.0
  0
LINE
  5
F9
330
19F
100
AcDbEntity
  8
1
 62
     7
100
AcDbLine
 10
107.6315957126033
 20
-25.26490042549466
 30
0.0
 11
107.0315957126031
 21
-25.26490042549466
 31
0.0
  0
LINE
  5
FA
330
19F
100
AcDbEntity
  8
1
 62
     7
100
AcDbLine
 10
103.2315957126032
 20
37.73509957450531
 30
0.0
 11
103.2315957126032
 21
42.73509957450531
 31
0.0
  0
LINE
  5
FB
330
19F
100
AcDbEntity
  8
1
 62
     7
100
AcDbLine
 10
107.0315957126031
 20
38.13509957450532
 30
0.0
 11
107.0315957126031
 21
21.23509957450529
 31
0.0
  0
LINE
  5
FC
330
19F
100
AcDbEntity
  8
1
 62
     7
100
AcDbLine
 10
-40.51370684848937
 20
41.4850995745053
 30
0.0
 11
-40.01370684848938
 21
41.4850995745053
 31
0.0
  0
LINE
  5
FD
330
19F
100
AcDbEntity
  8
1
 62
     7
100
AcDbLine
 10
-35.51370684848938
 20
21.23509957450528
 30
0.0
 11
-35.21370684848939
 21
21.23509957450528
 31
0.0
  0
LINE
  5
FE
330
19F
100
AcDbEntity
  8
1
  6
DASHDOT
 62
     3
100
AcDbLine
 10
-179.7349434047859
 20
9.235099574505296
 30
0.0
 11
-188.0754031078889
 21
9.235099574505296
 31
0.0
  0
LINE
  5
FF
330
19F
100
AcDbEntity
  8
1
  6
CENTER
 62
     3
100
AcDbLine
 10
-183.9051732563374
 20
5.06486972295367
 30
0.0
 11
-183.9051732563374
 21
13.40532942605692
 31
0.0
  0
LINE
  5
100
330
19F
100
AcDbEntity
  8
1
 62
     7
100
AcDbLine
 10
-195.4563991067864
 20
42.68560307519281
 30
0.0
 11
-195.3555160063368
 21
42.30910221869001
 31
0.0
  0
LINE
  5
101
330
19F
100
AcDbEntity
  8
1
 62
     7
100
AcDbLine
 10
-195.4563991067864
 20
42.68560307519281
 30
0.0
 11
-190.6267699753411
 21
43.97969830070542
 31
0.0
  0
LINE
  5
102
330
19F
100
AcDbEntity
  8
1
 62
     7
100
AcDbLine
 10
-191.2642810206919
 20
43.80887773093773
 30
0.0
 11
-197.8459476282243
 21
68.37199190872801
 31
0.0
  0
LINE
  5
103
330
19F
100
AcDbEntity
  8
1
 62
     7
100
AcDbLine
 10
-193.0415845410637
 20
43.33265068794911
 30
0.0
 11
-199.623251148596
 21
67.89576486573938
 31
0.0
  0
LINE
  5
104
330
19F
100
AcDbEntity
  8
1
 62
     7
100
AcDbLine
 10
-194.8188880614356
 20
42.85642364496047
 30
0.0
 11
-201.400554668968
 21
67.41953782275072
 31
0.0
  0
LINE
  5
105
330
19F
100
AcDbEntity
  8
1
 62
     7
100
AcDbLine
 10
-68.51370684848939
 20
44.23509957450529
 30
0.0
 11
-68.51370684848939
 21
-25.76490042549469
 31
0.0
  0
LINE
  5
106
330
19F
100
AcDbEntity
  8
1
 62
     7
100
AcDbLine
 10
-190.5258868748915
 20
43.60319744420265
 30
0.0
 11
-190.6267699753411
 21
43.97969830070542
 31
0.0
  0
LINE
  5
107
330
19F
100
AcDbEntity
  8
1
 62
     7
100
AcDbLine
 10
-189.9051732563374
 20
58.23509957450529
 30
0.0
 11
-189.9051732563374
 21
42.28052285822188
 31
0.0
  0
LINE
  5
108
330
19F
100
AcDbEntity
  8
1
 62
     7
100
AcDbLine
 10
-178.9051732563374
 20
59.23509957450528
 30
0.0
 11
-188.9051732563374
 21
59.23509957450528
 31
0.0
  0
LINE
  5
109
330
19F
100
AcDbEntity
  8
1
 62
     7
100
AcDbLine
 10
-177.9051732563374
 20
58.23509957450529
 30
0.0
 11
-177.9051732563374
 21
42.28052285822188
 31
0.0
  0
LINE
  5
10A
330
19F
100
AcDbEntity
  8
1
 62
     7
100
AcDbLine
 10
-181.3051732563375
 20
53.73509957450528
 30
0.0
 11
-181.3051732563375
 21
47.73509957450528
 31
0.0
  0
LINE
  5
10B
330
19F
100
AcDbEntity
  8
1
 62
     7
100
AcDbLine
 10
-186.5051732563374
 20
53.73509957450528
 30
0.0
 11
-186.5051732563374
 21
47.73509957450528
 31
0.0
  0
LINE
  5
10C
330
19F
100
AcDbEntity
  8
1
 62
     7
100
AcDbLine
 10
65.73159571260318
 20
23.2350995745053
 30
0.0
 11
65.73159571260318
 21
-4.764900425494707
 31
0.0
  0
LINE
  5
10D
330
19F
100
AcDbEntity
  8
1
 62
     7
100
AcDbLine
 10
65.73159571260318
 20
-4.764900425494707
 30
0.0
 11
65.73159571260318
 21
-22.7649004254947
 31
0.0
  0
LINE
  5
10E
330
19F
100
AcDbEntity
  8
1
 62
     7
100
AcDbLine
 10
67.73159571260316
 20
17.75509957450528
 30
0.0
 11
67.73159571260314
 21
59.2350995745053
 31
0.0
  0
LINE
  5
10F
330
19F
100
AcDbEntity
  8
1
 62
     7
100
AcDbLine
 10
67.73159571260316
 20
0.7150995745053095
 30
0.0
 11
67.73159571260316
 21
17.75509957450528
 31
0.0
  0
LINE
  5
110
330
19F
100
AcDbEntity
  8
1
 62
     7
100
AcDbLine
 10
76.73159571260315
 20
17.75509957450528
 30
0.0
 11
76.73159571260315
 21
0.7150995745053095
 31
0.0
  0
LINE
  5
111
330
19F
100
AcDbEntity
  8
1
 62
     7
100
AcDbLine
 10
76.73159571260315
 20
0.7150995745053095
 30
0.0
 11
76.73159571260315
 21
-5.744900425494695
 31
0.0
  0
LINE
  5
112
330
19F
100
AcDbEntity
  8
1
 62
     7
100
AcDbLine
 10
85.73159571260314
 20
16.73509957450529
 30
0.0
 11
85.73159571260314
 21
1.735099574505293
 31
0.0
  0
LINE
  5
113
330
19F
100
AcDbEntity
  8
1
 62
     7
100
AcDbLine
 10
85.73159571260314
 20
1.735099574505293
 30
0.0
 11
85.73159571260314
 21
-7.614900425494697
 31
0.0
  0
LINE
  5
114
330
19F
100
AcDbEntity
  8
1
 62
     7
100
AcDbLine
 10
116.731595712603
 20
16.73509957450529
 30
0.0
 11
116.7315957126032
 21
1.735099574505293
 31
0.0
  0
LINE
  5
115
330
19F
100
AcDbEntity
  8
1
 62
     7
100
AcDbLine
 10
116.7315957126032
 20
1.735099574505293
 30
0.0
 11
116.7315957126032
 21
-6.764900425494657
 31
0.0
  0
LINE
  5
116
330
19F
100
AcDbEntity
  8
1
 62
     7
100
AcDbLine
 10
119.7315957126032
 20
25.23509957450531
 30
0.0
 11
119.7315957126032
 21
-6.764900425494657
 31
0.0
  0
LINE
  5
117
330
19F
100
AcDbEntity
  8
1
 62
     7
100
AcDbLine
 10
119.7315957126032
 20
-6.764900425494657
 30
0.0
 11
119.7315957126032
 21
-17.76490042549466
 31
0.0
  0
LINE
  5
118
330
19F
100
AcDbEntity
  8
1
 62
     3
100
AcDbLine
 10
75.23159571260307
 20
69.51673351132756
 30
0.0
 11
75.23159571260307
 21
72.47753865596533
 31
0.0
  0
LINE
  5
119
330
19F
100
AcDbEntity
  8
1
 62
     3
100
AcDbLine
 10
-61.6237068484894
 20
72.47753865596533
 30
0.0
 11
-61.6237068484894
 21
69.51673351132756
 31
0.0
  0
LINE
  5
11A
330
19F
100
AcDbEntity
  8
1
 62
     3
100
AcDbLine
 10
-62.40370684848946
 20
69.51673351132756
 30
0.0
 11
-62.40370684848946
 21
72.47753865596533
 31
0.0
  0
LINE
  5
11B
330
19F
100
AcDbEntity
  8
1
 62
     7
100
AcDbLine
 10
-62.93370684848945
 20
69.51673351132756
 30
0.0
 11
-61.09370684848943
 21
69.51673351132756
 31
0.0
  0
LINE
  5
11C
330
19F
100
AcDbEntity
  8
1
 62
     3
100
AcDbLine
 10
-62.01370684848942
 20
69.51673351132756
 30
0.0
 11
-62.01370684848942
 21
72.47753865596533
 31
0.0
  0
LINE
  5
11D
330
19F
100
AcDbEntity
  8
1
 62
     3
100
AcDbLine
 10
-200.901504596799
 20
70.61850892765019
 30
0.0
 11
-200.1351918365293
 21
67.75859077183504
 31
0.0
  0
LINE
  5
11E
330
19F
100
AcDbEntity
  8
1
 62
     3
100
AcDbLine
 10
-200.8886139810348
 20
67.55671191665506
 30
0.0
 11
-201.6549267413045
 21
70.41663007247024
 31
0.0
  0
LINE
  5
11F
330
19F
100
AcDbEntity
  8
1
 62
     3
100
AcDbLine
 10
-200.511902908782
 20
67.65765134424504
 30
0.0
 11
-201.2782156690518
 21
70.51756950006022
 31
0.0
  0
LINE
  5
120
330
19F
100
AcDbEntity
  8
1
 62
     3
100
AcDbLine
 10
-199.1242010764272
 20
71.09473597063881
 30
0.0
 11
-198.3578883161575
 21
68.2348178148237
 31
0.0
  0
LINE
  5
121
330
19F
100
AcDbEntity
  8
1
 62
     3
100
AcDbLine
 10
-199.1113104606629
 20
68.03293895964372
 30
0.0
 11
-199.8776232209328
 21
70.89285711545888
 31
0.0
  0
LINE
  5
122
330
19F
100
AcDbEntity
  8
1
 62
     7
100
AcDbLine
 10
-197.8459476282243
 20
68.37199190872801
 30
0.0
 11
-201.400554668968
 21
67.41953782275072
 31
0.0
  0
LINE
  5
123
330
19F
100
AcDbEntity
  8
1
 62
     3
100
AcDbLine
 10
-198.7345993884103
 20
68.13387838723372
 30
0.0
 11
-199.5009121486799
 21
70.99379654304887
 31
0.0
  0
LINE
  5
124
330
19F
100
AcDbEntity
  8
1
 62
     3
100
AcDbLine
 10
248.353080700643
 20
67.75859077183504
 30
0.0
 11
249.1193934609128
 21
70.61850892765019
 31
0.0
  0
LINE
  5
125
330
19F
100
AcDbEntity
  8
1
 62
     3
100
AcDbLine
 10
249.8728156054184
 20
70.41663007247024
 30
0.0
 11
249.1065028451485
 21
67.55671191665506
 31
0.0
  0
LINE
  5
126
330
19F
100
AcDbEntity
  8
1
 62
     3
100
AcDbLine
 10
249.4961045331655
 20
70.51756950006022
 30
0.0
 11
248.7297917728958
 21
67.65765134424504
 31
0.0
  0
LINE
  5
127
330
19F
100
AcDbEntity
  8
1
 62
     3
100
AcDbLine
 10
246.5757771802711
 20
68.2348178148237
 30
0.0
 11
247.342089940541
 21
71.09473597063881
 31
0.0
  0
LINE
  5
128
330
19F
100
AcDbEntity
  8
1
 62
     3
100
AcDbLine
 10
248.0955120850464
 20
70.89285711545888
 30
0.0
 11
247.3291993247768
 21
68.03293895964372
 31
0.0
  0
LINE
  5
129
330
19F
100
AcDbEntity
  8
1
 62
     7
100
AcDbLine
 10
249.6184435330818
 20
67.41953782275072
 30
0.0
 11
246.0638364923381
 21
68.37199190872801
 31
0.0
  0
LINE
  5
12A
330
19F
100
AcDbEntity
  8
1
 62
     3
100
AcDbLine
 10
247.7188010127937
 20
70.99379654304887
 30
0.0
 11
246.952488252524
 21
68.13387838723372
 31
0.0
  0
ARC
  5
12B
330
19F
100
AcDbEntity
  8
1
 62
     7
100
AcDbCircle
 10
227.1230621204513
 20
58.23509957450531
 30
0.0
 40
1.0
100
AcDbArc
 50
90.0
 51
180.0
  0
ARC
  5
12C
330
19F
100
AcDbEntity
  8
1
 62
     7
100
AcDbCircle
 10
237.1230621204513
 20
58.23509957450531
 30
0.0
 40
1.0
100
AcDbArc
 50
0.0
 51
90.0
  0
ARC
  5
12D
330
19F
100
AcDbEntity
  8
1
 62
     7
100
AcDbCircle
 10
207.6594300885701
 20
16.4309808831924
 30
0.0
 40
1.99999999999997
100
AcDbArc
 50
123.502402880617
 51
163.608960630783
  0
ARC
  5
12E
330
19F
100
AcDbEntity
  8
1
 62
     7
100
AcDbCircle
 10
238.1230621204514
 20
-15.54896788828216
 30
0.0
 40
2.000000000000068
100
AcDbArc
 50
233.1199751322266
 51
283.608960630779
  0
ARC
  5
12F
330
19F
100
AcDbEntity
  8
1
 62
     7
100
AcDbCircle
 10
250.5866941523326
 20
26.82328572860564
 30
0.0
 40
2.000000000000043
100
AcDbArc
 50
6.502022057920863
 51
43.60896063078326
  0
ARC
  5
130
330
19F
100
AcDbEntity
  8
1
 62
     7
100
AcDbCircle
 10
213.65943008857
 20
26.82328572860567
 30
0.0
 40
1.99999999999988
100
AcDbArc
 50
136.3910393692167
 51
173.4979779420788
  0
ARC
  5
131
330
19F
100
AcDbEntity
  8
1
 62
     7
100
AcDbCircle
 10
256.5866941523326
 20
16.43098088319239
 30
0.0
 40
2.000000000000068
100
AcDbArc
 50
16.39103936921634
 51
56.49759711938094
  0
ARC
  5
132
330
19F
100
AcDbEntity
  8
1
 62
     7
100
AcDbCircle
 10
226.1230621204513
 20
-15.54896788828216
 30
0.0
 40
2.000000000000136
100
AcDbArc
 50
256.3910393692156
 51
306.8800248677709
  0
ARC
  5
133
330
19F
100
AcDbEntity
  8
1
 62
     7
100
AcDbCircle
 10
84.71159571260313
 20
17.75509957450528
 30
0.0
 40
1.019999999999992
100
AcDbArc
 50
270.0
 51
0.0
  0
ARC
  5
134
330
19F
100
AcDbEntity
  8
1
 62
     7
100
AcDbCircle
 10
77.75159571260316
 20
24.21509957450529
 30
0.0
 40
1.02
100
AcDbArc
 50
90.0
 51
180.0
  0
ARC
  5
135
330
19F
100
AcDbEntity
  8
1
 62
     7
100
AcDbCircle
 10
84.71159571260313
 20
24.21509957450529
 30
0.0
 40
1.019999999999996
100
AcDbArc
 50
0.0
 51
90.0
  0
ARC
  5
136
330
19F
100
AcDbEntity
  8
1
 62
     7
100
AcDbCircle
 10
77.75159571260316
 20
17.75509957450528
 30
0.0
 40
1.02000000000001
100
AcDbArc
 50
180.0
 51
270.0
  0
ARC
  5
137
330
19F
100
AcDbEntity
  8
1
 62
     7
100
AcDbCircle
 10
75.71159571260314
 20
17.75509957450528
 30
0.0
 40
1.019999999999992
100
AcDbArc
 50
270.0
 51
0.0
  0
ARC
  5
138
330
19F
100
AcDbEntity
  8
1
 62
     7
100
AcDbCircle
 10
68.75159571260316
 20
24.21509957450529
 30
0.0
 40
1.02
100
AcDbArc
 50
90.0
 51
180.0
  0
ARC
  5
139
330
19F
100
AcDbEntity
  8
1
 62
     7
100
AcDbCircle
 10
75.71159571260314
 20
24.21509957450529
 30
0.0
 40
1.02000000000001
100
AcDbArc
 50
0.0
 51
90.0
  0
ARC
  5
13A
330
19F
100
AcDbEntity
  8
1
 62
     7
100
AcDbCircle
 10
68.75159571260316
 20
17.75509957450528
 30
0.0
 40
1.019999999999996
100
AcDbArc
 50
180.0
 51
270.0
  0
ARC
  5
13B
330
19F
100
AcDbEntity
  8
1
 62
     7
100
AcDbCircle
 10
101.231595712603
 20
21.7350995745053
 30
0.0
 40
0.5
100
AcDbArc
 50
180.0
 51
270.0
  0
ARC
  5
13C
330
19F
100
AcDbEntity
  8
1
 62
     7
100
AcDbCircle
 10
84.71159571260313
 20
0.7150995745053095
 30
0.0
 40
1.019999999999996
100
AcDbArc
 50
0.0
 51
90.0
  0
ARC
  5
13D
330
19F
100
AcDbEntity
  8
1
 62
     7
100
AcDbCircle
 10
77.75159571260316
 20
-5.744900425494695
 30
0.0
 40
1.02000000000001
100
AcDbArc
 50
180.0
 51
270.0
  0
ARC
  5
13E
330
19F
100
AcDbEntity
  8
1
 62
     7
100
AcDbCircle
 10
84.71159571260313
 20
-5.744900425494695
 30
0.0
 40
1.02
100
AcDbArc
 50
270.0
 51
0.0
  0
ARC
  5
13F
330
19F
100
AcDbEntity
  8
1
 62
     7
100
AcDbCircle
 10
77.75159571260316
 20
0.7150995745053095
 30
0.0
 40
1.019999999999992
100
AcDbArc
 50
90.0
 51
180.0
  0
ARC
  5
140
330
19F
100
AcDbEntity
  8
1
 62
     7
100
AcDbCircle
 10
75.71159571260314
 20
0.7150995745053095
 30
0.0
 40
1.02000000000001
100
AcDbArc
 50
0.0
 51
90.0
  0
ARC
  5
141
330
19F
100
AcDbEntity
  8
1
 62
     7
100
AcDbCircle
 10
68.75159571260316
 20
-5.744900425494695
 30
0.0
 40
1.019999999999996
100
AcDbArc
 50
180.0
 51
270.0
  0
ARC
  5
142
330
19F
100
AcDbEntity
  8
1
 62
     7
100
AcDbCircle
 10
75.71159571260314
 20
-5.744900425494695
 30
0.0
 40
1.02
100
AcDbArc
 50
270.0
 51
0.0
  0
ARC
  5
143
330
19F
100
AcDbEntity
  8
1
 62
     7
100
AcDbCircle
 10
68.75159571260316
 20
0.7150995745053095
 30
0.0
 40
1.019999999999992
100
AcDbArc
 50
90.0
 51
180.0
  0
ARC
  5
144
330
19F
100
AcDbEntity
  8
1
 62
     7
100
AcDbCircle
 10
101.231595712603
 20
-3.264900425494698
 30
0.0
 40
0.5
100
AcDbArc
 50
90.0
 51
180.0
  0
ARC
  5
145
330
19F
100
AcDbEntity
  8
1
 62
     7
100
AcDbCircle
 10
-178.9051732563374
 20
58.23509957450529
 30
0.0
 40
1.0
100
AcDbArc
 50
0.0
 51
90.0
  0
ARC
  5
146
330
19F
100
AcDbEntity
  8
1
 62
     7
100
AcDbCircle
 10
-188.9051732563374
 20
58.23509957450529
 30
0.0
 40
1.0
100
AcDbArc
 50
90.0
 51
180.0
  0
ARC
  5
147
330
19F
100
AcDbEntity
  8
1
 62
     7
100
AcDbCircle
 10
-175.9051732563374
 20
42.28052285822188
 30
0.0
 40
2.0
100
AcDbArc
 50
180.0
 51
256.391039369218
  0
ARC
  5
148
330
19F
100
AcDbEntity
  8
1
 62
     7
100
AcDbCircle
 10
-191.9051732563374
 20
42.28052285822188
 30
0.0
 40
2.000000000000019
100
AcDbArc
 50
283.6089606307853
 51
0.0
  0
ARC
  5
149
330
19F
100
AcDbEntity
  8
1
 62
     7
100
AcDbCircle
 10
-30.9657901818227
 20
-6.264900425494688
 30
0.0
 40
3.752083333333327
100
AcDbArc
 50
291.1220213823926
 51
68.87797861760728
  0
ARC
  5
14A
330
19F
100
AcDbEntity
  8
1
 62
     7
100
AcDbCircle
 10
-30.9657901818227
 20
40.2350995745053
 30
0.0
 40
3.752083333333327
100
AcDbArc
 50
291.1220213823926
 51
68.8779786176073
  0
ARC
  5
14B
330
19F
100
AcDbEntity
  8
1
  6
CENTER
 62
     3
100
AcDbCircle
 10
232.1230621204513
 20
9.235099574505296
 30
0.0
 40
23.00000000000012
100
AcDbArc
 50
202.5213295369546
 51
217.4786704630452
  0
ARC
  5
14C
330
19F
100
AcDbEntity
  8
1
  6
CENTER
 62
     3
100
AcDbCircle
 10
232.1230621204513
 20
9.235099574505296
 30
0.0
 40
23.00000000000001
100
AcDbArc
 50
82.52132953695499
 51
97.47867046304548
  0
ARC
  5
14D
330
19F
100
AcDbEntity
  8
1
  6
CENTER
 62
     3
100
AcDbCircle
 10
232.1230621204513
 20
9.235099574505296
 30
0.0
 40
22.99999999999993
100
AcDbArc
 50
322.5213295369546
 51
337.4786704630452
  0
ARC
  5
14E
330
19F
100
AcDbEntity
  8
1
 62
     7
100
AcDbCircle
 10
232.1230621204513
 20
53.73509957450531
 30
0.0
 40
2.59999999999988
100
AcDbArc
 50
90.0
 51
180.0
  0
ARC
  5
14F
330
19F
100
AcDbEntity
  8
1
 62
     7
100
AcDbCircle
 10
232.1230621204513
 20
47.73509957450531
 30
0.0
 40
2.6000000000001
100
AcDbArc
 50
270.0
 51
0.0
  0
ARC
  5
150
330
19F
100
AcDbEntity
  8
1
 62
     7
100
AcDbCircle
 10
232.1230621204513
 20
53.73509957450531
 30
0.0
 40
2.59999999999988
100
AcDbArc
 50
0.0
 51
90.0
  0
ARC
  5
151
330
19F
100
AcDbEntity
  8
1
 62
     7
100
AcDbCircle
 10
232.1230621204513
 20
47.73509957450531
 30
0.0
 40
2.600000000000108
100
AcDbArc
 50
180.0
 51
270.0
  0
ARC
  5
152
330
19F
100
AcDbEntity
  8
1
 62
     7
100
AcDbCircle
 10
232.1230621204513
 20
9.235099574505296
 30
0.0
 40
27.50000000000001
100
AcDbArc
 50
163.6089606307828
 51
256.391039369217
  0
ARC
  5
153
330
19F
100
AcDbEntity
  8
1
 62
     7
100
AcDbCircle
 10
232.1230621204513
 20
9.235099574505296
 30
0.0
 40
27.50000000000007
100
AcDbArc
 50
283.6089606307825
 51
16.39103936921708
  0
ARC
  5
154
330
19F
100
AcDbEntity
  8
1
 62
     7
100
AcDbCircle
 10
232.1230621204513
 20
9.235099574505296
 30
0.0
 40
27.49999999999996
100
AcDbArc
 50
43.60896063078305
 51
136.391039369217
  0
ARC
  5
155
330
19F
100
AcDbEntity
  8
1
 62
     7
100
AcDbCircle
 10
81.23159571260314
 20
20.98509957450529
 30
0.0
 40
2.550000000000002
100
AcDbArc
 50
239.9999999999999
 51
60.0000000000002
  0
ARC
  5
156
330
19F
100
AcDbEntity
  8
1
 62
     7
100
AcDbCircle
 10
81.23159571260314
 20
20.98509957450529
 30
0.0
 40
2.549999999999998
100
AcDbArc
 50
60.0000000000002
 51
239.9999999999999
  0
ARC
  5
157
330
19F
100
AcDbEntity
  8
1
 62
     7
100
AcDbCircle
 10
72.23159571260315
 20
20.98509957450529
 30
0.0
 40
2.550000000000002
100
AcDbArc
 50
239.9999999999999
 51
300.0
  0
ARC
  5
158
330
19F
100
AcDbEntity
  8
1
 62
     7
100
AcDbCircle
 10
72.23159571260315
 20
20.98509957450529
 30
0.0
 40
2.550000000000002
100
AcDbArc
 50
300.0
 51
239.9999999999999
  0
ARC
  5
159
330
19F
100
AcDbEntity
  8
1
 62
     7
100
AcDbCircle
 10
81.23159571260314
 20
-2.514900425494698
 30
0.0
 40
2.549999999999998
100
AcDbArc
 50
299.9999999999997
 51
120.0000000000001
  0
ARC
  5
15A
330
19F
100
AcDbEntity
  8
1
 62
     7
100
AcDbCircle
 10
81.23159571260314
 20
-2.514900425494698
 30
0.0
 40
2.550000000000002
100
AcDbArc
 50
120.0000000000001
 51
299.9999999999997
  0
ARC
  5
15B
330
19F
100
AcDbEntity
  8
1
 62
     7
100
AcDbCircle
 10
72.23159571260315
 20
-2.514900425494698
 30
0.0
 40
2.550000000000002
100
AcDbArc
 50
59.99999999999989
 51
120.0000000000001
  0
ARC
  5
15C
330
19F
100
AcDbEntity
  8
1
 62
     7
100
AcDbCircle
 10
72.23159571260315
 20
-2.514900425494698
 30
0.0
 40
2.550000000000002
100
AcDbArc
 50
120.0000000000001
 51
59.99999999999989
  0
ARC
  5
15D
330
19F
100
AcDbEntity
  8
1
 62
     7
100
AcDbCircle
 10
106.2795123792697
 20
40.23509957450531
 30
0.0
 40
3.752083333333391
100
AcDbArc
 50
291.1220213823951
 51
68.87797861760491
  0
ARC
  5
15E
330
19F
100
AcDbEntity
  8
1
 62
     7
100
AcDbCircle
 10
103.8815957126032
 20
42.73509957450531
 30
0.0
 40
0.6499999999998069
100
AcDbArc
 50
0.0
 51
180.0
  0
ARC
  5
15F
330
19F
100
AcDbEntity
  8
1
 62
     7
100
AcDbCircle
 10
103.8815957126032
 20
37.73509957450531
 30
0.0
 40
0.6500000000001052
100
AcDbArc
 50
180.0
 51
0.0
  0
ARC
  5
160
330
19F
100
AcDbEntity
  8
1
 62
     7
100
AcDbCircle
 10
-183.9051732563374
 20
9.235099574505296
 30
0.0
 40
35.0
100
AcDbArc
 50
99.87088960613959
 51
80.12911039386043
  0
ARC
  5
161
330
19F
100
AcDbEntity
  8
1
 62
     7
100
AcDbCircle
 10
-183.9051732563374
 20
47.73509957450528
 30
0.0
 40
2.599999999999908
100
AcDbArc
 50
180.0
 51
270.0
  0
ARC
  5
162
330
19F
100
AcDbEntity
  8
1
 62
     7
100
AcDbCircle
 10
-183.9051732563374
 20
53.73509957450528
 30
0.0
 40
2.599999999999992
100
AcDbArc
 50
0.0
 51
90.0
  0
ARC
  5
163
330
19F
100
AcDbEntity
  8
1
 62
     7
100
AcDbCircle
 10
-183.9051732563374
 20
47.73509957450528
 30
0.0
 40
2.599999999999908
100
AcDbArc
 50
270.0
 51
0.0
  0
ARC
  5
164
330
19F
100
AcDbEntity
  8
1
 62
     7
100
AcDbCircle
 10
-183.9051732563374
 20
53.73509957450528
 30
0.0
 40
2.599999999999992
100
AcDbArc
 50
90.0
 51
180.0
  0
ARC
  5
165
330
19F
100
AcDbEntity
  8
1
 62
     7
100
AcDbCircle
 10
-183.9051732563374
 20
9.235099574505296
 30
0.0
 40
31.99999999999997
100
AcDbArc
 50
103.6089606307827
 51
76.39103936921704
  0
CIRCLE
  5
166
330
19F
100
AcDbEntity
  8
1
 62
     7
100
AcDbCircle
 10
212.2044778334092
 20
-2.264900425494747
 30
0.0
 40
1.600000000000023
  0
CIRCLE
  5
167
330
19F
100
AcDbEntity
  8
1
 62
     3
100
AcDbCircle
 10
212.2044778334092
 20
-2.264900425494747
 30
0.0
 40
2.0
  0
CIRCLE
  5
168
330
19F
100
AcDbEntity
  8
1
 62
     7
100
AcDbCircle
 10
232.1230621204513
 20
32.23509957450532
 30
0.0
 40
1.599999999999994
  0
CIRCLE
  5
169
330
19F
100
AcDbEntity
  8
1
 62
     3
100
AcDbCircle
 10
232.1230621204513
 20
32.23509957450532
 30
0.0
 40
2.0
  0
CIRCLE
  5
16A
330
19F
100
AcDbEntity
  8
1
 62
     7
100
AcDbCircle
 10
232.1230621204513
 20
9.235099574505296
 30
0.0
 40
7.5
  0
CIRCLE
  5
16B
330
19F
100
AcDbEntity
  8
1
 62
     7
100
AcDbCircle
 10
258.9698496377689
 20
-6.264900425494722
 30
0.0
 40
3.149999999999919
  0
CIRCLE
  5
16C
330
19F
100
AcDbEntity
  8
1
 62
     7
100
AcDbCircle
 10
205.2762746031336
 20
-6.264900425494696
 30
0.0
 40
3.149999999999919
  0
CIRCLE
  5
16D
330
19F
100
AcDbEntity
  8
1
 62
     7
100
AcDbCircle
 10
232.1230621204513
 20
40.2350995745053
 30
0.0
 40
3.150000000000006
  0
CIRCLE
  5
16E
330
19F
100
AcDbEntity
  8
1
 62
     7
100
AcDbCircle
 10
232.1230621204513
 20
9.235099574505296
 30
0.0
 40
34.49999999999997
  0
CIRCLE
  5
16F
330
19F
100
AcDbEntity
  8
1
 62
     7
100
AcDbCircle
 10
232.1230621204513
 20
9.235099574505296
 30
0.0
 40
13.0
  0
CIRCLE
  5
170
330
19F
100
AcDbEntity
  8
1
 62
     7
100
AcDbCircle
 10
232.1230621204513
 20
9.235099574505296
 30
0.0
 40
35.14999999999989
  0
CIRCLE
  5
171
330
19F
100
AcDbEntity
  8
1
 62
     7
100
AcDbCircle
 10
232.1230621204513
 20
9.421203116739768
 30
0.0
 40
26.99999999999997
  0
CIRCLE
  5
172
330
19F
100
AcDbEntity
  8
1
 62
     7
100
AcDbCircle
 10
232.1230621204513
 20
9.235099574505296
 30
0.0
 40
16.0
  0
CIRCLE
  5
173
330
19F
100
AcDbEntity
  8
1
 62
     7
100
AcDbCircle
 10
252.0416464074935
 20
-2.264900425494714
 30
0.0
 40
1.600000000000023
  0
CIRCLE
  5
174
330
19F
100
AcDbEntity
  8
1
 62
     3
100
AcDbCircle
 10
252.0416464074935
 20
-2.264900425494714
 30
0.0
 40
2.0
  0
CIRCLE
  5
175
330
19F
100
AcDbEntity
  8
1
 62
     7
100
AcDbCircle
 10
-183.9051732563374
 20
9.235099574505296
 30
0.0
 40
7.5
  0
CIRCLE
  5
176
330
19F
100
AcDbEntity
  8
1
 62
     7
100
AcDbCircle
 10
-183.9051732563374
 20
9.235099574505296
 30
0.0
 40
14.0
  0
TEXT
  5
178
330
19F
100
AcDbEntity
  8
1
 62
     7
100
AcDbText
 10
-219.565152249602
 20
109.6447123561504
 30
0.0
 40
6.0
  1
AMC 80
 41
0.9
  7
SIMPLEX
100
AcDbText
  0
ENDSEC
  0
SECTION
  2
OBJECTS
  0
DICTIONARY
  5
18B
330
0
100
AcDbDictionary
281
     1
  3
ACAD_COLOR
350
19A
  3
ACAD_GROUP
350
18C
  3
ACAD_LAYOUT
350
198
  3
ACAD_MATERIAL
350
199
  3
ACAD_MLINESTYLE
350
195
  3
ACAD_PLOTSETTINGS
350
197
  3
ACAD_PLOTSTYLENAME
350
18D
  0
DICTIONARY
  5
19A
102
{ACAD_REACTORS
330
18B
102
}
330
18B
100
AcDbDictionary
281
     1
  0
DICTIONARY
  5
18C
102
{ACAD_REACTORS
330
18B
102
}
330
18B
100
AcDbDictionary
281
     1
  0
DICTIONARY
  5
198
102
{ACAD_REACTORS
330
18B
102
}
330
18B
100
AcDbDictionary
281
     1
  3
Layout1
350
19E
  3
Model
350
1A2
  0
DICTIONARY
  5
199
102
{ACAD_REACTORS
330
18B
102
}
330
18B
100
AcDbDictionary
281
     1
  0
DICTIONARY
  5
195
102
{ACAD_REACTORS
330
18B
102
}
330
18B
100
AcDbDictionary
281
     1
  3
Standard
350
196
  0
DICTIONARY
  5
197
102
{ACAD_REACTORS
330
18B
102
}
330
18B
100
AcDbDictionary
281
     1
  0
ACDBDICTIONARYWDFLT
  5
18D
102
{ACAD_REACTORS
330
18B
102
}
330
18B
100
AcDbDictionary
281
     1
  3
Normal
350
18E
100
AcDbDictionaryWithDefault
340
18E
  0
LAYOUT
  5
19E
102
{ACAD_REACTORS
330
198
102
}
330
198
100
AcDbPlotSettings
  1

  2
\\Ogura1\HP Color LaserJet 4600 PCL 5c
  4

  6

 40
0.0
 41
0.0
 42
0.0
 43
0.0
 44
0.0
 45
0.0
 46
0.0
 47
0.0
 48
0.0
 49
0.0
140
0.0
141
0.0
142
1.0
143
1.0
 70
   688
 72
     0
 73
     0
 74
     5
  7

 75
    16
147
1.0
 76
     0
 77
     2
 78
   300
148
0.0
149
0.0
100
AcDbLayout
  1
Layout1
 70
     1
 71
     1
 10
0.0
 20
0.0
 11
12.0
 21
9.0
 12
0.0
 22
0.0
 32
0.0
 14
1.000000000000000E+20
 24
1.000000000000000E+20
 34
1.000000000000000E+20
 15
-1.000000000000000E+20
 25
-1.000000000000000E+20
 35
-1.000000000000000E+20
146
0.0
 13
0.0
 23
0.0
 33
0.0
 16
1.0
 26
0.0
 36
0.0
 17
0.0
 27
1.0
 37
0.0
 76
     0
330
19B
  0
LAYOUT
  5
1A2
102
{ACAD_REACTORS
330
198
102
}
330
198
100
AcDbPlotSettings
  1

  2
\\Ogura1\HP Color LaserJet 4600 PCL 5c
  4

  6

 40
0.0
 41
0.0
 42
0.0
 43
0.0
 44
0.0
 45
0.0
 46
0.0
 47
0.0
 48
0.0
 49
0.0
140
0.0
141
0.0
142
1.0
143
1.0
 70
  1712
 72
     0
 73
     0
 74
     0
  7

 75
     0
147
1.0
 76
     0
 77
     2
 78
   300
148
0.0
149
0.0
100
AcDbLayout
  1
Model
 70
     1
 71
     0
 10
0.0
 20
0.0
 11
12.0
 21
9.0
 12
0.0
 22
0.0
 32
0.0
 14
0.0
 24
0.0
 34
0.0
 15
0.0
 25
0.0
 35
0.0
146
0.0
 13
0.0
 23
0.0
 33
0.0
 16
1.0
 26
0.0
 36
0.0
 17
0.0
 27
1.0
 37
0.0
 76
     0
330
19F
  0
MLINESTYLE
  5
196
102
{ACAD_REACTORS
330
195
102
}
330
195
100
AcDbMlineStyle
  2
STANDARD
 70
     0
  3

 62
   256
 51
90.0
 52
90.0
 71
     2
 49
0.5
 62
   256
  6
BYLAYER
 49
-0.5
 62
   256
  6
BYLAYER
  0
ACDBPLACEHOLDER
  5
18E
102
{ACAD_REACTORS
330
18D
102
}
330
18D
  0
ENDSEC
  0
EOF
