  0
SECTION
  2
HEADER
  9
$ACADVER
  1
AC1018
  9
$ACADMAINTVER
 70
     0
  9
$DWGCODEPAGE
  3
ANSI_932
  9
$INSBASE
 10
0.0
 20
0.0
 30
0.0
  9
$EXTMIN
 10
-102.3424340953428
 20
18.22222141356397
 30
-0.0015258207003583
  9
$EXTMAX
 10
177.6055990496938
 20
105.9306139048049
 30
0.0000000349246037
  9
$LIMMIN
 10
-102.3338919325375
 20
18.48911125610108
  9
$LIMMAX
 10
177.5970555833584
 20
105.9279372162418
  9
$ORTHOMODE
 70
     0
  9
$REGENMODE
 70
     1
  9
$FILLMODE
 70
     1
  9
$QTEXTMODE
 70
     0
  9
$MIRRTEXT
 70
     1
  9
$LTSCALE
 40
1.0
  9
$ATTMODE
 70
     1
  9
$TEXTSIZE
 40
3.5
  9
$TRACEWID
 40
0.5
  9
$TEXTSTYLE
  7
STANDARD
  9
$CLAYER
  8
0
  9
$CELTYPE
  6
ByLayer
  9
$CECOLOR
 62
   256
  9
$CELTSCALE
 40
1.0
  9
$DISPSILH
 70
     0
  9
$DIMSCALE
 40
1.0
  9
$DIMASZ
 40
0.18
  9
$DIMEXO
 40
0.0625
  9
$DIMDLI
 40
0.38
  9
$DIMRND
 40
0.0
  9
$DIMDLE
 40
0.0
  9
$DIMEXE
 40
0.18
  9
$DIMTP
 40
0.0
  9
$DIMTM
 40
0.0
  9
$DIMTXT
 40
0.18
  9
$DIMCEN
 40
0.09
  9
$DIMTSZ
 40
0.0
  9
$DIMTOL
 70
     0
  9
$DIMLIM
 70
     0
  9
$DIMTIH
 70
     1
  9
$DIMTOH
 70
     1
  9
$DIMSE1
 70
     0
  9
$DIMSE2
 70
     0
  9
$DIMTAD
 70
     0
  9
$DIMZIN
 70
     0
  9
$DIMBLK
  1

  9
$DIMASO
 70
     1
  9
$DIMSHO
 70
     1
  9
$DIMPOST
  1

  9
$DIMAPOST
  1

  9
$DIMALT
 70
     0
  9
$DIMALTD
 70
     2
  9
$DIMALTF
 40
25.4
  9
$DIMLFAC
 40
1.0
  9
$DIMTOFL
 70
     0
  9
$DIMTVP
 40
0.0
  9
$DIMTIX
 70
     0
  9
$DIMSOXD
 70
     0
  9
$DIMSAH
 70
     0
  9
$DIMBLK1
  1

  9
$DIMBLK2
  1

  9
$DIMSTYLE
  2
STANDARD
  9
$DIMCLRD
 70
     0
  9
$DIMCLRE
 70
     0
  9
$DIMCLRT
 70
     0
  9
$DIMTFAC
 40
1.0
  9
$DIMGAP
 40
0.09
  9
$DIMJUST
 70
     0
  9
$DIMSD1
 70
     0
  9
$DIMSD2
 70
     0
  9
$DIMTOLJ
 70
     1
  9
$DIMTZIN
 70
     0
  9
$DIMALTZ
 70
     0
  9
$DIMALTTZ
 70
     0
  9
$DIMUPT
 70
     0
  9
$DIMDEC
 70
     4
  9
$DIMTDEC
 70
     4
  9
$DIMALTU
 70
     2
  9
$DIMALTTD
 70
     2
  9
$DIMTXSTY
  7
STANDARD
  9
$DIMAUNIT
 70
     0
  9
$DIMADEC
 70
     0
  9
$DIMALTRND
 40
0.0
  9
$DIMAZIN
 70
     0
  9
$DIMDSEP
 70
    46
  9
$DIMATFIT
 70
     3
  9
$DIMFRAC
 70
     0
  9
$DIMLDRBLK
  1

  9
$DIMLUNIT
 70
     2
  9
$DIMLWD
 70
    -2
  9
$DIMLWE
 70
    -2
  9
$DIMTMOVE
 70
     0
  9
$LUNITS
 70
     2
  9
$LUPREC
 70
     4
  9
$SKETCHINC
 40
0.1
  9
$FILLETRAD
 40
2.0
  9
$AUNITS
 70
     0
  9
$AUPREC
 70
     0
  9
$MENU
  1
ACAD
  9
$ELEVATION
 40
0.0
  9
$PELEVATION
 40
0.0
  9
$THICKNESS
 40
0.0
  9
$LIMCHECK
 70
     0
  9
$CHAMFERA
 40
0.0
  9
$CHAMFERB
 40
0.0
  9
$CHAMFERC
 40
0.0
  9
$CHAMFERD
 40
0.0
  9
$SKPOLY
 70
     0
  9
$TDCREATE
 40
2452093.879930556
  9
$TDUCREATE
 40
2452094.046597223
  9
$TDUPDATE
 40
2453209.434000417
  9
$TDUUPDATE
 40
2453209.600667083
  9
$TDINDWG
 40
0.0005853009
  9
$TDUSRTIMER
 40
0.0005853009
  9
$USRTIMER
 70
     1
  9
$ANGBASE
 50
0.0
  9
$ANGDIR
 70
     0
  9
$PDMODE
 70
     0
  9
$PDSIZE
 40
0.0
  9
$PLINEWID
 40
0.0
  9
$SPLFRAME
 70
     0
  9
$SPLINETYPE
 70
     6
  9
$SPLINESEGS
 70
     8
  9
$HANDSEED
  5
1E2
  9
$SURFTAB1
 70
     6
  9
$SURFTAB2
 70
     6
  9
$SURFTYPE
 70
     6
  9
$SURFU
 70
     6
  9
$SURFV
 70
     6
  9
$UCSBASE
  2

  9
$UCSNAME
  2

  9
$UCSORG
 10
0.0
 20
0.0
 30
0.0
  9
$UCSXDIR
 10
1.0
 20
0.0
 30
0.0
  9
$UCSYDIR
 10
0.0
 20
1.0
 30
0.0
  9
$UCSORTHOREF
  2

  9
$UCSORTHOVIEW
 70
     0
  9
$UCSORGTOP
 10
0.0
 20
0.0
 30
0.0
  9
$UCSORGBOTTOM
 10
0.0
 20
0.0
 30
0.0
  9
$UCSORGLEFT
 10
0.0
 20
0.0
 30
0.0
  9
$UCSORGRIGHT
 10
0.0
 20
0.0
 30
0.0
  9
$UCSORGFRONT
 10
0.0
 20
0.0
 30
0.0
  9
$UCSORGBACK
 10
0.0
 20
0.0
 30
0.0
  9
$PUCSBASE
  2

  9
$PUCSNAME
  2

  9
$PUCSORG
 10
0.0
 20
0.0
 30
0.0
  9
$PUCSXDIR
 10
1.0
 20
0.0
 30
0.0
  9
$PUCSYDIR
 10
0.0
 20
1.0
 30
0.0
  9
$PUCSORTHOREF
  2

  9
$PUCSORTHOVIEW
 70
     0
  9
$PUCSORGTOP
 10
0.0
 20
0.0
 30
0.0
  9
$PUCSORGBOTTOM
 10
0.0
 20
0.0
 30
0.0
  9
$PUCSORGLEFT
 10
0.0
 20
0.0
 30
0.0
  9
$PUCSORGRIGHT
 10
0.0
 20
0.0
 30
0.0
  9
$PUCSORGFRONT
 10
0.0
 20
0.0
 30
0.0
  9
$PUCSORGBACK
 10
0.0
 20
0.0
 30
0.0
  9
$USERI1
 70
     0
  9
$USERI2
 70
     0
  9
$USERI3
 70
     0
  9
$USERI4
 70
     0
  9
$USERI5
 70
     0
  9
$USERR1
 40
0.0
  9
$USERR2
 40
0.0
  9
$USERR3
 40
0.0
  9
$USERR4
 40
0.0
  9
$USERR5
 40
0.0
  9
$WORLDVIEW
 70
     1
  9
$SHADEDGE
 70
     3
  9
$SHADEDIF
 70
    70
  9
$TILEMODE
 70
     1
  9
$MAXACTVP
 70
    64
  9
$PINSBASE
 10
0.0
 20
0.0
 30
0.0
  9
$PLIMCHECK
 70
     0
  9
$PEXTMIN
 10
1.000000000000000E+20
 20
1.000000000000000E+20
 30
1.000000000000000E+20
  9
$PEXTMAX
 10
-1.000000000000000E+20
 20
-1.000000000000000E+20
 30
-1.000000000000000E+20
  9
$PLIMMIN
 10
0.0
 20
0.0
  9
$PLIMMAX
 10
12.0
 20
9.0
  9
$UNITMODE
 70
     0
  9
$VISRETAIN
 70
     1
  9
$PLINEGEN
 70
     0
  9
$PSLTSCALE
 70
     1
  9
$TREEDEPTH
 70
  3020
  9
$CMLSTYLE
  2
Standard
  9
$CMLJUST
 70
     0
  9
$CMLSCALE
 40
1.0
  9
$PROXYGRAPHICS
 70
     1
  9
$MEASUREMENT
 70
     0
  9
$CELWEIGHT
370
    -1
  9
$ENDCAPS
280
     0
  9
$JOINSTYLE
280
     0
  9
$LWDISPLAY
290
     0
  9
$INSUNITS
 70
     0
  9
$HYPERLINKBASE
  1

  9
$STYLESHEET
  1

  9
$XEDIT
290
     1
  9
$CEPSNTYPE
380
     0
  9
$PSTYLEMODE
290
     1
  9
$FINGERPRINTGUID
  2
{F3E11446-A58F-47D8-8538-23ACDF5E6BC5}
  9
$VERSIONGUID
  2
{395C0B54-4DFD-41B7-B534-6978CB42AC9B}
  9
$EXTNAMES
290
     1
  9
$PSVPSCALE
 40
0.0
  9
$OLESTARTUP
290
     0
  9
$SORTENTS
280
   127
  9
$INDEXCTL
280
     0
  9
$HIDETEXT
280
     0
  9
$XCLIPFRAME
290
     0
  9
$HALOGAP
280
     0
  9
$OBSCOLOR
 70
   257
  9
$OBSLTYPE
280
     0
  9
$INTERSECTIONDISPLAY
280
     0
  9
$INTERSECTIONCOLOR
 70
   257
  9
$DIMASSOC
280
     1
  9
$PROJECTNAME
  1

  0
ENDSEC
  0
SECTION
  2
CLASSES
  0
CLASS
  1
ACDBDICTIONARYWDFLT
  2
AcDbDictionaryWithDefault
  3
ObjectDBX Classes
 90
        0
 91
        1
280
     0
281
     0
  0
ENDSEC
  0
SECTION
  2
TABLES
  0
TABLE
  2
VPORT
  5
1AE
330
0
100
AcDbSymbolTable
 70
     3
  0
VPORT
  5
1E1
330
1AE
100
AcDbSymbolTableRecord
100
AcDbViewportTableRecord
  2
*Active
 70
     0
 10
0.0
 20
0.0
 11
1.0
 21
1.0
 12
37.63158247717554
 22
62.07641765918443
 13
0.0
 23
0.0
 14
1.0
 24
1.0
 15
0.0
 25
0.0
 16
0.0
 26
0.0
 36
1.0
 17
0.0
 27
0.0
 37
0.0
 40
173.2322464478216
 41
1.625
 42
50.0
 43
0.0
 44
0.0
 50
0.0
 51
0.0
 71
     0
 72
   100
 73
     1
 74
     1
 75
     0
 76
     0
 77
     0
 78
     0
281
     0
 65
     1
110
0.0
120
0.0
130
0.0
111
1.0
121
0.0
131
0.0
112
0.0
122
1.0
132
0.0
 79
     0
146
0.0
  0
ENDTAB
  0
TABLE
  2
LTYPE
  5
1AB
330
0
100
AcDbSymbolTable
 70
     9
  0
LTYPE
  5
1B9
330
1AB
100
AcDbSymbolTableRecord
100
AcDbLinetypeTableRecord
  2
ByBlock
 70
     0
  3

 72
    65
 73
     0
 40
0.0
  0
LTYPE
  5
1BA
330
1AB
100
AcDbSymbolTableRecord
100
AcDbLinetypeTableRecord
  2
ByLayer
 70
     0
  3

 72
    65
 73
     0
 40
0.0
  0
LTYPE
  5
1BB
330
1AB
100
AcDbSymbolTableRecord
100
AcDbLinetypeTableRecord
  2
CONTINUOUS
 70
     0
  3
Solid line
 72
    65
 73
     0
 40
0.0
  0
LTYPE
  5
1CB
330
1AB
100
AcDbSymbolTableRecord
100
AcDbLinetypeTableRecord
  2
BORDER
 70
     0
  3
__ __ . __ __ .
 72
    65
 73
     6
 40
12.89155679349521
 49
3.683301940998631
 74
     0
 49
-1.841650970499314
 74
     0
 49
3.683301940998631
 74
     0
 49
-1.841650970499314
 74
     0
 49
0.0
 74
     0
 49
-1.841650970499314
 74
     0
  0
LTYPE
  5
1CC
330
1AB
100
AcDbSymbolTableRecord
100
AcDbLinetypeTableRecord
  2
CENTER
 70
     0
  3
____ _ ____ _
 72
    65
 73
     4
 40
14.73320776399452
 49
9.208254852496576
 74
     0
 49
-1.841650970499314
 74
     0
 49
1.841650970499314
 74
     0
 49
-1.841650970499314
 74
     0
  0
LTYPE
  5
1CD
330
1AB
100
AcDbSymbolTableRecord
100
AcDbLinetypeTableRecord
  2
DASHDOT
 70
     0
  3
__ . __ . __ .
 72
    65
 73
     4
 40
7.366603881997262
 49
3.683301940998631
 74
     0
 49
-1.841650970499314
 74
     0
 49
0.0
 74
     0
 49
-1.841650970499314
 74
     0
  0
LTYPE
  5
1CE
330
1AB
100
AcDbSymbolTableRecord
100
AcDbLinetypeTableRecord
  2
DASHED
 70
     0
  3
__ __ __ __ __
 72
    65
 73
     2
 40
5.524952911497945
 49
3.683301940998631
 74
     0
 49
-1.841650970499314
 74
     0
  0
LTYPE
  5
1CF
330
1AB
100
AcDbSymbolTableRecord
100
AcDbLinetypeTableRecord
  2
DIVIDE
 70
     0
  3
__ . . __ . . 
 72
    65
 73
     6
 40
9.208254852496576
 49
3.683301940998631
 74
     0
 49
-1.841650970499314
 74
     0
 49
0.0
 74
     0
 49
-1.841650970499314
 74
     0
 49
0.0
 74
     0
 49
-1.841650970499314
 74
     0
  0
LTYPE
  5
1D0
330
1AB
100
AcDbSymbolTableRecord
100
AcDbLinetypeTableRecord
  2
DOT
 70
     0
  3
..............
 72
    65
 73
     4
 40
3.683301940998631
 49
0.0
 74
     0
 49
-1.841650970499314
 74
     0
 49
0.0
 74
     0
 49
-1.841650970499314
 74
     0
  0
LTYPE
  5
1D1
330
1AB
100
AcDbSymbolTableRecord
100
AcDbLinetypeTableRecord
  2
HIDDEN
 70
     0
  3
_ _ _ _ _ _ _
 72
    65
 73
     2
 40
2.762476455748971
 49
1.841650970499314
 74
     0
 49
-0.9208254852496576
 74
     0
  0
LTYPE
  5
1D2
330
1AB
100
AcDbSymbolTableRecord
100
AcDbLinetypeTableRecord
  2
PHANTOM
 70
     0
  3
_____ _ _ _____ _ _ 
 72
    65
 73
     6
 40
18.41650970499313
 49
9.208254852496576
 74
     0
 49
-1.841650970499314
 74
     0
 49
1.841650970499314
 74
     0
 49
-1.841650970499314
 74
     0
 49
1.841650970499314
 74
     0
 49
-1.841650970499314
 74
     0
  0
ENDTAB
  0
TABLE
  2
LAYER
  5
1A8
330
0
100
AcDbSymbolTable
 70
     2
  0
LAYER
  5
1B6
330
1A8
100
AcDbSymbolTableRecord
100
AcDbLayerTableRecord
  2
0
 70
     0
 62
     7
  6
CONTINUOUS
370
    -3
390
1B5
  0
LAYER
  5
1D3
330
1A8
100
AcDbSymbolTableRecord
100
AcDbLayerTableRecord
  2
1
 70
     0
 62
     7
  6
CONTINUOUS
370
    -3
390
1B5
  0
ENDTAB
  0
TABLE
  2
STYLE
  5
1A9
330
0
100
AcDbSymbolTable
 70
     4
  0
STYLE
  5
1B7
330
1A9
100
AcDbSymbolTableRecord
100
AcDbTextStyleTableRecord
  2
STANDARD
 70
     0
 40
0.0
 41
1.0
 50
0.0
 71
     0
 42
3.5
  3
txt
  4

  0
STYLE
  5
1D4
330
1A9
100
AcDbSymbolTableRecord
100
AcDbTextStyleTableRecord
  2
SIMPLEX
 70
     0
 40
0.0
 41
1.0
 50
0.0
 71
     0
 42
3.5
  3
simplex
  4

  0
STYLE
  5
1D5
330
1A9
100
AcDbSymbolTableRecord
100
AcDbTextStyleTableRecord
  2
COMPLEX
 70
     0
 40
0.0
 41
1.0
 50
0.0
 71
     0
 42
3.5
  3
complex
  4

  0
STYLE
  5
1D6
330
1A9
100
AcDbSymbolTableRecord
100
AcDbTextStyleTableRecord
  2
ITALIC
 70
     0
 40
0.0
 41
1.0
 50
0.0
 71
     0
 42
3.5
  3
italic
  4

  0
ENDTAB
  0
TABLE
  2
VIEW
  5
1AC
330
0
100
AcDbSymbolTable
 70
     0
  0
ENDTAB
  0
TABLE
  2
UCS
  5
1AD
330
0
100
AcDbSymbolTable
 70
     0
  0
ENDTAB
  0
TABLE
  2
APPID
  5
1AF
330
0
100
AcDbSymbolTable
 70
     1
  0
APPID
  5
1B8
330
1AF
100
AcDbSymbolTableRecord
100
AcDbRegAppTableRecord
  2
ACAD
 70
     0
  0
ENDTAB
  0
TABLE
  2
DIMSTYLE
  5
1B0
330
0
100
AcDbSymbolTable
 70
     1
100
AcDbDimStyleTable
 71
     0
  0
DIMSTYLE
105
1D7
330
1B0
100
AcDbSymbolTableRecord
100
AcDbDimStyleTableRecord
  2
STANDARD
 70
     0
279
     2
340
1B7
  0
ENDTAB
  0
TABLE
  2
BLOCK_RECORD
  5
1A7
330
0
100
AcDbSymbolTable
 70
     2
  0
BLOCK_RECORD
  5
1C6
330
1A7
100
AcDbSymbolTableRecord
100
AcDbBlockTableRecord
  2
*Model_Space
340
1C9
  0
BLOCK_RECORD
  5
1C2
330
1A7
100
AcDbSymbolTableRecord
100
AcDbBlockTableRecord
  2
*Paper_Space
340
1C5
  0
BLOCK_RECORD
  5
1DC
330
1A7
100
AcDbSymbolTableRecord
100
AcDbBlockTableRecord
  2
$MODEL_SPACE
340
0
  0
BLOCK_RECORD
  5
1DE
330
1A7
100
AcDbSymbolTableRecord
100
AcDbBlockTableRecord
  2
$PAPER_SPACE
340
0
  0
ENDTAB
  0
ENDSEC
  0
SECTION
  2
BLOCKS
  0
BLOCK
  5
1C7
330
1C6
100
AcDbEntity
  8
0
100
AcDbBlockBegin
  2
*Model_Space
 70
     0
 10
0.0
 20
0.0
 30
0.0
  3
*Model_Space
  1

  0
ENDBLK
  5
1C8
330
1C6
100
AcDbEntity
  8
0
100
AcDbBlockEnd
  0
BLOCK
  5
1C3
330
1C2
100
AcDbEntity
 67
     1
  8
0
100
AcDbBlockBegin
  2
*Paper_Space
 70
     0
 10
0.0
 20
0.0
 30
0.0
  3
*Paper_Space
  1

  0
ENDBLK
  5
1C4
330
1C2
100
AcDbEntity
 67
     1
  8
0
100
AcDbBlockEnd
  0
BLOCK
  5
1DD
330
1DC
100
AcDbEntity
  8
0
100
AcDbBlockBegin
  2
$MODEL_SPACE
 70
     0
 10
0.0
 20
0.0
 30
0.0
  3
$MODEL_SPACE
  1

  0
ENDBLK
  5
20
330
1DC
100
AcDbEntity
  8
0
100
AcDbBlockEnd
  0
BLOCK
  5
1DF
330
1DE
100
AcDbEntity
  8
0
100
AcDbBlockBegin
  2
$PAPER_SPACE
 70
     0
 10
0.0
 20
0.0
 30
0.0
  3
$PAPER_SPACE
  1

  0
ENDBLK
  5
1C
330
1DE
100
AcDbEntity
  8
0
100
AcDbBlockEnd
  0
ENDSEC
  0
SECTION
  2
ENTITIES
  0
POINT
  5
33
330
1C6
100
AcDbEntity
  8
1
  6
DOT
 62
     7
100
AcDbPoint
 10
94.73231054289593
 20
38.6391112561011
 30
0.0
  0
LINE
  5
34
330
1C6
100
AcDbEntity
  8
1
 62
     7
100
AcDbLine
 10
75.23231054289593
 20
31.63911125610112
 30
0.0
 11
75.23231054289593
 21
34.13911125610109
 31
0.0
  0
LINE
  5
35
330
1C6
100
AcDbEntity
  8
1
 62
     7
100
AcDbLine
 10
68.8123105428959
 20
59.6391112561011
 30
0.0
 11
70.65231054289593
 21
59.6391112561011
 31
0.0
  0
LINE
  5
36
330
1C6
100
AcDbEntity
  8
1
 62
     7
100
AcDbLine
 10
67.23231054289596
 20
58.63911125610109
 30
0.0
 11
72.23231054289596
 21
58.63911125610109
 31
0.0
  0
LINE
  5
37
330
1C6
100
AcDbEntity
  8
1
  6
DASHDOT
 62
     3
100
AcDbLine
 10
164.6368823907899
 20
34.48806281340377
 30
0.0
 11
169.3097876591846
 21
31.79015969879844
 31
0.0
  0
LINE
  5
38
330
1C6
100
AcDbEntity
  8
1
 62
     7
100
AcDbLine
 10
158.4470555833584
 20
42.53911125610109
 30
0.0
 11
158.4470555833584
 21
41.46753838084728
 31
0.0
  0
LINE
  5
39
330
1C6
100
AcDbEntity
  8
1
 62
     7
100
AcDbLine
 10
156.4470555833584
 20
42.53911125610109
 30
0.0
 11
158.4470555833584
 21
42.53911125610109
 31
0.0
  0
LINE
  5
3A
330
1C6
100
AcDbEntity
  8
1
 62
     7
100
AcDbLine
 10
156.4470555833584
 20
41.46753838084728
 30
0.0
 11
156.4470555833584
 21
42.53911125610109
 31
0.0
  0
LINE
  5
3B
330
1C6
100
AcDbEntity
  8
1
 62
     7
100
AcDbLine
 10
153.4470555833584
 20
72.63911125610109
 30
0.0
 11
153.4470555833584
 21
58.38809857191048
 31
0.0
  0
LINE
  5
3C
330
1C6
100
AcDbEntity
  8
1
 62
     7
100
AcDbLine
 10
160.4470555833584
 20
73.63911125610106
 30
0.0
 11
154.4470555833584
 21
73.63911125610106
 31
0.0
  0
LINE
  5
3D
330
1C6
100
AcDbEntity
  8
1
 62
     7
100
AcDbLine
 10
161.4470555833584
 20
72.63911125610109
 30
0.0
 11
161.4470555833584
 21
60.6765285678643
 31
0.0
  0
LINE
  5
3E
330
1C6
100
AcDbEntity
  8
1
 62
     7
100
AcDbLine
 10
159.0470555833584
 20
69.28911125610108
 30
0.0
 11
159.0470555833584
 21
64.98911125610106
 31
0.0
  0
LINE
  5
3F
330
1C6
100
AcDbEntity
  8
1
 62
     7
100
AcDbLine
 10
155.8470555833584
 20
69.28911125610108
 30
0.0
 11
155.8470555833584
 21
64.98911125610106
 31
0.0
  0
LINE
  5
40
330
1C6
100
AcDbEntity
  8
1
 62
     7
100
AcDbLine
 10
171.2801475077881
 20
83.15569906235621
 30
0.0
 11
164.6595590508831
 21
58.44732656518292
 31
0.0
  0
LINE
  5
41
330
1C6
100
AcDbEntity
  8
1
 62
     7
100
AcDbLine
 10
169.5028439874163
 20
83.63192610534486
 30
0.0
 11
162.8822555305113
 21
58.92355360817155
 31
0.0
  0
LINE
  5
42
330
1C6
100
AcDbEntity
  8
1
 62
     7
100
AcDbLine
 10
167.7255404670443
 20
84.10815314833349
 30
0.0
 11
161.1049520101394
 21
59.39978065116017
 31
0.0
  0
LINE
  5
43
330
1C6
100
AcDbEntity
  8
1
 62
     7
100
AcDbLine
 10
159.7256590065416
 20
58.73408491719002
 30
0.0
 11
160.2529789352414
 21
58.5927899681421
 31
0.0
  0
LINE
  5
44
330
1C6
100
AcDbEntity
  8
1
 62
     7
100
AcDbLine
 10
160.4674409647885
 20
59.57060122092784
 30
0.0
 11
165.297070096234
 21
58.27650599541525
 31
0.0
  0
LINE
  5
45
330
1C6
100
AcDbEntity
  8
1
 62
     7
100
AcDbLine
 10
165.6506234868273
 20
57.66413355971943
 30
0.0
 11
165.297070096234
 21
58.27650599541525
 31
0.0
  0
LINE
  5
46
330
1C6
100
AcDbEntity
  8
1
 62
     7
100
AcDbLine
 10
165.521213964276
 20
57.18117064657491
 30
0.0
 11
165.6506234868273
 21
57.66413355971943
 31
0.0
  0
LINE
  5
47
330
1C6
100
AcDbEntity
  8
1
 62
     7
100
AcDbLine
 10
159.8550685290929
 20
59.21704783033455
 30
0.0
 11
159.7256590065416
 21
58.73408491719002
 31
0.0
  0
LINE
  5
48
330
1C6
100
AcDbEntity
  8
1
 62
     7
100
AcDbLine
 10
160.4674409647885
 20
59.57060122092784
 30
0.0
 11
159.8550685290929
 21
59.21704783033455
 31
0.0
  0
LINE
  5
49
330
1C6
100
AcDbEntity
  8
1
 62
     7
100
AcDbLine
 10
164.9938940355763
 20
57.32246559562284
 30
0.0
 11
165.521213964276
 21
57.18117064657491
 31
0.0
  0
LINE
  5
4A
330
1C6
100
AcDbEntity
  8
1
 62
     7
100
AcDbLine
 10
146.1613932080527
 20
47.46429254322552
 30
0.0
 11
147.1036929866677
 21
46.92025551238484
 31
0.0
  0
LINE
  5
4B
330
1C6
100
AcDbEntity
  8
1
 62
     7
100
AcDbLine
 10
170.732717958664
 20
44.00019092808776
 30
0.0
 11
169.790418180049
 21
43.45615389724708
 31
0.0
  0
LINE
  5
4C
330
1C6
100
AcDbEntity
  8
1
 62
     7
100
AcDbLine
 10
159.4470555833584
 20
24.45285029698998
 30
0.0
 11
159.4470555833584
 21
25.53884740547021
 31
0.0
  0
LINE
  5
4D
330
1C6
100
AcDbEntity
  8
1
 62
     7
100
AcDbLine
 10
155.4470555833584
 20
24.45285029698998
 30
0.0
 11
155.4470555833584
 21
25.54143455655397
 31
0.0
  0
LINE
  5
4E
330
1C6
100
AcDbEntity
  8
1
 62
     7
100
AcDbLine
 10
167.790418180049
 20
46.92025551238482
 30
0.0
 11
168.732717958664
 21
47.46429254322551
 31
0.0
  0
LINE
  5
4F
330
1C6
100
AcDbEntity
  8
1
 62
     7
100
AcDbLine
 10
145.1036929866679
 20
43.45615389724709
 30
0.0
 11
144.1613932080528
 21
44.00019092808777
 31
0.0
  0
LINE
  5
50
330
1C6
100
AcDbEntity
  8
1
 62
     7
100
AcDbLine
 10
62.23231054289596
 20
44.6391112561011
 30
0.0
 11
63.73231054289597
 21
44.6391112561011
 31
0.0
  0
LINE
  5
51
330
1C6
100
AcDbEntity
  8
1
 62
     7
100
AcDbLine
 10
62.23231054289596
 20
63.3891112561011
 30
0.0
 11
63.73231054289597
 21
63.3891112561011
 31
0.0
  0
LINE
  5
52
330
1C6
100
AcDbEntity
  8
1
 62
     7
100
AcDbLine
 10
62.23231054289596
 20
70.88911125610109
 30
0.0
 11
63.73231054289597
 21
70.88911125610109
 31
0.0
  0
LINE
  5
53
330
1C6
100
AcDbEntity
  8
1
 62
     7
100
AcDbLine
 10
63.73231054289597
 20
22.63911125610109
 30
0.0
 11
62.23231054289596
 21
22.63911125610109
 31
0.0
  0
LINE
  5
54
330
1C6
100
AcDbEntity
  8
1
 62
     7
100
AcDbLine
 10
62.23231054289596
 20
22.63911125610109
 30
0.0
 11
62.23231054289596
 21
32.63911125610106
 31
0.0
  0
LINE
  5
55
330
1C6
100
AcDbEntity
  8
1
 62
     7
100
AcDbLine
 10
62.23231054289596
 20
73.63911125610106
 30
0.0
 11
63.73231054289597
 21
73.63911125610106
 31
0.0
  0
LINE
  5
56
330
1C6
100
AcDbEntity
  8
1
 62
     7
100
AcDbLine
 10
74.73231054289596
 20
46.13911125610109
 30
0.0
 11
78.73231054289596
 21
46.13911125610109
 31
0.0
  0
LINE
  5
57
330
1C6
100
AcDbEntity
  8
1
 62
     7
100
AcDbLine
 10
73.63231054289595
 20
46.48911125610108
 30
0.0
 11
73.63231054289595
 21
46.13911125610109
 31
0.0
  0
LINE
  5
58
330
1C6
100
AcDbEntity
  8
1
 62
     7
100
AcDbLine
 10
74.73231054289596
 20
46.48911125610108
 30
0.0
 11
73.73231054289596
 21
46.48911125610108
 31
0.0
  0
LINE
  5
59
330
1C6
100
AcDbEntity
  8
1
 62
     7
100
AcDbLine
 10
63.73231054289597
 20
46.63911125610109
 30
0.0
 11
64.59833594668039
 21
46.13911125610109
 31
0.0
  0
LINE
  5
5A
330
1C6
100
AcDbEntity
  8
1
 62
     7
100
AcDbLine
 10
81.23231054289593
 20
58.63911125610109
 30
0.0
 11
81.23231054289593
 21
56.93911125610109
 31
0.0
  0
LINE
  5
5B
330
1C6
100
AcDbEntity
  8
1
 62
     7
100
AcDbLine
 10
81.23231054289593
 20
58.63911125610109
 30
0.0
 11
72.23231054289596
 21
58.63911125610109
 31
0.0
  0
LINE
  5
5C
330
1C6
100
AcDbEntity
  8
1
 62
     7
100
AcDbLine
 10
75.7323105428959
 20
46.1391112561011
 30
0.0
 11
76.7323105428959
 21
46.1391112561011
 31
0.0
  0
LINE
  5
5D
330
1C6
100
AcDbEntity
  8
1
 62
     3
100
AcDbLine
 10
70.12231054289596
 20
86.88155033756116
 30
0.0
 11
70.12231054289596
 21
83.92074519292332
 31
0.0
  0
LINE
  5
5E
330
1C6
100
AcDbEntity
  8
1
 62
     3
100
AcDbLine
 10
69.34231054289593
 20
83.92074519292332
 30
0.0
 11
69.34231054289593
 21
86.88155033756116
 31
0.0
  0
LINE
  5
5F
330
1C6
100
AcDbEntity
  8
1
 62
     7
100
AcDbLine
 10
67.23231054289596
 20
59.6391112561011
 30
0.0
 11
66.73231054289596
 21
59.13911125610109
 31
0.0
  0
LINE
  5
60
330
1C6
100
AcDbEntity
  8
1
 62
     7
100
AcDbLine
 10
66.73231054289596
 20
59.13911125610109
 30
0.0
 11
66.73231054289596
 21
58.63911125610109
 31
0.0
  0
LINE
  5
61
330
1C6
100
AcDbEntity
  8
1
 62
     7
100
AcDbLine
 10
72.2323105428959
 20
59.6391112561011
 30
0.0
 11
70.65231054289593
 21
59.6391112561011
 31
0.0
  0
LINE
  5
62
330
1C6
100
AcDbEntity
  8
1
 62
     7
100
AcDbLine
 10
72.7323105428959
 20
58.63911125610109
 30
0.0
 11
72.7323105428959
 21
59.13911125610109
 31
0.0
  0
LINE
  5
63
330
1C6
100
AcDbEntity
  8
1
 62
     7
100
AcDbLine
 10
72.7323105428959
 20
59.13911125610109
 30
0.0
 11
72.2323105428959
 21
59.6391112561011
 31
0.0
  0
LINE
  5
64
330
1C6
100
AcDbEntity
  8
1
 62
     7
100
AcDbLine
 10
68.8123105428959
 20
59.6391112561011
 30
0.0
 11
67.23231054289596
 21
59.6391112561011
 31
0.0
  0
LINE
  5
65
330
1C6
100
AcDbEntity
  8
1
 62
     7
100
AcDbLine
 10
68.8123105428959
 20
83.92074519292332
 30
0.0
 11
68.8123105428959
 21
59.6391112561011
 31
0.0
  0
LINE
  5
66
330
1C6
100
AcDbEntity
  8
1
 62
     7
100
AcDbLine
 10
70.65231054289593
 20
83.92074519292332
 30
0.0
 11
70.65231054289593
 21
59.6391112561011
 31
0.0
  0
LINE
  5
67
330
1C6
100
AcDbEntity
  8
1
 62
     7
100
AcDbLine
 10
68.8123105428959
 20
83.92074519292332
 30
0.0
 11
70.65231054289593
 21
83.92074519292332
 31
0.0
  0
LINE
  5
68
330
1C6
100
AcDbEntity
  8
1
 62
     7
100
AcDbLine
 10
67.23231054289596
 20
58.63911125610109
 30
0.0
 11
65.73231054289596
 21
58.63911125610109
 31
0.0
  0
LINE
  5
69
330
1C6
100
AcDbEntity
  8
1
 62
     7
100
AcDbLine
 10
73.73231054289596
 20
44.93911125610106
 30
0.0
 11
74.73231054289596
 21
44.93911125610106
 31
0.0
  0
LINE
  5
6A
330
1C6
100
AcDbEntity
  8
1
 62
     7
100
AcDbLine
 10
64.27231054289596
 20
41.63911125610109
 30
0.0
 11
68.19231054289595
 21
41.63911125610109
 31
0.0
  0
LINE
  5
6B
330
1C6
100
AcDbEntity
  8
1
 62
     7
100
AcDbLine
 10
64.27231054289596
 20
46.13911125610109
 30
0.0
 11
73.19231054289595
 21
46.13911125610109
 31
0.0
  0
LINE
  5
6C
330
1C6
100
AcDbEntity
  8
1
 62
     7
100
AcDbLine
 10
65.55731054289596
 20
45.05824555121008
 30
0.0
 11
63.73231054289597
 21
45.05824555121007
 31
0.0
  0
LINE
  5
6D
330
1C6
100
AcDbEntity
  8
1
 62
     7
100
AcDbLine
 10
65.55731054289596
 20
42.71997696099209
 30
0.0
 11
63.73231054289597
 21
42.71997696099209
 31
0.0
  0
LINE
  5
6E
330
1C6
100
AcDbEntity
  8
1
 62
     7
100
AcDbLine
 10
66.90731054289597
 20
42.71997696099209
 30
0.0
 11
70.55731054289596
 21
42.71997696099209
 31
0.0
  0
LINE
  5
6F
330
1C6
100
AcDbEntity
  8
1
 62
     7
100
AcDbLine
 10
69.27231054289594
 20
41.63911125610109
 30
0.0
 11
73.19231054289595
 21
41.63911125610109
 31
0.0
  0
LINE
  5
70
330
1C6
100
AcDbEntity
  8
1
 62
     7
100
AcDbLine
 10
71.90731054289596
 20
45.05824555121008
 30
0.0
 11
73.73231054289596
 21
45.05824555121007
 31
0.0
  0
LINE
  5
71
330
1C6
100
AcDbEntity
  8
1
 62
     7
100
AcDbLine
 10
70.55731054289596
 20
45.05824555121008
 30
0.0
 11
66.90731054289597
 21
45.05824555121008
 31
0.0
  0
LINE
  5
72
330
1C6
100
AcDbEntity
  8
1
 62
     7
100
AcDbLine
 10
71.90731054289596
 20
42.71997696099209
 30
0.0
 11
73.73231054289596
 21
42.71997696099209
 31
0.0
  0
LINE
  5
73
330
1C6
100
AcDbEntity
  8
1
 62
     7
100
AcDbLine
 10
73.19231054289595
 20
46.13911125610109
 30
0.0
 11
73.63231054289595
 21
46.13911125610109
 31
0.0
  0
LINE
  5
74
330
1C6
100
AcDbEntity
  8
1
 62
     7
100
AcDbLine
 10
73.73231054289596
 20
46.48911125610108
 30
0.0
 11
73.63231054289595
 21
46.48911125610108
 31
0.0
  0
LINE
  5
75
330
1C6
100
AcDbEntity
  8
1
 62
     7
100
AcDbLine
 10
74.73231054289596
 20
43.13911125610109
 30
0.0
 11
74.73231054289596
 21
46.48911125610108
 31
0.0
  0
LINE
  5
76
330
1C6
100
AcDbEntity
  8
1
 62
     7
100
AcDbLine
 10
78.73231054289596
 20
45.6391112561011
 30
0.0
 11
78.73231054289596
 21
57.68911125610109
 31
0.0
  0
LINE
  5
77
330
1C6
100
AcDbEntity
  8
1
 62
     7
100
AcDbLine
 10
84.53231054289593
 20
33.63911125610108
 30
0.0
 11
84.73231054289596
 21
33.63911125610108
 31
0.0
  0
LINE
  5
78
330
1C6
100
AcDbEntity
  8
1
 62
     7
100
AcDbLine
 10
84.53231054289593
 20
51.63911125610109
 30
0.0
 11
83.53231054289594
 21
50.63911125610109
 31
0.0
  0
LINE
  5
79
330
1C6
100
AcDbEntity
  8
1
 62
     7
100
AcDbLine
 10
84.53231054289593
 20
58.63911125610109
 30
0.0
 11
84.53231054289593
 21
43.63911125610109
 31
0.0
  0
LINE
  5
7A
330
1C6
100
AcDbEntity
  8
1
 62
     7
100
AcDbLine
 10
92.73231054289594
 20
43.63911125610109
 30
0.0
 11
84.03231054289594
 21
43.63911125610109
 31
0.0
  0
LINE
  5
7B
330
1C6
100
AcDbEntity
  8
1
 62
     7
100
AcDbLine
 10
73.73231054289596
 20
43.13911125610109
 30
0.0
 11
75.23231054289593
 21
43.13911125610109
 31
0.0
  0
LINE
  5
7C
330
1C6
100
AcDbEntity
  8
1
 62
     7
100
AcDbLine
 10
75.23231054289593
 20
43.13911125610109
 30
0.0
 11
75.23231054289593
 21
45.6391112561011
 31
0.0
  0
LINE
  5
7D
330
1C6
100
AcDbEntity
  8
1
 62
     7
100
AcDbLine
 10
79.73231054289596
 20
56.93911125610109
 30
0.0
 11
81.73231054289596
 21
56.93911125610109
 31
0.0
  0
LINE
  5
7E
330
1C6
100
AcDbEntity
  8
1
 62
     7
100
AcDbLine
 10
81.73231054289596
 20
56.93911125610109
 30
0.0
 11
82.71380600051829
 21
58.63911125610109
 31
0.0
  0
LINE
  5
7F
330
1C6
100
AcDbEntity
  8
1
 62
     7
100
AcDbLine
 10
82.71380600051829
 20
58.63911125610109
 30
0.0
 11
84.53231054289593
 21
58.63911125610109
 31
0.0
  0
LINE
  5
80
330
1C6
100
AcDbEntity
  8
1
 62
     7
100
AcDbLine
 10
83.53231054289594
 20
50.63911125610109
 30
0.0
 11
83.53231054289594
 21
44.13911125610109
 31
0.0
  0
LINE
  5
81
330
1C6
100
AcDbEntity
  8
1
 62
     7
100
AcDbLine
 10
73.73231054289596
 20
42.53911125610109
 30
0.0
 11
92.73231054289594
 21
42.53911125610109
 31
0.0
  0
LINE
  5
82
330
1C6
100
AcDbEntity
  8
1
 62
     7
100
AcDbLine
 10
73.73231054289596
 20
41.63911125610109
 30
0.0
 11
92.73231054289594
 21
41.63911125610109
 31
0.0
  0
LINE
  5
83
330
1C6
100
AcDbEntity
  8
1
 62
     7
100
AcDbLine
 10
73.73231054289596
 20
43.13911125610109
 30
0.0
 11
73.73231054289596
 21
41.63911125610109
 31
0.0
  0
LINE
  5
84
330
1C6
100
AcDbEntity
  8
1
  6
DASHDOT
 62
     3
100
AcDbLine
 10
155.9212726572791
 20
38.6391112561011
 30
0.0
 11
158.9728385094377
 21
38.6391112561011
 31
0.0
  0
LINE
  5
85
330
1C6
100
AcDbEntity
  8
1
  6
DASHDOT
 62
     3
100
AcDbLine
 10
157.4470555833584
 20
37.11332833002178
 30
0.0
 11
157.4470555833584
 21
40.16489418218038
 31
0.0
  0
LINE
  5
86
330
1C6
100
AcDbEntity
  8
1
  6
DASHDOT
 62
     3
100
AcDbLine
 10
157.4470555833583
 20
46.9412081414958
 30
0.0
 11
157.4470555833583
 21
52.33701437070646
 31
0.0
  0
LINE
  5
87
330
1C6
100
AcDbEntity
  8
1
  6
DASHDOT
 62
     3
100
AcDbLine
 10
150.2572287759269
 20
34.48806281340365
 30
0.0
 11
145.5843235075321
 21
31.79015969879834
 31
0.0
  0
LINE
  5
88
330
1C6
100
AcDbEntity
  8
1
  6
DASHDOT
 62
     3
100
AcDbLine
 10
62.23231054289596
 20
38.6391112561011
 30
0.0
 11
59.23231054289598
 21
38.6391112561011
 31
0.0
  0
LINE
  5
89
330
1C6
100
AcDbEntity
  8
1
 62
     7
100
AcDbLine
 10
12.88085310792496
 20
38.6391112561011
 30
0.0
 11
12.88085310792496
 21
25.38911125610109
 31
0.0
  0
LINE
  5
8A
330
1C6
100
AcDbEntity
  8
1
 62
     7
100
AcDbLine
 10
-18.11914689207501
 20
38.6391112561011
 30
0.0
 11
-18.11914689207501
 21
73.63911125610106
 31
0.0
  0
LINE
  5
8B
330
1C6
100
AcDbEntity
  8
1
 62
     7
100
AcDbLine
 10
-13.03914689207508
 20
59.6391112561011
 30
0.0
 11
-11.19914689207504
 21
59.6391112561011
 31
0.0
  0
LINE
  5
8C
330
1C6
100
AcDbEntity
  8
1
 62
     7
100
AcDbLine
 10
-14.61914689207502
 20
58.63911125610109
 30
0.0
 11
-9.619146892075036
 21
58.63911125610109
 31
0.0
  0
LINE
  5
8D
330
1C6
100
AcDbEntity
  8
1
 62
     7
100
AcDbLine
 10
-18.11914689207501
 20
22.63911125610109
 30
0.0
 11
-19.619146892075
 21
22.63911125610109
 31
0.0
  0
LINE
  5
8E
330
1C6
100
AcDbEntity
  8
1
 62
     7
100
AcDbLine
 10
-19.619146892075
 20
22.63911125610109
 30
0.0
 11
-19.619146892075
 21
73.63911125610106
 31
0.0
  0
LINE
  5
8F
330
1C6
100
AcDbEntity
  8
1
 62
     7
100
AcDbLine
 10
-19.619146892075
 20
73.63911125610106
 30
0.0
 11
-18.11914689207501
 21
73.63911125610106
 31
0.0
  0
LINE
  5
90
330
1C6
100
AcDbEntity
  8
1
 62
     7
100
AcDbLine
 10
-0.6191468920750367
 20
18.63911125610108
 30
0.0
 11
-0.6191468920750367
 21
58.63911125610109
 31
0.0
  0
LINE
  5
91
330
1C6
100
AcDbEntity
  8
1
 62
     7
100
AcDbLine
 10
-0.6191468920750367
 20
18.63911125610108
 30
0.0
 11
-16.11914689207503
 21
18.63911125610108
 31
0.0
  0
LINE
  5
92
330
1C6
100
AcDbEntity
  8
1
 62
     7
100
AcDbLine
 10
-0.6191468920750367
 20
58.63911125610109
 30
0.0
 11
-9.619146892075036
 21
58.63911125610109
 31
0.0
  0
LINE
  5
93
330
1C6
100
AcDbEntity
  8
1
 62
     7
100
AcDbLine
 10
-14.61914689207501
 20
59.6391112561011
 30
0.0
 11
-15.11914689207501
 21
59.13911125610109
 31
0.0
  0
LINE
  5
94
330
1C6
100
AcDbEntity
  8
1
 62
     7
100
AcDbLine
 10
-15.11914689207501
 20
59.13911125610109
 30
0.0
 11
-15.11914689207501
 21
58.63911125610109
 31
0.0
  0
LINE
  5
95
330
1C6
100
AcDbEntity
  8
1
 62
     7
100
AcDbLine
 10
-9.619146892075063
 20
59.6391112561011
 30
0.0
 11
-11.19914689207504
 21
59.6391112561011
 31
0.0
  0
LINE
  5
96
330
1C6
100
AcDbEntity
  8
1
 62
     7
100
AcDbLine
 10
-9.119146892075063
 20
58.63911125610109
 30
0.0
 11
-9.119146892075063
 21
59.13911125610109
 31
0.0
  0
LINE
  5
97
330
1C6
100
AcDbEntity
  8
1
 62
     7
100
AcDbLine
 10
-9.119146892075063
 20
59.13911125610109
 30
0.0
 11
-9.619146892075063
 21
59.6391112561011
 31
0.0
  0
LINE
  5
98
330
1C6
100
AcDbEntity
  8
1
 62
     7
100
AcDbLine
 10
-13.03914689207508
 20
59.6391112561011
 30
0.0
 11
-14.61914689207501
 21
59.6391112561011
 31
0.0
  0
LINE
  5
99
330
1C6
100
AcDbEntity
  8
1
 62
     7
100
AcDbLine
 10
-13.03914689207508
 20
83.92074519292332
 30
0.0
 11
-13.03914689207508
 21
59.6391112561011
 31
0.0
  0
LINE
  5
9A
330
1C6
100
AcDbEntity
  8
1
 62
     7
100
AcDbLine
 10
-11.19914689207504
 20
83.92074519292332
 30
0.0
 11
-11.19914689207504
 21
59.6391112561011
 31
0.0
  0
LINE
  5
9B
330
1C6
100
AcDbEntity
  8
1
 62
     7
100
AcDbLine
 10
-14.61914689207502
 20
58.63911125610109
 30
0.0
 11
-16.11914689207503
 21
58.63911125610109
 31
0.0
  0
LINE
  5
9C
330
1C6
100
AcDbEntity
  8
1
 62
     7
100
AcDbLine
 10
-18.11914689207503
 20
20.63911125610109
 30
0.0
 11
-18.11914689207501
 21
38.6391112561011
 31
0.0
  0
LINE
  5
9D
330
1C6
100
AcDbEntity
  8
1
 62
     7
100
AcDbLine
 10
2.680853107924944
 20
18.63911125610108
 30
0.0
 11
2.680853107924944
 21
58.63911125610109
 31
0.0
  0
LINE
  5
9E
330
1C6
100
AcDbEntity
  8
1
 62
     7
100
AcDbLine
 10
0.8623485655473357
 20
18.63911125610108
 30
0.0
 11
0.8623485655473357
 21
58.63911125610109
 31
0.0
  0
LINE
  5
9F
330
1C6
100
AcDbEntity
  8
1
 62
     7
100
AcDbLine
 10
-0.1191468920750367
 20
20.33911125610109
 30
0.0
 11
-0.1191468920750367
 21
56.93911125610109
 31
0.0
  0
LINE
  5
A0
330
1C6
100
AcDbEntity
  8
1
 62
     7
100
AcDbLine
 10
2.680853107924944
 20
33.63911125610108
 30
0.0
 11
2.880853107924961
 21
33.63911125610108
 31
0.0
  0
LINE
  5
A1
330
1C6
100
AcDbEntity
  8
1
 62
     7
100
AcDbLine
 10
2.680853107924944
 20
18.63911125610108
 30
0.0
 11
0.8623485655473357
 21
18.63911125610108
 31
0.0
  0
LINE
  5
A2
330
1C6
100
AcDbEntity
  8
1
 62
     7
100
AcDbLine
 10
-0.1191468920750367
 20
56.93911125610109
 30
0.0
 11
0.8623485655473357
 21
58.63911125610109
 31
0.0
  0
LINE
  5
A3
330
1C6
100
AcDbEntity
  8
1
 62
     7
100
AcDbLine
 10
0.8623485655473357
 20
58.63911125610109
 30
0.0
 11
2.680853107924944
 21
58.63911125610109
 31
0.0
  0
LINE
  5
A4
330
1C6
100
AcDbEntity
  8
1
 62
     7
100
AcDbLine
 10
0.8623485655473357
 20
18.63911125610108
 30
0.0
 11
-0.1191468920750367
 21
20.33911125610109
 31
0.0
  0
LINE
  5
A5
330
1C6
100
AcDbEntity
  8
1
 62
     7
100
AcDbLine
 10
-0.1191468920750367
 20
20.33911125610109
 30
0.0
 11
-0.6191468920750367
 21
20.33911125610109
 31
0.0
  0
LINE
  5
A6
330
1C6
100
AcDbEntity
  8
1
 62
     7
100
AcDbLine
 10
6.08085310792498
 20
31.38911125610109
 30
0.0
 11
6.08085310792498
 21
28.38911125610108
 31
0.0
  0
LINE
  5
A7
330
1C6
100
AcDbEntity
  8
1
 62
     7
100
AcDbLine
 10
5.580853107924951
 20
28.38911125610108
 30
0.0
 11
6.08085310792498
 21
28.38911125610108
 31
0.0
  0
LINE
  5
A8
330
1C6
100
AcDbEntity
  8
1
 62
     7
100
AcDbLine
 10
6.08085310792498
 20
31.38911125610109
 30
0.0
 11
6.08085310792498
 21
28.38911125610108
 31
0.0
  0
LINE
  5
A9
330
1C6
100
AcDbEntity
  8
1
 62
     7
100
AcDbLine
 10
5.580853107924951
 20
31.38911125610109
 30
0.0
 11
6.08085310792498
 21
31.38911125610109
 31
0.0
  0
LINE
  5
AA
330
1C6
100
AcDbEntity
  8
1
 62
     7
100
AcDbLine
 10
6.08085310792498
 20
31.38911125610109
 30
0.0
 11
6.08085310792498
 21
28.38911125610108
 31
0.0
  0
LINE
  5
AB
330
1C6
100
AcDbEntity
  8
1
 62
     7
100
AcDbLine
 10
2.880853107924961
 20
58.78911125610109
 30
0.0
 11
2.880853107924961
 21
18.48911125610108
 31
0.0
  0
LINE
  5
AC
330
1C6
100
AcDbEntity
  8
1
 62
     7
100
AcDbLine
 10
12.88085310792496
 20
25.38911125610109
 30
0.0
 11
5.580853107924951
 21
25.38911125610109
 31
0.0
  0
LINE
  5
AD
330
1C6
100
AcDbEntity
  8
1
 62
     7
100
AcDbLine
 10
12.88085310792496
 20
51.88911125610109
 30
0.0
 11
5.580853107924951
 21
51.88911125610109
 31
0.0
  0
LINE
  5
AE
330
1C6
100
AcDbEntity
  8
1
 62
     7
100
AcDbLine
 10
12.88085310792496
 20
51.88911125610109
 30
0.0
 11
12.88085310792496
 21
38.6391112561011
 31
0.0
  0
LINE
  5
AF
330
1C6
100
AcDbEntity
  8
1
 62
     7
100
AcDbLine
 10
2.880853107924961
 20
58.78911125610109
 30
0.0
 11
5.330853107924951
 21
58.78911125610109
 31
0.0
  0
LINE
  5
B0
330
1C6
100
AcDbEntity
  8
1
 62
     7
100
AcDbLine
 10
5.330853107924951
 20
58.78911125610109
 30
0.0
 11
5.330853107924951
 21
18.48911125610108
 31
0.0
  0
LINE
  5
B1
330
1C6
100
AcDbEntity
  8
1
 62
     7
100
AcDbLine
 10
5.330853107924951
 20
18.48911125610108
 30
0.0
 11
2.880853107924961
 21
18.48911125610108
 31
0.0
  0
LINE
  5
B2
330
1C6
100
AcDbEntity
  8
1
 62
     7
100
AcDbLine
 10
5.330853107924951
 20
58.13911125610109
 30
0.0
 11
5.580853107924951
 21
58.13911125610109
 31
0.0
  0
LINE
  5
B3
330
1C6
100
AcDbEntity
  8
1
 62
     7
100
AcDbLine
 10
5.580853107924951
 20
58.13911125610109
 30
0.0
 11
5.580853107924951
 21
19.13911125610108
 31
0.0
  0
LINE
  5
B4
330
1C6
100
AcDbEntity
  8
1
 62
     7
100
AcDbLine
 10
5.580853107924951
 20
19.13911125610108
 30
0.0
 11
5.330853107924951
 21
19.13911125610108
 31
0.0
  0
LINE
  5
B5
330
1C6
100
AcDbEntity
  8
1
 62
     7
100
AcDbLine
 10
5.580853107924951
 20
57.6391112561011
 30
0.0
 11
6.08085310792498
 21
57.6391112561011
 31
0.0
  0
LINE
  5
B6
330
1C6
100
AcDbEntity
  8
1
 62
     7
100
AcDbLine
 10
5.580853107924951
 20
54.6391112561011
 30
0.0
 11
6.08085310792498
 21
54.6391112561011
 31
0.0
  0
LINE
  5
B7
330
1C6
100
AcDbEntity
  8
1
 62
     7
100
AcDbLine
 10
6.08085310792498
 20
57.6391112561011
 30
0.0
 11
6.08085310792498
 21
54.6391112561011
 31
0.0
  0
LINE
  5
B8
330
1C6
100
AcDbEntity
  8
1
  6
DASHDOT
 62
     3
100
AcDbLine
 10
12.88085310792496
 20
38.6391112561011
 30
0.0
 11
15.88085310792496
 21
38.6391112561011
 31
0.0
  0
LINE
  5
B9
330
1C6
100
AcDbEntity
  8
1
  6
DASHDOT
 62
     3
100
AcDbLine
 10
-19.619146892075
 20
38.6391112561011
 30
0.0
 11
-22.619146892075
 21
38.6391112561011
 31
0.0
  0
LINE
  5
BA
330
1C6
100
AcDbEntity
  8
1
 62
     7
100
AcDbLine
 10
84.73231054289596
 20
43.63911125610109
 30
0.0
 11
84.73231054289589
 21
58.78911125610112
 31
0.0
  0
LINE
  5
BB
330
1C6
100
AcDbEntity
  8
1
  6
CENTER
 62
     3
100
AcDbLine
 10
86.3281816208309
 20
49.6391112561011
 30
0.0
 11
95.83643946496092
 21
49.6391112561011
 31
0.0
  0
LINE
  5
BC
330
1C6
100
AcDbEntity
  8
1
 62
     7
100
AcDbLine
 10
87.43231054289591
 20
28.88911125610109
 30
0.0
 11
87.43231054289591
 21
19.13911125610108
 31
0.0
  0
LINE
  5
BD
330
1C6
100
AcDbEntity
  8
1
 62
     7
100
AcDbLine
 10
90.45192578516656
 20
29.1891112561011
 30
0.0
 11
91.13231054289595
 21
29.1891112561011
 31
0.0
  0
LINE
  5
BE
330
1C6
100
AcDbEntity
  8
1
 62
     7
100
AcDbLine
 10
90.45192578516656
 20
31.58911125610108
 30
0.0
 11
91.13231054289595
 21
31.58911125610108
 31
0.0
  0
LINE
  5
BF
330
1C6
100
AcDbEntity
  8
1
 62
     7
100
AcDbLine
 10
90.45192578516656
 20
31.58911125610108
 30
0.0
 11
90.45192578516656
 21
29.1891112561011
 31
0.0
  0
LINE
  5
C0
330
1C6
100
AcDbEntity
  8
1
 62
     7
100
AcDbLine
 10
86.44319040127138
 20
27.63911125610109
 30
0.0
 11
86.88231054289589
 21
27.63911125610109
 31
0.0
  0
LINE
  5
C1
330
1C6
100
AcDbEntity
  8
1
 62
     7
100
AcDbLine
 10
86.44319040127138
 20
33.13911125610111
 30
0.0
 11
86.88231054289589
 21
33.13911125610111
 31
0.0
  0
LINE
  5
C2
330
1C6
100
AcDbEntity
  8
1
 62
     7
100
AcDbLine
 10
92.73231054289594
 20
46.1391112561011
 30
0.0
 11
92.73231054289594
 21
41.63911125610109
 31
0.0
  0
LINE
  5
C3
330
1C6
100
AcDbEntity
  8
1
 62
     7
100
AcDbLine
 10
94.73231054289593
 20
46.1391112561011
 30
0.0
 11
92.73231054289594
 21
46.1391112561011
 31
0.0
  0
LINE
  5
C4
330
1C6
100
AcDbEntity
  8
1
 62
     7
100
AcDbLine
 10
87.43231054289591
 20
33.13911125610111
 30
0.0
 11
92.73231054289594
 21
33.13911125610111
 31
0.0
  0
LINE
  5
C5
330
1C6
100
AcDbEntity
  8
1
 62
     7
100
AcDbLine
 10
87.43231054289591
 20
44.1391112561011
 30
0.0
 11
92.73231054289594
 21
44.13911125610109
 31
0.0
  0
LINE
  5
C6
330
1C6
100
AcDbEntity
  8
1
 62
     7
100
AcDbLine
 10
94.73231054289593
 20
25.3891112561011
 30
0.0
 11
87.43231054289591
 21
25.3891112561011
 31
0.0
  0
LINE
  5
C7
330
1C6
100
AcDbEntity
  8
1
 62
     7
100
AcDbLine
 10
94.73231054289593
 20
51.8891112561011
 30
0.0
 11
87.43231054289591
 21
51.8891112561011
 31
0.0
  0
LINE
  5
C8
330
1C6
100
AcDbEntity
  8
1
 62
     7
100
AcDbLine
 10
94.73231054289593
 20
51.8891112561011
 30
0.0
 11
94.73231054289593
 21
46.1391112561011
 31
0.0
  0
LINE
  5
C9
330
1C6
100
AcDbEntity
  8
1
 62
     7
100
AcDbLine
 10
92.73231054289594
 20
31.13911125610109
 30
0.0
 11
94.73231054289593
 21
31.13911125610109
 31
0.0
  0
LINE
  5
CA
330
1C6
100
AcDbEntity
  8
1
 62
     3
100
AcDbLine
 10
87.43231054289591
 20
48.1391112561011
 30
0.0
 11
94.73231054289593
 21
48.1391112561011
 31
0.0
  0
LINE
  5
CB
330
1C6
100
AcDbEntity
  8
1
 62
     3
100
AcDbLine
 10
87.43231054289591
 20
51.1391112561011
 30
0.0
 11
94.73231054289593
 21
51.1391112561011
 31
0.0
  0
LINE
  5
CC
330
1C6
100
AcDbEntity
  8
1
 62
     7
100
AcDbLine
 10
87.43231054289591
 20
48.43911125610111
 30
0.0
 11
94.73231054289593
 21
48.43911125610111
 31
0.0
  0
LINE
  5
CD
330
1C6
100
AcDbEntity
  8
1
 62
     7
100
AcDbLine
 10
87.43231054289591
 20
50.83911125610109
 30
0.0
 11
94.73231054289593
 21
50.83911125610109
 31
0.0
  0
LINE
  5
CE
330
1C6
100
AcDbEntity
  8
1
 62
     7
100
AcDbLine
 10
89.93231054289591
 20
31.88911125610109
 30
0.0
 11
87.1823105428959
 21
31.88911125610109
 31
0.0
  0
LINE
  5
CF
330
1C6
100
AcDbEntity
  8
1
 62
     7
100
AcDbLine
 10
89.93231054289591
 20
31.88911125610109
 30
0.0
 11
90.45192578516656
 21
31.58911125610108
 31
0.0
  0
LINE
  5
D0
330
1C6
100
AcDbEntity
  8
1
 62
     7
100
AcDbLine
 10
90.45192578516656
 20
29.1891112561011
 30
0.0
 11
89.93231054289591
 21
28.88911125610109
 31
0.0
  0
LINE
  5
D1
330
1C6
100
AcDbEntity
  8
1
 62
     7
100
AcDbLine
 10
89.93231054289591
 20
28.88911125610109
 30
0.0
 11
87.1823105428959
 21
28.88911125610109
 31
0.0
  0
LINE
  5
D2
330
1C6
100
AcDbEntity
  8
1
 62
     3
100
AcDbLine
 10
90.45192578516656
 20
31.58911125610108
 30
0.0
 11
87.1823105428959
 21
31.58911125610108
 31
0.0
  0
LINE
  5
D3
330
1C6
100
AcDbEntity
  8
1
 62
     7
100
AcDbLine
 10
89.93231054289591
 20
28.88911125610109
 30
0.0
 11
89.93231054289591
 21
31.88911125610109
 31
0.0
  0
LINE
  5
D4
330
1C6
100
AcDbEntity
  8
1
 62
     7
100
AcDbLine
 10
91.13231054289595
 20
31.58911125610108
 30
0.0
 11
91.13231054289595
 21
29.1891112561011
 31
0.0
  0
LINE
  5
D5
330
1C6
100
AcDbEntity
  8
1
 62
     3
100
AcDbLine
 10
90.45192578516656
 20
29.1891112561011
 30
0.0
 11
87.1823105428959
 21
29.1891112561011
 31
0.0
  0
LINE
  5
D6
330
1C6
100
AcDbEntity
  8
1
 62
     7
100
AcDbLine
 10
91.13231054289595
 20
31.58911125610108
 30
0.0
 11
91.82513086592349
 21
30.3891112561011
 31
0.0
  0
LINE
  5
D7
330
1C6
100
AcDbEntity
  8
1
 62
     7
100
AcDbLine
 10
91.82513086592349
 20
30.3891112561011
 30
0.0
 11
91.13231054289595
 21
29.1891112561011
 31
0.0
  0
LINE
  5
D8
330
1C6
100
AcDbEntity
  8
1
 62
     7
100
AcDbLine
 10
84.73231054289589
 20
18.4891112561011
 30
0.0
 11
84.73231054289596
 21
33.63911125610108
 31
0.0
  0
LINE
  5
D9
330
1C6
100
AcDbEntity
  8
1
 62
     7
100
AcDbLine
 10
84.73231054289589
 20
58.78911125610112
 30
0.0
 11
87.18231054289594
 21
58.78911125610109
 31
0.0
  0
LINE
  5
DA
330
1C6
100
AcDbEntity
  8
1
 62
     7
100
AcDbLine
 10
87.18231054289594
 20
58.78911125610109
 30
0.0
 11
87.18231054289594
 21
57.1391112561011
 31
0.0
  0
LINE
  5
DB
330
1C6
100
AcDbEntity
  8
1
 62
     7
100
AcDbLine
 10
87.1823105428959
 20
55.1391112561011
 30
0.0
 11
87.1823105428959
 21
43.63911125610109
 31
0.0
  0
LINE
  5
DC
330
1C6
100
AcDbEntity
  8
1
 62
     7
100
AcDbLine
 10
87.1823105428959
 20
18.4891112561011
 30
0.0
 11
84.73231054289589
 21
18.4891112561011
 31
0.0
  0
LINE
  5
DD
330
1C6
100
AcDbEntity
  8
1
 62
     7
100
AcDbLine
 10
84.73231054289589
 20
57.3891112561011
 30
0.0
 11
85.73231054289591
 21
57.3891112561011
 31
0.0
  0
LINE
  5
DE
330
1C6
100
AcDbEntity
  8
1
 62
     7
100
AcDbLine
 10
85.73231054289591
 20
57.3891112561011
 30
0.0
 11
85.73231054289591
 21
54.8891112561011
 31
0.0
  0
LINE
  5
DF
330
1C6
100
AcDbEntity
  8
1
 62
     7
100
AcDbLine
 10
85.73231054289591
 20
54.8891112561011
 30
0.0
 11
84.73231054289589
 21
54.8891112561011
 31
0.0
  0
LINE
  5
E0
330
1C6
100
AcDbEntity
  8
1
 62
     7
100
AcDbLine
 10
84.73231054289589
 20
46.8891112561011
 30
0.0
 11
87.1823105428959
 21
46.8891112561011
 31
0.0
  0
LINE
  5
E1
330
1C6
100
AcDbEntity
  8
1
 62
     7
100
AcDbLine
 10
84.73231054289589
 20
27.08911125610109
 30
0.0
 11
87.1823105428959
 21
27.08911125610109
 31
0.0
  0
LINE
  5
E2
330
1C6
100
AcDbEntity
  8
1
 62
     7
100
AcDbLine
 10
87.18231054289594
 20
58.13911125610109
 30
0.0
 11
87.43231054289591
 21
58.1391112561011
 31
0.0
  0
LINE
  5
E3
330
1C6
100
AcDbEntity
  8
1
 62
     7
100
AcDbLine
 10
87.43231054289591
 20
58.1391112561011
 30
0.0
 11
87.43231054289591
 21
57.1391112561011
 31
0.0
  0
LINE
  5
E4
330
1C6
100
AcDbEntity
  8
1
 62
     7
100
AcDbLine
 10
87.43231054289591
 20
55.1391112561011
 30
0.0
 11
87.43231054289591
 21
43.63911125610109
 31
0.0
  0
LINE
  5
E5
330
1C6
100
AcDbEntity
  8
1
 62
     7
100
AcDbLine
 10
87.43231054289591
 20
19.13911125610108
 30
0.0
 11
87.1823105428959
 21
19.13911125610108
 31
0.0
  0
LINE
  5
E6
330
1C6
100
AcDbEntity
  8
1
 62
     7
100
AcDbLine
 10
87.18231054289594
 20
57.1391112561011
 30
0.0
 11
87.43231054289591
 21
57.1391112561011
 31
0.0
  0
LINE
  5
E7
330
1C6
100
AcDbEntity
  8
1
 62
     7
100
AcDbLine
 10
87.1823105428959
 20
55.1391112561011
 30
0.0
 11
87.43231054289591
 21
55.1391112561011
 31
0.0
  0
LINE
  5
E8
330
1C6
100
AcDbEntity
  8
1
 62
     7
100
AcDbLine
 10
87.43231054289594
 20
57.6391112561011
 30
0.0
 11
87.9323105428959
 21
57.6391112561011
 31
0.0
  0
LINE
  5
E9
330
1C6
100
AcDbEntity
  8
1
 62
     7
100
AcDbLine
 10
87.43231054289591
 20
54.6391112561011
 30
0.0
 11
87.9323105428959
 21
54.6391112561011
 31
0.0
  0
LINE
  5
EA
330
1C6
100
AcDbEntity
  8
1
 62
     7
100
AcDbLine
 10
87.9323105428959
 20
57.6391112561011
 30
0.0
 11
87.9323105428959
 21
54.6391112561011
 31
0.0
  0
LINE
  5
EB
330
1C6
100
AcDbEntity
  8
1
 62
     7
100
AcDbLine
 10
78.73231054289596
 20
31.13911125610108
 30
0.0
 11
74.73231054289596
 21
31.13911125610108
 31
0.0
  0
LINE
  5
EC
330
1C6
100
AcDbEntity
  8
1
 62
     7
100
AcDbLine
 10
73.63231054289595
 20
31.13911125610108
 30
0.0
 11
73.63231054289595
 21
30.78911125610108
 31
0.0
  0
LINE
  5
ED
330
1C6
100
AcDbEntity
  8
1
 62
     7
100
AcDbLine
 10
73.73231054289596
 20
30.78911125610108
 30
0.0
 11
74.73231054289596
 21
30.78911125610108
 31
0.0
  0
LINE
  5
EE
330
1C6
100
AcDbEntity
  8
1
 62
     7
100
AcDbLine
 10
64.59833594668039
 20
31.13911125610108
 30
0.0
 11
63.73231054289597
 21
30.63911125610109
 31
0.0
  0
LINE
  5
EF
330
1C6
100
AcDbEntity
  8
1
 62
     7
100
AcDbLine
 10
81.23231054289593
 20
20.33911125610108
 30
0.0
 11
81.23231054289593
 21
18.63911125610108
 31
0.0
  0
LINE
  5
F0
330
1C6
100
AcDbEntity
  8
1
 62
     7
100
AcDbLine
 10
76.7323105428959
 20
31.13911125610107
 30
0.0
 11
75.7323105428959
 21
31.13911125610107
 31
0.0
  0
LINE
  5
F1
330
1C6
100
AcDbEntity
  8
1
 62
     7
100
AcDbLine
 10
65.73231054289596
 20
18.63911125610108
 30
0.0
 11
81.23231054289593
 21
18.63911125610108
 31
0.0
  0
LINE
  5
F2
330
1C6
100
AcDbEntity
  8
1
 62
     7
100
AcDbLine
 10
74.73231054289596
 20
32.33911125610109
 30
0.0
 11
73.73231054289596
 21
32.33911125610109
 31
0.0
  0
LINE
  5
F3
330
1C6
100
AcDbEntity
  8
1
 62
     7
100
AcDbLine
 10
68.19231054289595
 20
35.6391112561011
 30
0.0
 11
64.27231054289596
 21
35.6391112561011
 31
0.0
  0
LINE
  5
F4
330
1C6
100
AcDbEntity
  8
1
 62
     7
100
AcDbLine
 10
73.19231054289595
 20
31.13911125610108
 30
0.0
 11
64.27231054289596
 21
31.13911125610108
 31
0.0
  0
LINE
  5
F5
330
1C6
100
AcDbEntity
  8
1
 62
     7
100
AcDbLine
 10
63.73231054289597
 20
32.21997696099209
 30
0.0
 11
65.55731054289596
 21
32.21997696099209
 31
0.0
  0
LINE
  5
F6
330
1C6
100
AcDbEntity
  8
1
 62
     7
100
AcDbLine
 10
63.73231054289597
 20
34.55824555121005
 30
0.0
 11
65.55731054289596
 21
34.55824555121008
 31
0.0
  0
LINE
  5
F7
330
1C6
100
AcDbEntity
  8
1
 62
     7
100
AcDbLine
 10
70.55731054289596
 20
34.55824555121008
 30
0.0
 11
66.90731054289597
 21
34.55824555121008
 31
0.0
  0
LINE
  5
F8
330
1C6
100
AcDbEntity
  8
1
 62
     7
100
AcDbLine
 10
73.19231054289595
 20
35.6391112561011
 30
0.0
 11
69.27231054289594
 21
35.6391112561011
 31
0.0
  0
LINE
  5
F9
330
1C6
100
AcDbEntity
  8
1
 62
     7
100
AcDbLine
 10
73.73231054289596
 20
32.21997696099209
 30
0.0
 11
71.90731054289596
 21
32.21997696099209
 31
0.0
  0
LINE
  5
FA
330
1C6
100
AcDbEntity
  8
1
 62
     7
100
AcDbLine
 10
66.90731054289597
 20
32.21997696099209
 30
0.0
 11
70.55731054289596
 21
32.21997696099209
 31
0.0
  0
LINE
  5
FB
330
1C6
100
AcDbEntity
  8
1
 62
     7
100
AcDbLine
 10
73.73231054289596
 20
34.55824555121005
 30
0.0
 11
71.90731054289596
 21
34.55824555121008
 31
0.0
  0
LINE
  5
FC
330
1C6
100
AcDbEntity
  8
1
 62
     7
100
AcDbLine
 10
73.63231054289595
 20
31.13911125610108
 30
0.0
 11
73.19231054289595
 21
31.13911125610108
 31
0.0
  0
LINE
  5
FD
330
1C6
100
AcDbEntity
  8
1
 62
     7
100
AcDbLine
 10
73.63231054289595
 20
30.78911125610108
 30
0.0
 11
73.73231054289596
 21
30.78911125610108
 31
0.0
  0
LINE
  5
FE
330
1C6
100
AcDbEntity
  8
1
 62
     7
100
AcDbLine
 10
73.73231054289596
 20
30.78911125610108
 30
0.0
 11
73.73231054289596
 21
35.6391112561011
 31
0.0
  0
LINE
  5
FF
330
1C6
100
AcDbEntity
  8
1
 62
     7
100
AcDbLine
 10
68.73231054289596
 20
31.67911125610109
 30
0.0
 11
68.73231054289596
 21
35.09911125610109
 31
0.0
  0
LINE
  5
100
330
1C6
100
AcDbEntity
  8
1
 62
     7
100
AcDbLine
 10
74.73231054289596
 20
30.78911125610108
 30
0.0
 11
74.73231054289596
 21
34.13911125610109
 31
0.0
  0
LINE
  5
101
330
1C6
100
AcDbEntity
  8
1
 62
     7
100
AcDbLine
 10
78.73231054289596
 20
19.58911125610113
 30
0.0
 11
78.73231054289596
 21
31.63911125610112
 31
0.0
  0
LINE
  5
102
330
1C6
100
AcDbEntity
  8
1
 62
     7
100
AcDbLine
 10
83.53231054289594
 20
26.63911125610109
 30
0.0
 11
84.53231054289593
 21
25.63911125610109
 31
0.0
  0
LINE
  5
103
330
1C6
100
AcDbEntity
  8
1
 62
     7
100
AcDbLine
 10
84.53231054289593
 20
33.63911125610108
 30
0.0
 11
84.53231054289593
 21
18.63911125610108
 31
0.0
  0
LINE
  5
104
330
1C6
100
AcDbEntity
  8
1
 62
     7
100
AcDbLine
 10
75.23231054289593
 20
34.13911125610109
 30
0.0
 11
73.73231054289596
 21
34.13911125610109
 31
0.0
  0
LINE
  5
105
330
1C6
100
AcDbEntity
  8
1
 62
     7
100
AcDbLine
 10
81.73231054289596
 20
20.33911125610108
 30
0.0
 11
79.73231054289596
 21
20.33911125610108
 31
0.0
  0
LINE
  5
106
330
1C6
100
AcDbEntity
  8
1
 62
     7
100
AcDbLine
 10
82.71380600051829
 20
18.63911125610108
 30
0.0
 11
81.73231054289596
 21
20.33911125610108
 31
0.0
  0
LINE
  5
107
330
1C6
100
AcDbEntity
  8
1
 62
     7
100
AcDbLine
 10
84.53231054289593
 20
18.63911125610108
 30
0.0
 11
82.71380600051829
 21
18.63911125610108
 31
0.0
  0
LINE
  5
108
330
1C6
100
AcDbEntity
  8
1
 62
     7
100
AcDbLine
 10
83.53231054289594
 20
33.13911125610109
 30
0.0
 11
83.53231054289594
 21
26.63911125610109
 31
0.0
  0
LINE
  5
109
330
1C6
100
AcDbEntity
  8
1
 62
     7
100
AcDbLine
 10
84.03231054289594
 20
33.63911125610108
 30
0.0
 11
92.73231054289594
 21
33.63911125610108
 31
0.0
  0
LINE
  5
10A
330
1C6
100
AcDbEntity
  8
1
 62
     7
100
AcDbLine
 10
87.1823105428959
 20
33.63911125610108
 30
0.0
 11
87.1823105428959
 21
18.4891112561011
 31
0.0
  0
LINE
  5
10B
330
1C6
100
AcDbEntity
  8
1
 62
     7
100
AcDbLine
 10
87.43231054289591
 20
33.63911125610108
 30
0.0
 11
87.43231054289591
 21
31.88911125610109
 31
0.0
  0
LINE
  5
10C
330
1C6
100
AcDbEntity
  8
1
 62
     7
100
AcDbLine
 10
63.73231054289597
 20
20.63911125610109
 30
0.0
 11
63.73231054289597
 21
35.09911125610109
 31
0.0
  0
LINE
  5
10D
330
1C6
100
AcDbEntity
  8
1
  6
DASHDOT
 62
     3
100
AcDbLine
 10
94.73231054289593
 20
38.6391112561011
 30
0.0
 11
97.73231054289595
 21
38.6391112561011
 31
0.0
  0
LINE
  5
10E
330
1C6
100
AcDbEntity
  8
1
 62
     7
100
AcDbLine
 10
73.73231054289596
 20
35.6391112561011
 30
0.0
 11
92.73231054289594
 21
35.6391112561011
 31
0.0
  0
LINE
  5
10F
330
1C6
100
AcDbEntity
  8
1
 62
     7
100
AcDbLine
 10
-0.6191468920750367
 20
56.93911125610109
 30
0.0
 11
-0.1191468920750367
 21
56.93911125610109
 31
0.0
  0
LINE
  5
110
330
1C6
100
AcDbEntity
  8
1
 62
     7
100
AcDbLine
 10
2.880853107924961
 20
43.6391112561011
 30
0.0
 11
2.680853107924944
 21
43.6391112561011
 31
0.0
  0
LINE
  5
111
330
1C6
100
AcDbEntity
  8
1
 62
     7
100
AcDbLine
 10
-16.11914689207503
 20
58.63911125610109
 30
0.0
 11
-16.11914689207503
 21
18.63911125610108
 31
0.0
  0
LINE
  5
112
330
1C6
100
AcDbEntity
  8
1
 62
     7
100
AcDbLine
 10
-89.54639540006228
 20
58.44732656518292
 30
0.0
 11
-96.16698385696723
 21
83.15569906235621
 31
0.0
  0
LINE
  5
113
330
1C6
100
AcDbEntity
  8
1
 62
     7
100
AcDbLine
 10
-87.76909187969037
 20
58.92355360817155
 30
0.0
 11
-94.38968033659536
 21
83.63192610534486
 31
0.0
  0
LINE
  5
114
330
1C6
100
AcDbEntity
  8
1
 62
     7
100
AcDbLine
 10
-90.18390644541316
 20
58.27650599541525
 30
0.0
 11
-86.33389193253746
 21
59.30811427498838
 31
0.0
  0
LINE
  5
115
330
1C6
100
AcDbEntity
  8
1
 62
     7
100
AcDbLine
 10
-90.18390644541316
 20
58.27650599541525
 30
0.0
 11
-90.53745983600633
 21
57.66413355971943
 31
0.0
  0
LINE
  5
116
330
1C6
100
AcDbEntity
  8
1
 62
     7
100
AcDbLine
 10
-90.53745983600633
 20
57.66413355971943
 30
0.0
 11
-90.34948472266231
 21
56.96260088616057
 31
0.0
  0
LINE
  5
117
330
1C6
100
AcDbEntity
  8
1
  6
DASHDOT
 62
     3
100
AcDbLine
 10
-83.85967485861675
 20
38.6391112561011
 30
0.0
 11
-80.80810900645813
 21
38.6391112561011
 31
0.0
  0
LINE
  5
118
330
1C6
100
AcDbEntity
  8
1
  6
DASHDOT
 62
     3
100
AcDbLine
 10
-82.33389193253746
 20
40.16489418218038
 30
0.0
 11
-82.33389193253746
 21
37.11332833002178
 31
0.0
  0
LINE
  5
119
330
1C6
100
AcDbEntity
  8
1
 62
     7
100
AcDbLine
 10
-86.33389193253746
 20
60.6765285678643
 30
0.0
 11
-92.61237681622343
 21
84.10815314833349
 31
0.0
  0
LINE
  5
11A
330
1C6
100
AcDbEntity
  8
1
 62
     7
100
AcDbLine
 10
-83.93389193253749
 20
69.2891112561011
 30
0.0
 11
-83.93389193253749
 21
64.98911125610106
 31
0.0
  0
LINE
  5
11B
330
1C6
100
AcDbEntity
  8
1
 62
     7
100
AcDbLine
 10
-80.73389193253744
 20
69.2891112561011
 30
0.0
 11
-80.73389193253744
 21
64.98911125610106
 31
0.0
  0
LINE
  5
11C
330
1C6
100
AcDbEntity
  8
1
 62
     7
100
AcDbLine
 10
-78.33389193253745
 20
72.63911125610109
 30
0.0
 11
-78.33389193253745
 21
55.60967400457822
 31
0.0
  0
LINE
  5
11D
330
1C6
100
AcDbEntity
  8
1
 62
     7
100
AcDbLine
 10
-79.33389193253745
 20
73.63911125610106
 30
0.0
 11
-85.33389193253745
 21
73.63911125610106
 31
0.0
  0
LINE
  5
11E
330
1C6
100
AcDbEntity
  8
1
 62
     7
100
AcDbLine
 10
-86.33389193253746
 20
72.63911125610109
 30
0.0
 11
-86.33389193253746
 21
55.60967400457822
 31
0.0
  0
LINE
  5
11F
330
1C6
100
AcDbEntity
  8
1
 62
     7
100
AcDbLine
 10
63.73231054289597
 20
32.63911125610106
 30
0.0
 11
62.23231054289596
 21
32.63911125610106
 31
0.0
  0
LINE
  5
120
330
1C6
100
AcDbEntity
  8
1
 62
     7
100
AcDbLine
 10
62.23231054289596
 20
44.6391112561011
 30
0.0
 11
62.23231054289596
 21
73.63911125610106
 31
0.0
  0
LINE
  5
121
330
1C6
100
AcDbEntity
  8
1
 62
     7
100
AcDbLine
 10
62.23231054289596
 20
32.63911125610106
 30
0.0
 11
62.23231054289596
 21
44.6391112561011
 31
0.0
  0
LINE
  5
122
330
1C6
100
AcDbEntity
  8
1
 62
     7
100
AcDbLine
 10
63.73231054289597
 20
42.17911125610109
 30
0.0
 11
63.73231054289597
 21
73.63911125610106
 31
0.0
  0
LINE
  5
123
330
1C6
100
AcDbEntity
  8
1
 62
     7
100
AcDbLine
 10
63.73231054289597
 20
35.09911125610109
 30
0.0
 11
63.73231054289597
 21
42.17911125610109
 31
0.0
  0
LINE
  5
124
330
1C6
100
AcDbEntity
  8
1
 62
     7
100
AcDbLine
 10
68.73231054289596
 20
42.17911125610109
 30
0.0
 11
68.73231054289596
 21
45.59911125610109
 31
0.0
  0
LINE
  5
125
330
1C6
100
AcDbEntity
  8
1
 62
     7
100
AcDbLine
 10
68.73231054289596
 20
35.09911125610109
 30
0.0
 11
68.73231054289596
 21
42.17911125610109
 31
0.0
  0
LINE
  5
126
330
1C6
100
AcDbEntity
  8
1
 62
     7
100
AcDbLine
 10
73.73231054289596
 20
41.63911125610109
 30
0.0
 11
73.73231054289596
 21
34.13911125610109
 31
0.0
  0
LINE
  5
127
330
1C6
100
AcDbEntity
  8
1
 62
     7
100
AcDbLine
 10
73.73231054289596
 20
35.6391112561011
 30
0.0
 11
73.73231054289596
 21
46.48911125610108
 31
0.0
  0
LINE
  5
128
330
1C6
100
AcDbEntity
  8
1
 62
     7
100
AcDbLine
 10
92.73231054289594
 20
41.63911125610109
 30
0.0
 11
92.73231054289594
 21
35.6391112561011
 31
0.0
  0
LINE
  5
129
330
1C6
100
AcDbEntity
  8
1
 62
     7
100
AcDbLine
 10
92.73231054289594
 20
35.6391112561011
 30
0.0
 11
92.73231054289594
 21
31.13911125610109
 31
0.0
  0
LINE
  5
12A
330
1C6
100
AcDbEntity
  8
1
 62
     7
100
AcDbLine
 10
94.73231054289593
 20
46.1391112561011
 30
0.0
 11
94.73231054289593
 21
31.13911125610109
 31
0.0
  0
LINE
  5
12B
330
1C6
100
AcDbEntity
  8
1
 62
     7
100
AcDbLine
 10
94.73231054289593
 20
31.13911125610109
 30
0.0
 11
94.73231054289593
 21
25.3891112561011
 31
0.0
  0
LINE
  5
12C
330
1C6
100
AcDbEntity
  8
1
 62
     7
100
AcDbLine
 10
78.73231054289596
 20
57.68911125610109
 30
0.0
 11
81.23231054289593
 21
57.68911125610109
 31
0.0
  0
LINE
  5
12D
330
1C6
100
AcDbEntity
  8
1
 62
     7
100
AcDbLine
 10
79.73231054289596
 20
45.6391112561011
 30
0.0
 11
79.73231054289596
 21
56.93911125610109
 31
0.0
  0
LINE
  5
12E
330
1C6
100
AcDbEntity
  8
1
 62
     7
100
AcDbLine
 10
75.23231054289593
 20
45.6391112561011
 30
0.0
 11
79.73231054289596
 21
45.6391112561011
 31
0.0
  0
LINE
  5
12F
330
1C6
100
AcDbEntity
  8
1
 62
     7
100
AcDbLine
 10
79.73231054289596
 20
31.63911125610112
 30
0.0
 11
75.23231054289593
 21
31.63911125610112
 31
0.0
  0
LINE
  5
130
330
1C6
100
AcDbEntity
  8
1
 62
     7
100
AcDbLine
 10
79.73231054289596
 20
20.33911125610108
 30
0.0
 11
79.73231054289596
 21
31.63911125610112
 31
0.0
  0
LINE
  5
131
330
1C6
100
AcDbEntity
  8
1
 62
     7
100
AcDbLine
 10
81.23231054289593
 20
19.58911125610113
 30
0.0
 11
78.73231054289596
 21
19.58911125610113
 31
0.0
  0
LINE
  5
132
330
1C6
100
AcDbEntity
  8
1
 62
     3
100
AcDbLine
 10
69.73231054289596
 20
83.92074519292332
 30
0.0
 11
69.73231054289596
 21
86.88155033756116
 31
0.0
  0
LINE
  5
133
330
1C6
100
AcDbEntity
  8
1
 62
     3
100
AcDbLine
 10
-11.72914689207501
 20
86.88155033756116
 30
0.0
 11
-11.72914689207501
 21
83.92074519292332
 31
0.0
  0
LINE
  5
134
330
1C6
100
AcDbEntity
  8
1
 62
     3
100
AcDbLine
 10
-12.50914689207505
 20
83.92074519292332
 30
0.0
 11
-12.50914689207505
 21
86.88155033756116
 31
0.0
  0
LINE
  5
135
330
1C6
100
AcDbEntity
  8
1
 62
     7
100
AcDbLine
 10
-13.03914689207508
 20
83.92074519292332
 30
0.0
 11
-11.19914689207504
 21
83.92074519292332
 31
0.0
  0
LINE
  5
136
330
1C6
100
AcDbEntity
  8
1
 62
     3
100
AcDbLine
 10
-12.11914689207503
 20
83.92074519292332
 30
0.0
 11
-12.11914689207503
 21
86.88155033756116
 31
0.0
  0
LINE
  5
137
330
1C6
100
AcDbEntity
  8
1
 62
     3
100
AcDbLine
 10
-93.89063026442656
 20
86.83089721024435
 30
0.0
 11
-93.1243175041566
 21
83.97097905442922
 31
0.0
  0
LINE
  5
138
330
1C6
100
AcDbEntity
  8
1
 62
     3
100
AcDbLine
 10
-93.87773964866212
 20
83.76910019924924
 30
0.0
 11
-94.64405240893187
 21
86.62901835506444
 31
0.0
  0
LINE
  5
139
330
1C6
100
AcDbEntity
  8
1
 62
     7
100
AcDbLine
 10
-92.61237681622343
 20
84.10815314833349
 30
0.0
 11
-96.16698385696723
 21
83.15569906235621
 31
0.0
  0
LINE
  5
13A
330
1C6
100
AcDbEntity
  8
1
 62
     3
100
AcDbLine
 10
-93.50102857640935
 20
83.87003962683921
 30
0.0
 11
-94.26734133667913
 21
86.72995778265438
 31
0.0
  0
LINE
  5
13B
330
1C6
100
AcDbEntity
  8
1
 62
     3
100
AcDbLine
 10
-95.66793378479843
 20
86.35467016725565
 30
0.0
 11
-94.90162102452853
 21
83.49475201144054
 31
0.0
  0
LINE
  5
13C
330
1C6
100
AcDbEntity
  8
1
 62
     3
100
AcDbLine
 10
-95.65504316903405
 20
83.29287315626059
 30
0.0
 11
-96.4213559293038
 21
86.15279131207577
 31
0.0
  0
LINE
  5
13D
330
1C6
100
AcDbEntity
  8
1
 62
     3
100
AcDbLine
 10
-95.27833209678124
 20
83.39381258385056
 30
0.0
 11
-96.04464485705106
 21
86.25373073966574
 31
0.0
  0
LINE
  5
13E
330
1C6
100
AcDbEntity
  8
1
 62
     3
100
AcDbLine
 10
168.2374811549776
 20
83.97097905442914
 30
0.0
 11
169.0037939152474
 21
86.83089721024435
 31
0.0
  0
LINE
  5
13F
330
1C6
100
AcDbEntity
  8
1
 62
     3
100
AcDbLine
 10
169.7572160597528
 20
86.62901835506444
 30
0.0
 11
168.990903299483
 21
83.76910019924924
 31
0.0
  0
LINE
  5
140
330
1C6
100
AcDbEntity
  8
1
 62
     7
100
AcDbLine
 10
171.2801475077881
 20
83.15569906235621
 30
0.0
 11
167.7255404670443
 21
84.10815314833349
 31
0.0
  0
LINE
  5
141
330
1C6
100
AcDbEntity
  8
1
 62
     3
100
AcDbLine
 10
169.3805049875001
 20
86.72995778265438
 30
0.0
 11
168.6141922272303
 21
83.87003962683921
 31
0.0
  0
LINE
  5
142
330
1C6
100
AcDbEntity
  8
1
 62
     3
100
AcDbLine
 10
170.0147846753496
 20
83.4947520114405
 30
0.0
 11
170.7810974356194
 21
86.35467016725565
 31
0.0
  0
LINE
  5
143
330
1C6
100
AcDbEntity
  8
1
 62
     3
100
AcDbLine
 10
171.5345195801248
 20
86.1527913120757
 30
0.0
 11
170.768206819855
 21
83.29287315626059
 31
0.0
  0
LINE
  5
144
330
1C6
100
AcDbEntity
  8
1
 62
     3
100
AcDbLine
 10
171.157808507872
 20
86.25373073966574
 30
0.0
 11
170.3914957476021
 21
83.39381258385056
 31
0.0
  0
ARC
  5
145
330
1C6
100
AcDbEntity
  8
1
 62
     7
100
AcDbCircle
 10
157.4470555833584
 20
69.28911125610108
 30
0.0
 40
1.599999999999994
100
AcDbArc
 50
90.0
 51
180.0
  0
ARC
  5
146
330
1C6
100
AcDbEntity
  8
1
 62
     7
100
AcDbCircle
 10
157.4470555833584
 20
64.98911125610106
 30
0.0
 40
1.6
100
AcDbArc
 50
270.0
 51
0.0
  0
ARC
  5
147
330
1C6
100
AcDbEntity
  8
1
 62
     7
100
AcDbCircle
 10
157.4470555833584
 20
69.28911125610108
 30
0.0
 40
1.599999999999994
100
AcDbArc
 50
0.0
 51
90.0
  0
ARC
  5
148
330
1C6
100
AcDbEntity
  8
1
 62
     7
100
AcDbCircle
 10
157.4470555833584
 20
64.98911125610106
 30
0.0
 40
1.599999999999994
100
AcDbArc
 50
180.0
 51
270.0
  0
ARC
  5
149
330
1C6
100
AcDbEntity
  8
1
 62
     7
100
AcDbCircle
 10
157.4470555833584
 20
38.6391112561011
 30
0.0
 40
15.50000000000003
100
AcDbArc
 50
41.94054396060876
 51
138.0594560393909
  0
ARC
  5
14A
330
1C6
100
AcDbEntity
  8
1
 62
     7
100
AcDbCircle
 10
157.4470555833584
 20
38.6391112561011
 30
0.0
 40
15.5
100
AcDbArc
 50
281.9405439606089
 51
18.05945603939105
  0
ARC
  5
14B
330
1C6
100
AcDbEntity
  8
1
 62
     7
100
AcDbCircle
 10
157.4470555833584
 20
38.6391112561011
 30
0.0
 40
15.50000000000002
100
AcDbArc
 50
161.9405439606088
 51
258.0594560393916
  0
ARC
  5
14C
330
1C6
100
AcDbEntity
  8
1
 62
     7
100
AcDbCircle
 10
66.23231054289596
 20
43.8891112561011
 30
0.0
 40
1.349999999999988
100
AcDbArc
 50
60.00000000000058
 51
120.0000000000005
  0
ARC
  5
14D
330
1C6
100
AcDbEntity
  8
1
 62
     7
100
AcDbCircle
 10
66.23231054289596
 20
43.8891112561011
 30
0.0
 40
1.349999999999988
100
AcDbArc
 50
299.9999999999994
 51
60.00000000000058
  0
ARC
  5
14E
330
1C6
100
AcDbEntity
  8
1
 62
     7
100
AcDbCircle
 10
66.23231054289596
 20
43.8891112561011
 30
0.0
 40
1.350000000000002
100
AcDbArc
 50
120.0000000000005
 51
239.9999999999995
  0
ARC
  5
14F
330
1C6
100
AcDbEntity
  8
1
 62
     7
100
AcDbCircle
 10
66.23231054289596
 20
43.8891112561011
 30
0.0
 40
1.350000000000002
100
AcDbArc
 50
239.9999999999995
 51
299.9999999999994
  0
ARC
  5
150
330
1C6
100
AcDbEntity
  8
1
 62
     7
100
AcDbCircle
 10
71.23231054289596
 20
43.8891112561011
 30
0.0
 40
1.350000000000002
100
AcDbArc
 50
59.99999999999952
 51
119.9999999999993
  0
ARC
  5
151
330
1C6
100
AcDbEntity
  8
1
 62
     7
100
AcDbCircle
 10
71.23231054289596
 20
43.8891112561011
 30
0.0
 40
1.350000000000002
100
AcDbArc
 50
300.0000000000005
 51
59.99999999999952
  0
ARC
  5
152
330
1C6
100
AcDbEntity
  8
1
 62
     7
100
AcDbCircle
 10
71.23231054289596
 20
43.8891112561011
 30
0.0
 40
1.349999999999988
100
AcDbArc
 50
119.9999999999993
 51
240.0000000000006
  0
ARC
  5
153
330
1C6
100
AcDbEntity
  8
1
 62
     7
100
AcDbCircle
 10
71.23231054289596
 20
43.8891112561011
 30
0.0
 40
1.349999999999988
100
AcDbArc
 50
240.0000000000006
 51
300.0000000000005
  0
ARC
  5
154
330
1C6
100
AcDbEntity
  8
1
  6
DASHDOT
 62
     3
100
AcDbCircle
 10
157.4470555833584
 20
38.6391112561011
 30
0.0
 40
10.99999999999998
100
AcDbArc
 50
315.9119501622395
 51
344.0880498377609
  0
ARC
  5
155
330
1C6
100
AcDbEntity
  8
1
  6
DASHDOT
 62
     3
100
AcDbCircle
 10
157.4470555833584
 20
38.6391112561011
 30
0.0
 40
10.99999999999998
100
AcDbArc
 50
75.91195016223929
 51
104.0880498377606
  0
ARC
  5
156
330
1C6
100
AcDbEntity
  8
1
  6
DASHDOT
 62
     3
100
AcDbCircle
 10
157.4470555833584
 20
38.6391112561011
 30
0.0
 40
11.00000000000002
100
AcDbArc
 50
195.9119501622394
 51
224.0880498377606
  0
ARC
  5
157
330
1C6
100
AcDbEntity
  8
1
 62
     7
100
AcDbCircle
 10
92.18231054289594
 20
30.3891112561011
 30
0.0
 40
7.000000000000012
100
AcDbArc
 50
163.0422366999959
 51
196.957763300004
  0
ARC
  5
158
330
1C6
100
AcDbEntity
  8
1
 62
     7
100
AcDbCircle
 10
66.23231054289596
 20
33.38911125610108
 30
0.0
 40
1.350000000000002
100
AcDbArc
 50
239.9999999999995
 51
299.9999999999994
  0
ARC
  5
159
330
1C6
100
AcDbEntity
  8
1
 62
     7
100
AcDbCircle
 10
66.23231054289596
 20
33.38911125610108
 30
0.0
 40
1.349999999999988
100
AcDbArc
 50
299.9999999999994
 51
60.00000000000058
  0
ARC
  5
15A
330
1C6
100
AcDbEntity
  8
1
 62
     7
100
AcDbCircle
 10
66.23231054289596
 20
33.38911125610108
 30
0.0
 40
1.350000000000002
100
AcDbArc
 50
120.0000000000005
 51
239.9999999999995
  0
ARC
  5
15B
330
1C6
100
AcDbEntity
  8
1
 62
     7
100
AcDbCircle
 10
66.23231054289596
 20
33.38911125610108
 30
0.0
 40
1.349999999999988
100
AcDbArc
 50
60.00000000000058
 51
120.0000000000005
  0
ARC
  5
15C
330
1C6
100
AcDbEntity
  8
1
 62
     7
100
AcDbCircle
 10
71.23231054289596
 20
33.38911125610108
 30
0.0
 40
1.349999999999988
100
AcDbArc
 50
240.0000000000006
 51
300.0000000000005
  0
ARC
  5
15D
330
1C6
100
AcDbEntity
  8
1
 62
     7
100
AcDbCircle
 10
71.23231054289596
 20
33.38911125610108
 30
0.0
 40
1.350000000000002
100
AcDbArc
 50
300.0000000000005
 51
59.99999999999952
  0
ARC
  5
15E
330
1C6
100
AcDbEntity
  8
1
 62
     7
100
AcDbCircle
 10
71.23231054289596
 20
33.38911125610108
 30
0.0
 40
1.349999999999988
100
AcDbArc
 50
119.9999999999993
 51
240.0000000000006
  0
ARC
  5
15F
330
1C6
100
AcDbEntity
  8
1
 62
     7
100
AcDbCircle
 10
71.23231054289596
 20
33.38911125610108
 30
0.0
 40
1.350000000000002
100
AcDbArc
 50
59.99999999999952
 51
119.9999999999993
  0
ARC
  5
160
330
1C6
100
AcDbEntity
  8
1
 62
     7
100
AcDbCircle
 10
-82.33389193253746
 20
38.6391112561011
 30
0.0
 40
20.0
100
AcDbArc
 50
101.5369590328154
 51
78.46304096718454
  0
ARC
  5
161
330
1C6
100
AcDbEntity
  8
1
 62
     7
100
AcDbCircle
 10
-82.33389193253746
 20
64.98911125610106
 30
0.0
 40
1.600000000000023
100
AcDbArc
 50
180.0
 51
270.0
  0
ARC
  5
162
330
1C6
100
AcDbEntity
  8
1
 62
     7
100
AcDbCircle
 10
-82.33389193253746
 20
69.2891112561011
 30
0.0
 40
1.600000000000023
100
AcDbArc
 50
0.0
 51
90.0
  0
ARC
  5
163
330
1C6
100
AcDbEntity
  8
1
 62
     7
100
AcDbCircle
 10
-82.33389193253746
 20
38.6391112561011
 30
0.0
 40
16.00000000000002
100
AcDbArc
 50
109.4712206344908
 51
0.0
  0
ARC
  5
164
330
1C6
100
AcDbEntity
  8
1
 62
     7
100
AcDbCircle
 10
-82.33389193253746
 20
38.6391112561011
 30
0.0
 40
16.00000000000002
100
AcDbArc
 50
0.0
 51
70.52877936550938
  0
ARC
  5
165
330
1C6
100
AcDbEntity
  8
1
 62
     7
100
AcDbCircle
 10
-82.33389193253746
 20
64.98911125610106
 30
0.0
 40
1.600000000000023
100
AcDbArc
 50
270.0
 51
0.0
  0
ARC
  5
166
330
1C6
100
AcDbEntity
  8
1
 62
     7
100
AcDbCircle
 10
-82.33389193253746
 20
69.2891112561011
 30
0.0
 40
1.600000000000023
100
AcDbArc
 50
90.0
 51
180.0
  0
ARC
  5
167
330
1C6
100
AcDbEntity
  8
1
 62
     7
100
AcDbCircle
 10
160.4470555833584
 20
72.63911125610109
 30
0.0
 40
1.0
100
AcDbArc
 50
0.0
 51
90.0
  0
ARC
  5
168
330
1C6
100
AcDbEntity
  8
1
 62
     7
100
AcDbCircle
 10
154.4470555833584
 20
72.63911125610109
 30
0.0
 40
1.0
100
AcDbArc
 50
90.0
 51
180.0
  0
ARC
  5
169
330
1C6
100
AcDbEntity
  8
1
 62
     7
100
AcDbCircle
 10
168.2327179586641
 20
48.33031794700995
 30
0.0
 40
1.000000000000001
100
AcDbArc
 50
299.9999999999999
 51
41.94054396061181
  0
ARC
  5
16A
330
1C6
100
AcDbEntity
  8
1
 62
     7
100
AcDbCircle
 10
160.4470555833584
 20
24.45285029698998
 30
0.0
 40
1.0
100
AcDbArc
 50
180.0
 51
281.9405439606116
  0
ARC
  5
16B
330
1C6
100
AcDbEntity
  8
1
 62
     7
100
AcDbCircle
 10
146.6613932080528
 20
48.33031794700996
 30
0.0
 40
0.9999999999999914
100
AcDbArc
 50
138.0594560393882
 51
240.0
  0
ARC
  5
16C
330
1C6
100
AcDbEntity
  8
1
 62
     7
100
AcDbCircle
 10
171.232717958664
 20
43.13416552430331
 30
0.0
 40
0.9999999999999932
100
AcDbArc
 50
18.05945603938905
 51
119.9999999999999
  0
ARC
  5
16D
330
1C6
100
AcDbEntity
  8
1
 62
     7
100
AcDbCircle
 10
143.6613932080527
 20
43.13416552430333
 30
0.0
 40
1.000000000000001
100
AcDbArc
 50
60.00000000000006
 51
161.940543960609
  0
ARC
  5
16E
330
1C6
100
AcDbEntity
  8
1
 62
     7
100
AcDbCircle
 10
154.4470555833584
 20
24.45285029698998
 30
0.0
 40
0.9999999999999111
100
AcDbArc
 50
258.0594560393974
 51
0.0
  0
ARC
  5
16F
330
1C6
100
AcDbEntity
  8
1
 62
     7
100
AcDbCircle
 10
65.73231054289596
 20
56.63911125610109
 30
0.0
 40
2.0
100
AcDbArc
 50
90.0
 51
180.0
  0
ARC
  5
170
330
1C6
100
AcDbEntity
  8
1
 62
     7
100
AcDbCircle
 10
64.27231054289596
 20
42.17911125610109
 30
0.0
 40
0.5399999999999922
100
AcDbArc
 50
180.0
 51
270.0
  0
ARC
  5
171
330
1C6
100
AcDbEntity
  8
1
 62
     7
100
AcDbCircle
 10
68.19231054289595
 20
45.59911125610109
 30
0.0
 40
0.5399999999999922
100
AcDbArc
 50
0.0
 51
90.0
  0
ARC
  5
172
330
1C6
100
AcDbEntity
  8
1
 62
     7
100
AcDbCircle
 10
64.27231054289596
 20
45.59911125610109
 30
0.0
 40
0.5399999999999992
100
AcDbArc
 50
90.0
 51
180.0
  0
ARC
  5
173
330
1C6
100
AcDbEntity
  8
1
 62
     7
100
AcDbCircle
 10
68.19231054289595
 20
42.17911125610109
 30
0.0
 40
0.5399999999999992
100
AcDbArc
 50
270.0
 51
0.0
  0
ARC
  5
174
330
1C6
100
AcDbEntity
  8
1
 62
     7
100
AcDbCircle
 10
69.27231054289594
 20
42.17911125610109
 30
0.0
 40
0.5399999999999922
100
AcDbArc
 50
180.0
 51
270.0
  0
ARC
  5
175
330
1C6
100
AcDbEntity
  8
1
 62
     7
100
AcDbCircle
 10
73.19231054289595
 20
45.59911125610109
 30
0.0
 40
0.5399999999999922
100
AcDbArc
 50
0.0
 51
90.0
  0
ARC
  5
176
330
1C6
100
AcDbEntity
  8
1
 62
     7
100
AcDbCircle
 10
69.27231054289594
 20
45.59911125610109
 30
0.0
 40
0.5399999999999992
100
AcDbArc
 50
90.0
 51
180.0
  0
ARC
  5
177
330
1C6
100
AcDbEntity
  8
1
 62
     7
100
AcDbCircle
 10
73.19231054289595
 20
42.17911125610109
 30
0.0
 40
0.5399999999999992
100
AcDbArc
 50
270.0
 51
0.0
  0
ARC
  5
178
330
1C6
100
AcDbEntity
  8
1
 62
     7
100
AcDbCircle
 10
84.03231054289594
 20
44.13911125610109
 30
0.0
 40
0.5
100
AcDbArc
 50
180.0
 51
270.0
  0
ARC
  5
179
330
1C6
100
AcDbEntity
  8
1
 62
     7
100
AcDbCircle
 10
-16.11914689207503
 20
56.63911125610109
 30
0.0
 40
2.0
100
AcDbArc
 50
90.0
 51
180.0
  0
ARC
  5
17A
330
1C6
100
AcDbEntity
  8
1
 62
     7
100
AcDbCircle
 10
-16.11914689207503
 20
20.63911125610109
 30
0.0
 40
2.0
100
AcDbArc
 50
180.0
 51
270.0
  0
ARC
  5
17B
330
1C6
100
AcDbEntity
  8
1
 62
     7
100
AcDbCircle
 10
86.88231054289589
 20
27.9391112561011
 30
0.0
 40
0.3000000000000114
100
AcDbArc
 50
270.0
 51
0.0
  0
ARC
  5
17C
330
1C6
100
AcDbEntity
  8
1
 62
     7
100
AcDbCircle
 10
86.88231054289589
 20
32.83911125610109
 30
0.0
 40
0.3000000000000114
100
AcDbArc
 50
0.0
 51
90.0
  0
ARC
  5
17D
330
1C6
100
AcDbEntity
  8
1
 62
     7
100
AcDbCircle
 10
86.44319040127138
 20
28.63911125610109
 30
0.0
 40
0.9999999999999836
100
AcDbArc
 50
196.9577633000035
 51
270.0
  0
ARC
  5
17E
330
1C6
100
AcDbEntity
  8
1
 62
     7
100
AcDbCircle
 10
86.44319040127138
 20
32.13911125610111
 30
0.0
 40
1.0
100
AcDbArc
 50
90.0
 51
163.0422366999959
  0
ARC
  5
17F
330
1C6
100
AcDbEntity
  8
1
 62
     7
100
AcDbCircle
 10
65.73231054289596
 20
20.63911125610109
 30
0.0
 40
1.999999999999992
100
AcDbArc
 50
180.0
 51
270.0
  0
ARC
  5
180
330
1C6
100
AcDbEntity
  8
1
 62
     7
100
AcDbCircle
 10
64.27231054289596
 20
35.09911125610109
 30
0.0
 40
0.5399999999999992
100
AcDbArc
 50
90.0
 51
180.0
  0
ARC
  5
181
330
1C6
100
AcDbEntity
  8
1
 62
     7
100
AcDbCircle
 10
68.19231054289595
 20
31.67911125610109
 30
0.0
 40
0.5400000000000027
100
AcDbArc
 50
270.0
 51
0.0
  0
ARC
  5
182
330
1C6
100
AcDbEntity
  8
1
 62
     7
100
AcDbCircle
 10
64.27231054289596
 20
31.67911125610109
 30
0.0
 40
0.5399999999999922
100
AcDbArc
 50
180.0
 51
270.0
  0
ARC
  5
183
330
1C6
100
AcDbEntity
  8
1
 62
     7
100
AcDbCircle
 10
68.19231054289595
 20
35.09911125610109
 30
0.0
 40
0.5399999999999922
100
AcDbArc
 50
0.0
 51
90.0
  0
ARC
  5
184
330
1C6
100
AcDbEntity
  8
1
 62
     7
100
AcDbCircle
 10
69.27231054289594
 20
35.09911125610109
 30
0.0
 40
0.5399999999999992
100
AcDbArc
 50
90.0
 51
180.0
  0
ARC
  5
185
330
1C6
100
AcDbEntity
  8
1
 62
     7
100
AcDbCircle
 10
73.19231054289595
 20
31.67911125610109
 30
0.0
 40
0.5400000000000027
100
AcDbArc
 50
270.0
 51
0.0
  0
ARC
  5
186
330
1C6
100
AcDbEntity
  8
1
 62
     7
100
AcDbCircle
 10
69.27231054289594
 20
31.67911125610109
 30
0.0
 40
0.5399999999999922
100
AcDbArc
 50
180.0
 51
270.0
  0
ARC
  5
187
330
1C6
100
AcDbEntity
  8
1
 62
     7
100
AcDbCircle
 10
73.19231054289595
 20
35.09911125610109
 30
0.0
 40
0.5399999999999922
100
AcDbArc
 50
0.0
 51
90.0
  0
ARC
  5
188
330
1C6
100
AcDbEntity
  8
1
 62
     7
100
AcDbCircle
 10
84.03231054289594
 20
33.13911125610109
 30
0.0
 40
0.5
100
AcDbArc
 50
90.0
 51
180.0
  0
ARC
  5
189
330
1C6
100
AcDbEntity
  8
1
 62
     7
100
AcDbCircle
 10
-88.33389193253745
 20
55.60967400457822
 30
0.0
 40
1.999999999999964
100
AcDbArc
 50
289.4712206344897
 51
0.0
  0
ARC
  5
18A
330
1C6
100
AcDbEntity
  8
1
 62
     7
100
AcDbCircle
 10
-76.33389193253745
 20
55.60967400457822
 30
0.0
 40
2.0
100
AcDbArc
 50
180.0
 51
250.5287793655087
  0
ARC
  5
18B
330
1C6
100
AcDbEntity
  8
1
 62
     7
100
AcDbCircle
 10
-85.33389193253745
 20
72.63911125610109
 30
0.0
 40
1.0
100
AcDbArc
 50
90.0
 51
180.0
  0
ARC
  5
18C
330
1C6
100
AcDbEntity
  8
1
 62
     7
100
AcDbCircle
 10
-79.33389193253745
 20
72.63911125610109
 30
0.0
 40
1.0
100
AcDbArc
 50
0.0
 51
90.0
  0
CIRCLE
  5
18D
330
1C6
100
AcDbEntity
  8
1
 62
     7
100
AcDbCircle
 10
157.4470555833584
 20
38.6391112561011
 30
0.0
 40
7.5
  0
CIRCLE
  5
18E
330
1C6
100
AcDbEntity
  8
1
 62
     7
100
AcDbCircle
 10
157.4470555833584
 20
38.6391112561011
 30
0.0
 40
3.0
  0
CIRCLE
  5
18F
330
1C6
100
AcDbEntity
  8
1
 62
     7
100
AcDbCircle
 10
172.6025001495861
 20
29.88911125610107
 30
0.0
 40
1.500000000000085
  0
CIRCLE
  5
190
330
1C6
100
AcDbEntity
  8
1
 62
     7
100
AcDbCircle
 10
142.2916110171308
 20
29.88911125610107
 30
0.0
 40
1.5
  0
CIRCLE
  5
191
330
1C6
100
AcDbEntity
  8
1
 62
     7
100
AcDbCircle
 10
157.4470555833584
 20
56.13911125610109
 30
0.0
 40
1.5
  0
CIRCLE
  5
192
330
1C6
100
AcDbEntity
  8
1
 62
     7
100
AcDbCircle
 10
157.4470555833584
 20
38.6391112561011
 30
0.0
 40
20.15000000000001
  0
CIRCLE
  5
193
330
1C6
100
AcDbEntity
  8
1
 62
     7
100
AcDbCircle
 10
157.4470555833584
 20
38.6391112561011
 30
0.0
 40
19.5
  0
CIRCLE
  5
194
330
1C6
100
AcDbEntity
  8
1
 62
     3
100
AcDbCircle
 10
166.9733350249873
 20
33.13911125610108
 30
0.0
 40
1.5
  0
CIRCLE
  5
195
330
1C6
100
AcDbEntity
  8
1
 62
     7
100
AcDbCircle
 10
166.9733350249873
 20
33.13911125610108
 30
0.0
 40
1.199999999999989
  0
CIRCLE
  5
196
330
1C6
100
AcDbEntity
  8
1
 62
     7
100
AcDbCircle
 10
157.4470555833584
 20
38.6391112561011
 30
0.0
 40
5.5
  0
CIRCLE
  5
197
330
1C6
100
AcDbEntity
  8
1
 62
     7
100
AcDbCircle
 10
157.4470555833584
 20
38.6391112561011
 30
0.0
 40
13.25
  0
CIRCLE
  5
198
330
1C6
100
AcDbEntity
  8
1
 62
     3
100
AcDbCircle
 10
157.4470555833584
 20
49.6391112561011
 30
0.0
 40
1.500000000000085
  0
CIRCLE
  5
199
330
1C6
100
AcDbEntity
  8
1
 62
     7
100
AcDbCircle
 10
157.4470555833584
 20
49.6391112561011
 30
0.0
 40
1.199999999999989
  0
CIRCLE
  5
19A
330
1C6
100
AcDbEntity
  8
1
 62
     3
100
AcDbCircle
 10
147.9207761417295
 20
33.13911125610099
 30
0.0
 40
1.5
  0
CIRCLE
  5
19B
330
1C6
100
AcDbEntity
  8
1
 62
     7
100
AcDbCircle
 10
147.9207761417295
 20
33.13911125610099
 30
0.0
 40
1.199999999999989
  0
CIRCLE
  5
19C
330
1C6
100
AcDbEntity
  8
1
 62
     7
100
AcDbCircle
 10
-82.33389193253746
 20
38.6391112561011
 30
0.0
 40
3.0
  0
CIRCLE
  5
19D
330
1C6
100
AcDbEntity
  8
1
 62
     7
100
AcDbCircle
 10
-82.33389193253746
 20
38.6391112561011
 30
0.0
 40
6.0
  0
TEXT
  5
19E
330
1C6
100
AcDbEntity
  8
1
 62
     7
100
AcDbText
 10
-90.88574996183927
 20
102.4279372162417
 30
0.0
 40
3.5
  1
AMC 5
 41
0.9
  7
SIMPLEX
100
AcDbText
  0
ENDSEC
  0
SECTION
  2
OBJECTS
  0
DICTIONARY
  5
1B2
330
0
100
AcDbDictionary
281
     1
  3
ACAD_COLOR
350
1C1
  3
ACAD_GROUP
350
1B3
  3
ACAD_LAYOUT
350
1BF
  3
ACAD_MATERIAL
350
1C0
  3
ACAD_MLINESTYLE
350
1BC
  3
ACAD_PLOTSETTINGS
350
1BE
  3
ACAD_PLOTSTYLENAME
350
1B4
  0
DICTIONARY
  5
1C1
102
{ACAD_REACTORS
330
1B2
102
}
330
1B2
100
AcDbDictionary
281
     1
  0
DICTIONARY
  5
1B3
102
{ACAD_REACTORS
330
1B2
102
}
330
1B2
100
AcDbDictionary
281
     1
  0
DICTIONARY
  5
1BF
102
{ACAD_REACTORS
330
1B2
102
}
330
1B2
100
AcDbDictionary
281
     1
  3
Layout1
350
1C5
  3
Model
350
1C9
  0
DICTIONARY
  5
1C0
102
{ACAD_REACTORS
330
1B2
102
}
330
1B2
100
AcDbDictionary
281
     1
  0
DICTIONARY
  5
1BC
102
{ACAD_REACTORS
330
1B2
102
}
330
1B2
100
AcDbDictionary
281
     1
  3
Standard
350
1BD
  0
DICTIONARY
  5
1BE
102
{ACAD_REACTORS
330
1B2
102
}
330
1B2
100
AcDbDictionary
281
     1
  0
ACDBDICTIONARYWDFLT
  5
1B4
102
{ACAD_REACTORS
330
1B2
102
}
330
1B2
100
AcDbDictionary
281
     1
  3
Normal
350
1B5
100
AcDbDictionaryWithDefault
340
1B5
  0
LAYOUT
  5
1C5
102
{ACAD_REACTORS
330
1BF
102
}
330
1BF
100
AcDbPlotSettings
  1

  2
Microsoft Office Document Image Writer
  4

  6

 40
0.0
 41
0.0
 42
0.0
 43
0.0
 44
0.0
 45
0.0
 46
0.0
 47
0.0
 48
0.0
 49
0.0
140
0.0
141
0.0
142
1.0
143
1.0
 70
   688
 72
     0
 73
     0
 74
     5
  7

 75
    16
147
1.0
 76
     0
 77
     2
 78
   300
148
0.0
149
0.0
100
AcDbLayout
  1
Layout1
 70
     1
 71
     1
 10
0.0
 20
0.0
 11
12.0
 21
9.0
 12
0.0
 22
0.0
 32
0.0
 14
1.000000000000000E+20
 24
1.000000000000000E+20
 34
1.000000000000000E+20
 15
-1.000000000000000E+20
 25
-1.000000000000000E+20
 35
-1.000000000000000E+20
146
0.0
 13
0.0
 23
0.0
 33
0.0
 16
1.0
 26
0.0
 36
0.0
 17
0.0
 27
1.0
 37
0.0
 76
     0
330
1C2
  0
LAYOUT
  5
1C9
102
{ACAD_REACTORS
330
1BF
102
}
330
1BF
100
AcDbPlotSettings
  1

  2
Microsoft Office Document Image Writer
  4

  6

 40
0.0
 41
0.0
 42
0.0
 43
0.0
 44
0.0
 45
0.0
 46
0.0
 47
0.0
 48
0.0
 49
0.0
140
0.0
141
0.0
142
1.0
143
1.0
 70
  1712
 72
     0
 73
     0
 74
     0
  7

 75
     0
147
1.0
 76
     0
 77
     2
 78
   300
148
0.0
149
0.0
100
AcDbLayout
  1
Model
 70
     1
 71
     0
 10
0.0
 20
0.0
 11
12.0
 21
9.0
 12
0.0
 22
0.0
 32
0.0
 14
0.0
 24
0.0
 34
0.0
 15
0.0
 25
0.0
 35
0.0
146
0.0
 13
0.0
 23
0.0
 33
0.0
 16
1.0
 26
0.0
 36
0.0
 17
0.0
 27
1.0
 37
0.0
 76
     0
330
1C6
  0
MLINESTYLE
  5
1BD
102
{ACAD_REACTORS
330
1BC
102
}
330
1BC
100
AcDbMlineStyle
  2
STANDARD
 70
     0
  3

 62
   256
 51
90.0
 52
90.0
 71
     2
 49
0.5
 62
   256
  6
BYLAYER
 49
-0.5
 62
   256
  6
BYLAYER
  0
ACDBPLACEHOLDER
  5
1B5
102
{ACAD_REACTORS
330
1B4
102
}
330
1B4
  0
ENDSEC
  0
EOF
