  0
SECTION
  2
HEADER
  9
$ACADVER
  1
AC1018
  9
$ACADMAINTVER
 70
     0
  9
$DWGCODEPAGE
  3
ANSI_932
  9
$INSBASE
 10
0.0
 20
0.0
 30
0.0
  9
$EXTMIN
 10
-110.8411580007185
 20
256.5034610005726
 30
-0.0015258207003583
  9
$EXTMAX
 10
345.4413821863495
 20
388.2307647342133
 30
0.0000000349246037
  9
$LIMMIN
 10
-110.8272352747764
 20
256.5074804468311
  9
$LIMMAX
 10
345.4274573358059
 20
388.2267446745892
  9
$ORTHOMODE
 70
     0
  9
$REGENMODE
 70
     1
  9
$FILLMODE
 70
     1
  9
$QTEXTMODE
 70
     0
  9
$MIRRTEXT
 70
     1
  9
$LTSCALE
 40
1.0
  9
$ATTMODE
 70
     1
  9
$TEXTSIZE
 40
3.5
  9
$TRACEWID
 40
0.5
  9
$TEXTSTYLE
  7
STANDARD
  9
$CLAYER
  8
0
  9
$CELTYPE
  6
ByLayer
  9
$CECOLOR
 62
   256
  9
$CELTSCALE
 40
1.0
  9
$DISPSILH
 70
     0
  9
$DIMSCALE
 40
1.0
  9
$DIMASZ
 40
0.18
  9
$DIMEXO
 40
0.0625
  9
$DIMDLI
 40
0.38
  9
$DIMRND
 40
0.0
  9
$DIMDLE
 40
0.0
  9
$DIMEXE
 40
0.18
  9
$DIMTP
 40
0.0
  9
$DIMTM
 40
0.0
  9
$DIMTXT
 40
0.18
  9
$DIMCEN
 40
0.09
  9
$DIMTSZ
 40
0.0
  9
$DIMTOL
 70
     0
  9
$DIMLIM
 70
     0
  9
$DIMTIH
 70
     1
  9
$DIMTOH
 70
     1
  9
$DIMSE1
 70
     0
  9
$DIMSE2
 70
     0
  9
$DIMTAD
 70
     0
  9
$DIMZIN
 70
     0
  9
$DIMBLK
  1

  9
$DIMASO
 70
     1
  9
$DIMSHO
 70
     1
  9
$DIMPOST
  1

  9
$DIMAPOST
  1

  9
$DIMALT
 70
     0
  9
$DIMALTD
 70
     2
  9
$DIMALTF
 40
25.4
  9
$DIMLFAC
 40
1.0
  9
$DIMTOFL
 70
     0
  9
$DIMTVP
 40
0.0
  9
$DIMTIX
 70
     0
  9
$DIMSOXD
 70
     0
  9
$DIMSAH
 70
     0
  9
$DIMBLK1
  1

  9
$DIMBLK2
  1

  9
$DIMSTYLE
  2
STANDARD
  9
$DIMCLRD
 70
     0
  9
$DIMCLRE
 70
     0
  9
$DIMCLRT
 70
     0
  9
$DIMTFAC
 40
1.0
  9
$DIMGAP
 40
0.09
  9
$DIMJUST
 70
     0
  9
$DIMSD1
 70
     0
  9
$DIMSD2
 70
     0
  9
$DIMTOLJ
 70
     1
  9
$DIMTZIN
 70
     0
  9
$DIMALTZ
 70
     0
  9
$DIMALTTZ
 70
     0
  9
$DIMUPT
 70
     0
  9
$DIMDEC
 70
     4
  9
$DIMTDEC
 70
     4
  9
$DIMALTU
 70
     2
  9
$DIMALTTD
 70
     2
  9
$DIMTXSTY
  7
STANDARD
  9
$DIMAUNIT
 70
     0
  9
$DIMADEC
 70
     0
  9
$DIMALTRND
 40
0.0
  9
$DIMAZIN
 70
     0
  9
$DIMDSEP
 70
    46
  9
$DIMATFIT
 70
     3
  9
$DIMFRAC
 70
     0
  9
$DIMLDRBLK
  1

  9
$DIMLUNIT
 70
     2
  9
$DIMLWD
 70
    -2
  9
$DIMLWE
 70
    -2
  9
$DIMTMOVE
 70
     0
  9
$LUNITS
 70
     2
  9
$LUPREC
 70
     4
  9
$SKETCHINC
 40
0.1
  9
$FILLETRAD
 40
2.0
  9
$AUNITS
 70
     0
  9
$AUPREC
 70
     0
  9
$MENU
  1
ACAD
  9
$ELEVATION
 40
0.0
  9
$PELEVATION
 40
0.0
  9
$THICKNESS
 40
0.0
  9
$LIMCHECK
 70
     0
  9
$CHAMFERA
 40
0.0
  9
$CHAMFERB
 40
0.0
  9
$CHAMFERC
 40
0.0
  9
$CHAMFERD
 40
0.0
  9
$SKPOLY
 70
     0
  9
$TDCREATE
 40
2452093.890043403
  9
$TDUCREATE
 40
2452094.056710070
  9
$TDUPDATE
 40
2453209.435756505
  9
$TDUUPDATE
 40
2453209.602423171
  9
$TDINDWG
 40
0.0006718519
  9
$TDUSRTIMER
 40
0.0006716782
  9
$USRTIMER
 70
     1
  9
$ANGBASE
 50
0.0
  9
$ANGDIR
 70
     0
  9
$PDMODE
 70
     0
  9
$PDSIZE
 40
0.0
  9
$PLINEWID
 40
0.0
  9
$SPLFRAME
 70
     0
  9
$SPLINETYPE
 70
     6
  9
$SPLINESEGS
 70
     8
  9
$HANDSEED
  5
1BC
  9
$SURFTAB1
 70
     6
  9
$SURFTAB2
 70
     6
  9
$SURFTYPE
 70
     6
  9
$SURFU
 70
     6
  9
$SURFV
 70
     6
  9
$UCSBASE
  2

  9
$UCSNAME
  2

  9
$UCSORG
 10
0.0
 20
0.0
 30
0.0
  9
$UCSXDIR
 10
1.0
 20
0.0
 30
0.0
  9
$UCSYDIR
 10
0.0
 20
1.0
 30
0.0
  9
$UCSORTHOREF
  2

  9
$UCSORTHOVIEW
 70
     0
  9
$UCSORGTOP
 10
0.0
 20
0.0
 30
0.0
  9
$UCSORGBOTTOM
 10
0.0
 20
0.0
 30
0.0
  9
$UCSORGLEFT
 10
0.0
 20
0.0
 30
0.0
  9
$UCSORGRIGHT
 10
0.0
 20
0.0
 30
0.0
  9
$UCSORGFRONT
 10
0.0
 20
0.0
 30
0.0
  9
$UCSORGBACK
 10
0.0
 20
0.0
 30
0.0
  9
$PUCSBASE
  2

  9
$PUCSNAME
  2

  9
$PUCSORG
 10
0.0
 20
0.0
 30
0.0
  9
$PUCSXDIR
 10
1.0
 20
0.0
 30
0.0
  9
$PUCSYDIR
 10
0.0
 20
1.0
 30
0.0
  9
$PUCSORTHOREF
  2

  9
$PUCSORTHOVIEW
 70
     0
  9
$PUCSORGTOP
 10
0.0
 20
0.0
 30
0.0
  9
$PUCSORGBOTTOM
 10
0.0
 20
0.0
 30
0.0
  9
$PUCSORGLEFT
 10
0.0
 20
0.0
 30
0.0
  9
$PUCSORGRIGHT
 10
0.0
 20
0.0
 30
0.0
  9
$PUCSORGFRONT
 10
0.0
 20
0.0
 30
0.0
  9
$PUCSORGBACK
 10
0.0
 20
0.0
 30
0.0
  9
$USERI1
 70
     0
  9
$USERI2
 70
     0
  9
$USERI3
 70
     0
  9
$USERI4
 70
     0
  9
$USERI5
 70
     0
  9
$USERR1
 40
0.0
  9
$USERR2
 40
0.0
  9
$USERR3
 40
0.0
  9
$USERR4
 40
0.0
  9
$USERR5
 40
0.0
  9
$WORLDVIEW
 70
     1
  9
$SHADEDGE
 70
     3
  9
$SHADEDIF
 70
    70
  9
$TILEMODE
 70
     1
  9
$MAXACTVP
 70
    64
  9
$PINSBASE
 10
0.0
 20
0.0
 30
0.0
  9
$PLIMCHECK
 70
     0
  9
$PEXTMIN
 10
1.000000000000000E+20
 20
1.000000000000000E+20
 30
1.000000000000000E+20
  9
$PEXTMAX
 10
-1.000000000000000E+20
 20
-1.000000000000000E+20
 30
-1.000000000000000E+20
  9
$PLIMMIN
 10
0.0
 20
0.0
  9
$PLIMMAX
 10
12.0
 20
9.0
  9
$UNITMODE
 70
     0
  9
$VISRETAIN
 70
     1
  9
$PLINEGEN
 70
     0
  9
$PSLTSCALE
 70
     1
  9
$TREEDEPTH
 70
  3020
  9
$CMLSTYLE
  2
Standard
  9
$CMLJUST
 70
     0
  9
$CMLSCALE
 40
1.0
  9
$PROXYGRAPHICS
 70
     1
  9
$MEASUREMENT
 70
     0
  9
$CELWEIGHT
370
    -1
  9
$ENDCAPS
280
     0
  9
$JOINSTYLE
280
     0
  9
$LWDISPLAY
290
     0
  9
$INSUNITS
 70
     0
  9
$HYPERLINKBASE
  1

  9
$STYLESHEET
  1

  9
$XEDIT
290
     1
  9
$CEPSNTYPE
380
     0
  9
$PSTYLEMODE
290
     1
  9
$FINGERPRINTGUID
  2
{05D3AF54-CB5D-4DFF-87BA-8FDBFD82564E}
  9
$VERSIONGUID
  2
{D2FA2F3F-7D02-4D84-9704-ABF16562921C}
  9
$EXTNAMES
290
     1
  9
$PSVPSCALE
 40
0.0
  9
$OLESTARTUP
290
     0
  9
$SORTENTS
280
   127
  9
$INDEXCTL
280
     0
  9
$HIDETEXT
280
     0
  9
$XCLIPFRAME
290
     0
  9
$HALOGAP
280
     0
  9
$OBSCOLOR
 70
   257
  9
$OBSLTYPE
280
     0
  9
$INTERSECTIONDISPLAY
280
     0
  9
$INTERSECTIONCOLOR
 70
   257
  9
$DIMASSOC
280
     1
  9
$PROJECTNAME
  1

  0
ENDSEC
  0
SECTION
  2
CLASSES
  0
CLASS
  1
ACDBDICTIONARYWDFLT
  2
AcDbDictionaryWithDefault
  3
ObjectDBX Classes
 90
        0
 91
        1
280
     0
281
     0
  0
ENDSEC
  0
SECTION
  2
TABLES
  0
TABLE
  2
VPORT
  5
189
330
0
100
AcDbSymbolTable
 70
     2
  0
VPORT
  5
1BB
330
189
100
AcDbSymbolTableRecord
100
AcDbViewportTableRecord
  2
*Active
 70
     0
 10
0.0
 20
0.0
 11
1.0
 21
1.0
 12
117.3001120928155
 22
322.367112867393
 13
0.0
 23
0.0
 14
1.0
 24
1.0
 15
0.0
 25
0.0
 16
0.0
 26
0.0
 36
1.0
 17
0.0
 27
0.0
 37
0.0
 40
282.3482935869508
 41
1.625
 42
50.0
 43
0.0
 44
0.0
 50
0.0
 51
0.0
 71
     0
 72
   100
 73
     1
 74
     1
 75
     0
 76
     0
 77
     0
 78
     0
281
     0
 65
     1
110
0.0
120
0.0
130
0.0
111
1.0
121
0.0
131
0.0
112
0.0
122
1.0
132
0.0
 79
     0
146
0.0
  0
ENDTAB
  0
TABLE
  2
LTYPE
  5
186
330
0
100
AcDbSymbolTable
 70
     9
  0
LTYPE
  5
194
330
186
100
AcDbSymbolTableRecord
100
AcDbLinetypeTableRecord
  2
ByBlock
 70
     0
  3

 72
    65
 73
     0
 40
0.0
  0
LTYPE
  5
195
330
186
100
AcDbSymbolTableRecord
100
AcDbLinetypeTableRecord
  2
ByLayer
 70
     0
  3

 72
    65
 73
     0
 40
0.0
  0
LTYPE
  5
196
330
186
100
AcDbSymbolTableRecord
100
AcDbLinetypeTableRecord
  2
CONTINUOUS
 70
     0
  3
Solid line
 72
    65
 73
     0
 40
0.0
  0
LTYPE
  5
1A6
330
186
100
AcDbSymbolTableRecord
100
AcDbLinetypeTableRecord
  2
BORDER
 70
     0
  3
__ __ . __ __ .
 72
    65
 73
     6
 40
21.01172926496102
 49
6.003351218560295
 74
     0
 49
-3.001675609280146
 74
     0
 49
6.003351218560295
 74
     0
 49
-3.001675609280146
 74
     0
 49
0.0
 74
     0
 49
-3.001675609280146
 74
     0
  0
LTYPE
  5
1A7
330
186
100
AcDbSymbolTableRecord
100
AcDbLinetypeTableRecord
  2
CENTER
 70
     0
  3
____ _ ____ _
 72
    65
 73
     4
 40
24.01340487424118
 49
15.00837804640074
 74
     0
 49
-3.001675609280146
 74
     0
 49
3.001675609280146
 74
     0
 49
-3.001675609280146
 74
     0
  0
LTYPE
  5
1A8
330
186
100
AcDbSymbolTableRecord
100
AcDbLinetypeTableRecord
  2
DASHDOT
 70
     0
  3
__ . __ . __ .
 72
    65
 73
     4
 40
12.00670243712059
 49
6.003351218560295
 74
     0
 49
-3.001675609280146
 74
     0
 49
0.0
 74
     0
 49
-3.001675609280146
 74
     0
  0
LTYPE
  5
1A9
330
186
100
AcDbSymbolTableRecord
100
AcDbLinetypeTableRecord
  2
DASHED
 70
     0
  3
__ __ __ __ __
 72
    65
 73
     2
 40
9.005026827840444
 49
6.003351218560295
 74
     0
 49
-3.001675609280146
 74
     0
  0
LTYPE
  5
1AA
330
186
100
AcDbSymbolTableRecord
100
AcDbLinetypeTableRecord
  2
DIVIDE
 70
     0
  3
__ . . __ . . 
 72
    65
 73
     6
 40
15.00837804640074
 49
6.003351218560295
 74
     0
 49
-3.001675609280146
 74
     0
 49
0.0
 74
     0
 49
-3.001675609280146
 74
     0
 49
0.0
 74
     0
 49
-3.001675609280146
 74
     0
  0
LTYPE
  5
1AB
330
186
100
AcDbSymbolTableRecord
100
AcDbLinetypeTableRecord
  2
DOT
 70
     0
  3
..............
 72
    65
 73
     4
 40
6.003351218560295
 49
0.0
 74
     0
 49
-3.001675609280146
 74
     0
 49
0.0
 74
     0
 49
-3.001675609280146
 74
     0
  0
LTYPE
  5
1AC
330
186
100
AcDbSymbolTableRecord
100
AcDbLinetypeTableRecord
  2
HIDDEN
 70
     0
  3
_ _ _ _ _ _ _
 72
    65
 73
     2
 40
4.502513413920222
 49
3.001675609280146
 74
     0
 49
-1.500837804640074
 74
     0
  0
LTYPE
  5
1AD
330
186
100
AcDbSymbolTableRecord
100
AcDbLinetypeTableRecord
  2
PHANTOM
 70
     0
  3
_____ _ _ _____ _ _ 
 72
    65
 73
     6
 40
30.01675609280147
 49
15.00837804640074
 74
     0
 49
-3.001675609280146
 74
     0
 49
3.001675609280146
 74
     0
 49
-3.001675609280146
 74
     0
 49
3.001675609280146
 74
     0
 49
-3.001675609280146
 74
     0
  0
ENDTAB
  0
TABLE
  2
LAYER
  5
183
330
0
100
AcDbSymbolTable
 70
     2
  0
LAYER
  5
191
330
183
100
AcDbSymbolTableRecord
100
AcDbLayerTableRecord
  2
0
 70
     0
 62
     7
  6
CONTINUOUS
370
    -3
390
190
  0
LAYER
  5
1AE
330
183
100
AcDbSymbolTableRecord
100
AcDbLayerTableRecord
  2
1
 70
     0
 62
     7
  6
CONTINUOUS
370
    -3
390
190
  0
ENDTAB
  0
TABLE
  2
STYLE
  5
184
330
0
100
AcDbSymbolTable
 70
     4
  0
STYLE
  5
192
330
184
100
AcDbSymbolTableRecord
100
AcDbTextStyleTableRecord
  2
STANDARD
 70
     0
 40
0.0
 41
1.0
 50
0.0
 71
     0
 42
3.5
  3
txt
  4

  0
STYLE
  5
1AF
330
184
100
AcDbSymbolTableRecord
100
AcDbTextStyleTableRecord
  2
SIMPLEX
 70
     0
 40
0.0
 41
1.0
 50
0.0
 71
     0
 42
3.5
  3
simplex
  4

  0
STYLE
  5
1B0
330
184
100
AcDbSymbolTableRecord
100
AcDbTextStyleTableRecord
  2
COMPLEX
 70
     0
 40
0.0
 41
1.0
 50
0.0
 71
     0
 42
3.5
  3
complex
  4

  0
STYLE
  5
1B1
330
184
100
AcDbSymbolTableRecord
100
AcDbTextStyleTableRecord
  2
ITALIC
 70
     0
 40
0.0
 41
1.0
 50
0.0
 71
     0
 42
3.5
  3
italic
  4

  0
ENDTAB
  0
TABLE
  2
VIEW
  5
187
330
0
100
AcDbSymbolTable
 70
     0
  0
ENDTAB
  0
TABLE
  2
UCS
  5
188
330
0
100
AcDbSymbolTable
 70
     0
  0
ENDTAB
  0
TABLE
  2
APPID
  5
18A
330
0
100
AcDbSymbolTable
 70
     1
  0
APPID
  5
193
330
18A
100
AcDbSymbolTableRecord
100
AcDbRegAppTableRecord
  2
ACAD
 70
     0
  0
ENDTAB
  0
TABLE
  2
DIMSTYLE
  5
18B
330
0
100
AcDbSymbolTable
 70
     1
100
AcDbDimStyleTable
 71
     0
  0
DIMSTYLE
105
1B2
330
18B
100
AcDbSymbolTableRecord
100
AcDbDimStyleTableRecord
  2
STANDARD
 70
     0
279
     2
340
192
  0
ENDTAB
  0
TABLE
  2
BLOCK_RECORD
  5
182
330
0
100
AcDbSymbolTable
 70
     2
  0
BLOCK_RECORD
  5
1A1
330
182
100
AcDbSymbolTableRecord
100
AcDbBlockTableRecord
  2
*Model_Space
340
1A4
  0
BLOCK_RECORD
  5
19D
330
182
100
AcDbSymbolTableRecord
100
AcDbBlockTableRecord
  2
*Paper_Space
340
1A0
  0
BLOCK_RECORD
  5
1B7
330
182
100
AcDbSymbolTableRecord
100
AcDbBlockTableRecord
  2
$MODEL_SPACE
340
0
  0
BLOCK_RECORD
  5
1B9
330
182
100
AcDbSymbolTableRecord
100
AcDbBlockTableRecord
  2
$PAPER_SPACE
340
0
  0
ENDTAB
  0
ENDSEC
  0
SECTION
  2
BLOCKS
  0
BLOCK
  5
1A2
330
1A1
100
AcDbEntity
  8
0
100
AcDbBlockBegin
  2
*Model_Space
 70
     0
 10
0.0
 20
0.0
 30
0.0
  3
*Model_Space
  1

  0
ENDBLK
  5
1A3
330
1A1
100
AcDbEntity
  8
0
100
AcDbBlockEnd
  0
BLOCK
  5
19E
330
19D
100
AcDbEntity
 67
     1
  8
0
100
AcDbBlockBegin
  2
*Paper_Space
 70
     0
 10
0.0
 20
0.0
 30
0.0
  3
*Paper_Space
  1

  0
ENDBLK
  5
19F
330
19D
100
AcDbEntity
 67
     1
  8
0
100
AcDbBlockEnd
  0
BLOCK
  5
1B8
330
1B7
100
AcDbEntity
  8
0
100
AcDbBlockBegin
  2
$MODEL_SPACE
 70
     0
 10
0.0
 20
0.0
 30
0.0
  3
$MODEL_SPACE
  1

  0
ENDBLK
  5
20
330
1B7
100
AcDbEntity
  8
0
100
AcDbBlockEnd
  0
BLOCK
  5
1BA
330
1B9
100
AcDbEntity
  8
0
100
AcDbBlockBegin
  2
$PAPER_SPACE
 70
     0
 10
0.0
 20
0.0
 30
0.0
  3
$PAPER_SPACE
  1

  0
ENDBLK
  5
1C
330
1B9
100
AcDbEntity
  8
0
100
AcDbBlockEnd
  0
ENDSEC
  0
SECTION
  2
ENTITIES
  0
LINE
  5
33
330
1A1
100
AcDbEntity
  8
1
  6
DASHDOT
 62
     3
100
AcDbLine
 10
76.43780270827439
 20
287.1574804468311
 30
0.0
 11
80.43780270827438
 21
287.1574804468311
 31
0.0
  0
LINE
  5
34
330
1A1
100
AcDbEntity
  8
1
  6
DASHDOT
 62
     3
100
AcDbLine
 10
24.43780270827438
 20
287.1574804468311
 30
0.0
 11
20.43780270827439
 21
287.1574804468311
 31
0.0
  0
LINE
  5
35
330
1A1
100
AcDbEntity
  8
1
 62
     7
100
AcDbLine
 10
63.7378027082744
 20
256.5074804468311
 30
0.0
 11
59.7378027082744
 21
256.5074804468311
 31
0.0
  0
LINE
  5
36
330
1A1
100
AcDbEntity
  8
1
 62
     7
100
AcDbLine
 10
63.7378027082744
 20
317.8074804468312
 30
0.0
 11
63.7378027082744
 21
256.5074804468311
 31
0.0
  0
LINE
  5
37
330
1A1
100
AcDbEntity
  8
1
 62
     7
100
AcDbLine
 10
59.7378027082744
 20
317.8074804468312
 30
0.0
 11
63.7378027082744
 21
317.8074804468312
 31
0.0
  0
LINE
  5
38
330
1A1
100
AcDbEntity
  8
1
 62
     7
100
AcDbLine
 10
63.7378027082744
 20
317.1574804468312
 30
0.0
 11
64.2378027082744
 21
317.1574804468312
 31
0.0
  0
LINE
  5
39
330
1A1
100
AcDbEntity
  8
1
 62
     7
100
AcDbLine
 10
64.2378027082744
 20
317.1574804468312
 30
0.0
 11
64.2378027082744
 21
257.1574804468311
 31
0.0
  0
LINE
  5
3A
330
1A1
100
AcDbEntity
  8
1
 62
     7
100
AcDbLine
 10
64.2378027082744
 20
257.1574804468311
 30
0.0
 11
63.7378027082744
 21
257.1574804468311
 31
0.0
  0
LINE
  5
3B
330
1A1
100
AcDbEntity
  8
1
 62
     7
100
AcDbLine
 10
76.43780270827439
 20
262.6574804468311
 30
0.0
 11
64.2378027082744
 21
262.6574804468311
 31
0.0
  0
LINE
  5
3C
330
1A1
100
AcDbEntity
  8
1
 62
     7
100
AcDbLine
 10
76.43780270827439
 20
311.6574804468311
 30
0.0
 11
64.2378027082744
 21
311.6574804468311
 31
0.0
  0
LINE
  5
3D
330
1A1
100
AcDbEntity
  8
1
 62
     7
100
AcDbLine
 10
76.43780270827439
 20
311.6574804468311
 30
0.0
 11
76.43780270827439
 21
262.6574804468311
 31
0.0
  0
LINE
  5
3E
330
1A1
100
AcDbEntity
  8
1
 62
     7
100
AcDbLine
 10
59.7378027082744
 20
317.8074804468312
 30
0.0
 11
59.7378027082744
 21
256.5074804468311
 31
0.0
  0
LINE
  5
3F
330
1A1
100
AcDbEntity
  8
1
 62
     7
100
AcDbLine
 10
54.93780270827439
 20
258.9074804468312
 30
0.0
 11
54.43780270827438
 21
258.9074804468312
 31
0.0
  0
LINE
  5
40
330
1A1
100
AcDbEntity
  8
1
 62
     7
100
AcDbLine
 10
56.23684081395103
 20
317.6574804468311
 30
0.0
 11
59.43780270827438
 21
317.6574804468311
 31
0.0
  0
LINE
  5
41
330
1A1
100
AcDbEntity
  8
1
 62
     7
100
AcDbLine
 10
56.23684081395103
 20
317.6574804468311
 30
0.0
 11
54.93780270827439
 21
315.4074804468312
 31
0.0
  0
LINE
  5
42
330
1A1
100
AcDbEntity
  8
1
 62
     7
100
AcDbLine
 10
54.93780270827439
 20
258.9074804468312
 30
0.0
 11
56.23684081395103
 21
256.6574804468312
 31
0.0
  0
LINE
  5
43
330
1A1
100
AcDbEntity
  8
1
 62
     7
100
AcDbLine
 10
59.43780270827438
 20
317.6574804468311
 30
0.0
 11
59.43780270827438
 21
256.6574804468312
 31
0.0
  0
LINE
  5
44
330
1A1
100
AcDbEntity
  8
1
 62
     7
100
AcDbLine
 10
59.43780270827438
 20
277.1574804468311
 30
0.0
 11
59.7378027082744
 21
277.1574804468311
 31
0.0
  0
LINE
  5
45
330
1A1
100
AcDbEntity
  8
1
 62
     7
100
AcDbLine
 10
59.43780270827438
 20
256.6574804468312
 30
0.0
 11
56.23684081395103
 21
256.6574804468312
 31
0.0
  0
LINE
  5
46
330
1A1
100
AcDbEntity
  8
1
 62
     7
100
AcDbLine
 10
31.43780270827445
 20
318.0074804468313
 30
0.0
 11
36.43780270827445
 21
318.0074804468313
 31
0.0
  0
LINE
  5
47
330
1A1
100
AcDbEntity
  8
1
 62
     7
100
AcDbLine
 10
54.43780270827438
 20
317.6574804468311
 30
0.0
 11
27.43780270827439
 21
317.6574804468311
 31
0.0
  0
LINE
  5
48
330
1A1
100
AcDbEntity
  8
1
 62
     7
100
AcDbLine
 10
27.43780270827439
 20
317.6574804468311
 30
0.0
 11
26.43780270827439
 21
316.6574804468311
 31
0.0
  0
LINE
  5
49
330
1A1
100
AcDbEntity
  8
1
 62
     7
100
AcDbLine
 10
26.43780270827439
 20
257.6574804468311
 30
0.0
 11
27.43780270827439
 21
256.6574804468312
 31
0.0
  0
LINE
  5
4A
330
1A1
100
AcDbEntity
  8
1
 62
     7
100
AcDbLine
 10
27.43780270827439
 20
256.6574804468312
 30
0.0
 11
54.43780270827438
 21
256.6574804468312
 31
0.0
  0
LINE
  5
4B
330
1A1
100
AcDbEntity
  8
1
 62
     7
100
AcDbLine
 10
26.43780270827439
 20
259.6574804468311
 30
0.0
 11
24.43780270827438
 21
259.6574804468311
 31
0.0
  0
LINE
  5
4C
330
1A1
100
AcDbEntity
  8
1
 62
     7
100
AcDbLine
 10
24.43780270827438
 20
337.1574804468311
 30
0.0
 11
26.43780270827439
 21
337.1574804468311
 31
0.0
  0
LINE
  5
4D
330
1A1
100
AcDbEntity
  8
1
 62
     7
100
AcDbLine
 10
34.85780270827441
 20
342.9391143836535
 30
0.0
 11
34.85780270827441
 21
318.0074804468313
 31
0.0
  0
LINE
  5
4E
330
1A1
100
AcDbEntity
  8
1
 62
     7
100
AcDbLine
 10
33.01780270827436
 20
342.9391143836535
 30
0.0
 11
33.01780270827436
 21
318.0074804468313
 31
0.0
  0
LINE
  5
4F
330
1A1
100
AcDbEntity
  8
1
 62
     7
100
AcDbLine
 10
26.43780270827439
 20
337.1574804468311
 30
0.0
 11
26.43780270827439
 21
257.6574804468311
 31
0.0
  0
LINE
  5
50
330
1A1
100
AcDbEntity
  8
1
 62
     7
100
AcDbLine
 10
24.43780270827438
 20
337.1574804468311
 30
0.0
 11
24.43780270827438
 21
259.6574804468311
 31
0.0
  0
LINE
  5
51
330
1A1
100
AcDbEntity
  8
1
 62
     7
100
AcDbLine
 10
31.43780270827445
 20
318.0074804468313
 30
0.0
 11
31.43780270827439
 21
317.6574804468311
 31
0.0
  0
LINE
  5
52
330
1A1
100
AcDbEntity
  8
1
 62
     7
100
AcDbLine
 10
36.43780270827445
 20
318.0074804468313
 30
0.0
 11
36.43780270827445
 21
317.6574804468311
 31
0.0
  0
LINE
  5
53
330
1A1
100
AcDbEntity
  8
1
  6
DASHDOT
 62
     3
100
AcDbLine
 10
158.0124193527551
 20
287.1574804468311
 30
0.0
 11
154.0124193527551
 21
287.1574804468311
 31
0.0
  0
LINE
  5
54
330
1A1
100
AcDbEntity
  8
1
  6
DASHDOT
 62
     3
100
AcDbLine
 10
210.0124193527552
 20
287.1574804468311
 30
0.0
 11
214.0124193527552
 21
287.1574804468311
 31
0.0
  0
LINE
  5
55
330
1A1
100
AcDbEntity
  8
1
 62
     7
100
AcDbLine
 10
197.3124193527551
 20
301.6574804468311
 30
0.0
 11
193.3124193527552
 21
301.6574804468311
 31
0.0
  0
LINE
  5
56
330
1A1
100
AcDbEntity
  8
1
 62
     7
100
AcDbLine
 10
193.3124193527552
 20
268.1574804468311
 30
0.0
 11
197.3124193527551
 21
268.1574804468311
 31
0.0
  0
LINE
  5
57
330
1A1
100
AcDbEntity
  8
1
 62
     7
100
AcDbLine
 10
195.3124193527552
 20
311.8574804468311
 30
0.0
 11
193.3124193527552
 21
311.8574804468311
 31
0.0
  0
LINE
  5
58
330
1A1
100
AcDbEntity
  8
1
 62
     7
100
AcDbLine
 10
195.3124193527552
 20
317.2574804468311
 30
0.0
 11
195.3124193527552
 21
311.8574804468311
 31
0.0
  0
LINE
  5
59
330
1A1
100
AcDbEntity
  8
1
 62
     7
100
AcDbLine
 10
193.3124193527552
 20
317.2574804468311
 30
0.0
 11
195.3124193527552
 21
317.2574804468311
 31
0.0
  0
LINE
  5
5A
330
1A1
100
AcDbEntity
  8
1
 62
     7
100
AcDbLine
 10
197.3124193527551
 20
256.5074804468311
 30
0.0
 11
193.3124193527552
 21
256.5074804468311
 31
0.0
  0
LINE
  5
5B
330
1A1
100
AcDbEntity
  8
1
 62
     7
100
AcDbLine
 10
197.3124193527551
 20
317.8074804468312
 30
0.0
 11
197.3124193527551
 21
316.1574804468311
 31
0.0
  0
LINE
  5
5C
330
1A1
100
AcDbEntity
  8
1
 62
     7
100
AcDbLine
 10
193.3124193527552
 20
317.8074804468312
 30
0.0
 11
197.3124193527551
 21
317.8074804468312
 31
0.0
  0
LINE
  5
5D
330
1A1
100
AcDbEntity
  8
1
 62
     7
100
AcDbLine
 10
197.3124193527551
 20
317.1574804468312
 30
0.0
 11
197.8124193527552
 21
317.1574804468312
 31
0.0
  0
LINE
  5
5E
330
1A1
100
AcDbEntity
  8
1
 62
     7
100
AcDbLine
 10
197.8124193527552
 20
317.1574804468312
 30
0.0
 11
197.8124193527552
 21
297.1574804468311
 31
0.0
  0
LINE
  5
5F
330
1A1
100
AcDbEntity
  8
1
 62
     7
100
AcDbLine
 10
197.8124193527552
 20
257.1574804468311
 30
0.0
 11
197.3124193527551
 21
257.1574804468311
 31
0.0
  0
LINE
  5
60
330
1A1
100
AcDbEntity
  8
1
 62
     7
100
AcDbLine
 10
194.3124193527552
 20
312.7574804468313
 30
0.0
 11
194.3124193527552
 21
316.3574804468311
 31
0.0
  0
LINE
  5
61
330
1A1
100
AcDbEntity
  8
1
 62
     7
100
AcDbLine
 10
197.3124193527551
 20
312.9574804468313
 30
0.0
 11
197.3124193527551
 21
297.1574804468311
 31
0.0
  0
LINE
  5
62
330
1A1
100
AcDbEntity
  8
1
 62
     7
100
AcDbLine
 10
195.3124193527552
 20
316.1574804468311
 30
0.0
 11
197.8124193527552
 21
316.1574804468311
 31
0.0
  0
LINE
  5
63
330
1A1
100
AcDbEntity
  8
1
 62
     7
100
AcDbLine
 10
195.3124193527552
 20
312.9574804468313
 30
0.0
 11
197.8124193527552
 21
312.9574804468313
 31
0.0
  0
LINE
  5
64
330
1A1
100
AcDbEntity
  8
1
 62
     7
100
AcDbLine
 10
207.0124193527552
 20
301.1574804468311
 30
0.0
 11
207.0124193527552
 21
292.8143346963236
 31
0.0
  0
LINE
  5
65
330
1A1
100
AcDbEntity
  8
1
 62
     7
100
AcDbLine
 10
210.0124193527552
 20
301.1574804468311
 30
0.0
 11
207.0124193527552
 21
301.1574804468311
 31
0.0
  0
LINE
  5
66
330
1A1
100
AcDbEntity
  8
1
 62
     7
100
AcDbLine
 10
197.8124193527552
 20
276.1574804468311
 30
0.0
 11
207.0124193527552
 21
276.1574804468311
 31
0.0
  0
LINE
  5
67
330
1A1
100
AcDbEntity
  8
1
 62
     7
100
AcDbLine
 10
197.8124193527552
 20
298.1574804468312
 30
0.0
 11
207.0124193527552
 21
298.1574804468312
 31
0.0
  0
LINE
  5
68
330
1A1
100
AcDbEntity
  8
1
 62
     7
100
AcDbLine
 10
210.0124193527552
 20
262.6574804468311
 30
0.0
 11
197.8124193527552
 21
262.6574804468311
 31
0.0
  0
LINE
  5
69
330
1A1
100
AcDbEntity
  8
1
 62
     7
100
AcDbLine
 10
210.0124193527552
 20
311.6574804468311
 30
0.0
 11
197.8124193527552
 21
311.6574804468311
 31
0.0
  0
LINE
  5
6A
330
1A1
100
AcDbEntity
  8
1
 62
     7
100
AcDbLine
 10
210.0124193527552
 20
311.6574804468311
 30
0.0
 11
210.0124193527552
 21
301.1574804468311
 31
0.0
  0
LINE
  5
6B
330
1A1
100
AcDbEntity
  8
1
 62
     7
100
AcDbLine
 10
207.0124193527552
 20
273.1574804468312
 30
0.0
 11
210.0124193527552
 21
273.1574804468312
 31
0.0
  0
LINE
  5
6C
330
1A1
100
AcDbEntity
  8
1
 62
     3
100
AcDbLine
 10
197.8124193527552
 20
306.6574804468312
 30
0.0
 11
210.0124193527552
 21
306.6574804468312
 31
0.0
  0
LINE
  5
6D
330
1A1
100
AcDbEntity
  8
1
 62
     3
100
AcDbLine
 10
197.8124193527552
 20
309.6574804468311
 30
0.0
 11
210.0124193527552
 21
309.6574804468311
 31
0.0
  0
LINE
  5
6E
330
1A1
100
AcDbEntity
  8
1
  6
CENTER
 62
     3
100
AcDbLine
 10
195.8124193527551
 20
308.1574804468311
 30
0.0
 11
212.0124193527552
 21
308.1574804468311
 31
0.0
  0
LINE
  5
6F
330
1A1
100
AcDbEntity
  8
1
 62
     7
100
AcDbLine
 10
197.8124193527552
 20
306.9574804468313
 30
0.0
 11
210.0124193527552
 21
306.9574804468313
 31
0.0
  0
LINE
  5
70
330
1A1
100
AcDbEntity
  8
1
 62
     7
100
AcDbLine
 10
197.8124193527552
 20
309.3574804468311
 30
0.0
 11
210.0124193527552
 21
309.3574804468311
 31
0.0
  0
LINE
  5
71
330
1A1
100
AcDbEntity
  8
1
 62
     7
100
AcDbLine
 10
197.3124193527551
 20
269.1574804468312
 30
0.0
 11
193.6124193527552
 21
269.1574804468312
 31
0.0
  0
LINE
  5
72
330
1A1
100
AcDbEntity
  8
1
 62
     7
100
AcDbLine
 10
193.6124193527552
 20
269.1574804468312
 30
0.0
 11
193.3124193527552
 21
269.6770956891019
 31
0.0
  0
LINE
  5
73
330
1A1
100
AcDbEntity
  8
1
 62
     7
100
AcDbLine
 10
193.3124193527552
 20
275.6378652045604
 30
0.0
 11
193.6124193527552
 21
276.1574804468311
 31
0.0
  0
LINE
  5
74
330
1A1
100
AcDbEntity
  8
1
 62
     7
100
AcDbLine
 10
193.6124193527552
 20
276.1574804468311
 30
0.0
 11
197.3124193527551
 21
276.1574804468311
 31
0.0
  0
LINE
  5
75
330
1A1
100
AcDbEntity
  8
1
 62
     7
100
AcDbLine
 10
193.6124193527552
 20
269.1574804468312
 30
0.0
 11
193.6124193527552
 21
276.1574804468311
 31
0.0
  0
LINE
  5
76
330
1A1
100
AcDbEntity
  8
1
 62
     7
100
AcDbLine
 10
197.3124193527551
 20
270.6574804468311
 30
0.0
 11
202.7124193527551
 21
270.6574804468311
 31
0.0
  0
LINE
  5
77
330
1A1
100
AcDbEntity
  8
1
 62
     7
100
AcDbLine
 10
202.7124193527551
 20
270.6574804468311
 30
0.0
 11
203.3124193527552
 21
271.2574804468311
 31
0.0
  0
LINE
  5
78
330
1A1
100
AcDbEntity
  8
1
 62
     7
100
AcDbLine
 10
203.3124193527552
 20
274.0574804468313
 30
0.0
 11
202.7124193527551
 21
274.6574804468311
 31
0.0
  0
LINE
  5
79
330
1A1
100
AcDbEntity
  8
1
 62
     7
100
AcDbLine
 10
202.7124193527551
 20
274.6574804468311
 30
0.0
 11
197.3124193527551
 21
274.6574804468311
 31
0.0
  0
LINE
  5
7A
330
1A1
100
AcDbEntity
  8
1
 62
     7
100
AcDbLine
 10
202.7124193527551
 20
270.6574804468311
 30
0.0
 11
202.7124193527551
 21
274.6574804468311
 31
0.0
  0
LINE
  5
7B
330
1A1
100
AcDbEntity
  8
1
 62
     7
100
AcDbLine
 10
198.8516498372966
 20
270.6574804468311
 30
0.0
 11
198.8516498372966
 21
274.6574804468311
 31
0.0
  0
LINE
  5
7C
330
1A1
100
AcDbEntity
  8
1
 62
     3
100
AcDbLine
 10
203.3124193527552
 20
271.2574804468311
 30
0.0
 11
198.8516498372966
 21
271.2574804468311
 31
0.0
  0
LINE
  5
7D
330
1A1
100
AcDbEntity
  8
1
 62
     3
100
AcDbLine
 10
198.8516498372966
 20
271.2574804468311
 30
0.0
 11
197.8124193527552
 21
270.6574804468311
 31
0.0
  0
LINE
  5
7E
330
1A1
100
AcDbEntity
  8
1
 62
     3
100
AcDbLine
 10
203.3124193527552
 20
274.0574804468313
 30
0.0
 11
198.8516498372966
 21
274.0574804468313
 31
0.0
  0
LINE
  5
7F
330
1A1
100
AcDbEntity
  8
1
 62
     3
100
AcDbLine
 10
198.8516498372966
 20
274.0574804468313
 30
0.0
 11
197.8124193527552
 21
274.6574804468311
 31
0.0
  0
LINE
  5
80
330
1A1
100
AcDbEntity
  8
1
 62
     7
100
AcDbLine
 10
197.8124193527552
 20
270.6574804468311
 30
0.0
 11
197.8124193527552
 21
257.1574804468311
 31
0.0
  0
LINE
  5
81
330
1A1
100
AcDbEntity
  8
1
 62
     7
100
AcDbLine
 10
204.9124193527552
 20
274.2574804468311
 30
0.0
 11
203.1124193527552
 21
274.2574804468311
 31
0.0
  0
LINE
  5
82
330
1A1
100
AcDbEntity
  8
1
 62
     7
100
AcDbLine
 10
204.9124193527552
 20
274.2574804468311
 30
0.0
 11
204.9124193527552
 21
271.0574804468313
 31
0.0
  0
LINE
  5
83
330
1A1
100
AcDbEntity
  8
1
 62
     7
100
AcDbLine
 10
204.9124193527552
 20
271.0574804468313
 30
0.0
 11
203.1124193527552
 21
271.0574804468313
 31
0.0
  0
LINE
  5
84
330
1A1
100
AcDbEntity
  8
1
 62
     7
100
AcDbLine
 10
204.9124193527552
 20
274.2574804468311
 30
0.0
 11
205.8361797834586
 21
272.6574804468311
 31
0.0
  0
LINE
  5
85
330
1A1
100
AcDbEntity
  8
1
 62
     7
100
AcDbLine
 10
205.8361797834586
 20
272.6574804468311
 30
0.0
 11
204.9124193527552
 21
271.0574804468313
 31
0.0
  0
LINE
  5
86
330
1A1
100
AcDbEntity
  8
1
 62
     7
100
AcDbLine
 10
193.3124193527552
 20
317.8074804468312
 30
0.0
 11
193.3124193527552
 21
297.1574804468311
 31
0.0
  0
LINE
  5
87
330
1A1
100
AcDbEntity
  8
1
 62
     7
100
AcDbLine
 10
203.3124193527552
 20
274.2574804468311
 30
0.0
 11
203.3124193527552
 21
271.0574804468311
 31
0.0
  0
LINE
  5
88
330
1A1
100
AcDbEntity
  8
1
 62
     7
100
AcDbLine
 10
193.3124193527552
 20
277.1574804468311
 30
0.0
 11
193.3124193527552
 21
256.5074804468311
 31
0.0
  0
LINE
  5
89
330
1A1
100
AcDbEntity
  8
1
 62
     7
100
AcDbLine
 10
197.3124193527551
 20
277.1574804468311
 30
0.0
 11
197.3124193527551
 21
256.5074804468311
 31
0.0
  0
LINE
  5
8A
330
1A1
100
AcDbEntity
  8
1
 62
     7
100
AcDbLine
 10
197.8124193527552
 20
277.1574804468311
 30
0.0
 11
197.8124193527552
 21
274.6574804468311
 31
0.0
  0
LINE
  5
8B
330
1A1
100
AcDbEntity
  8
1
 62
     7
100
AcDbLine
 10
160.0124193527551
 20
257.6574804468313
 30
0.0
 11
160.0124193527551
 21
280.1974804468313
 31
0.0
  0
LINE
  5
8C
330
1A1
100
AcDbEntity
  8
1
 62
     7
100
AcDbLine
 10
178.0124193527552
 20
278.1574804468312
 30
0.0
 11
176.0124193527552
 21
278.1574804468312
 31
0.0
  0
LINE
  5
8D
330
1A1
100
AcDbEntity
  8
1
 62
     7
100
AcDbLine
 10
178.0124193527552
 20
273.7074804468313
 30
0.0
 11
178.0124193527552
 21
278.1574804468312
 31
0.0
  0
LINE
  5
8E
330
1A1
100
AcDbEntity
  8
1
 62
     7
100
AcDbLine
 10
185.0124193527552
 20
273.7074804468313
 30
0.0
 11
178.0124193527552
 21
273.7074804468313
 31
0.0
  0
LINE
  5
8F
330
1A1
100
AcDbEntity
  8
1
 62
     7
100
AcDbLine
 10
185.0124193527552
 20
258.9074804468312
 30
0.0
 11
185.0124193527552
 21
273.7074804468313
 31
0.0
  0
LINE
  5
90
330
1A1
100
AcDbEntity
  8
1
 62
     7
100
AcDbLine
 10
188.5124193527552
 20
258.9074804468312
 30
0.0
 11
185.0124193527552
 21
258.9074804468312
 31
0.0
  0
LINE
  5
91
330
1A1
100
AcDbEntity
  8
1
 62
     7
100
AcDbLine
 10
207.0124193527552
 20
277.1574804468313
 30
0.0
 11
193.0124193527552
 21
277.1574804468313
 31
0.0
  0
LINE
  5
92
330
1A1
100
AcDbEntity
  8
1
 62
     7
100
AcDbLine
 10
192.0124193527552
 20
276.6574804468313
 30
0.0
 11
192.0124193527552
 21
268.9074804468313
 31
0.0
  0
LINE
  5
93
330
1A1
100
AcDbEntity
  8
1
 62
     7
100
AcDbLine
 10
193.0124193527552
 20
256.6574804468312
 30
0.0
 11
189.8114574584319
 21
256.6574804468312
 31
0.0
  0
LINE
  5
94
330
1A1
100
AcDbEntity
  8
1
 62
     7
100
AcDbLine
 10
188.5124193527552
 20
258.9074804468312
 30
0.0
 11
189.8114574584319
 21
256.6574804468312
 31
0.0
  0
LINE
  5
95
330
1A1
100
AcDbEntity
  8
1
 62
     7
100
AcDbLine
 10
193.0124193527552
 20
277.1574804468313
 30
0.0
 11
193.0124193527552
 21
256.6574804468312
 31
0.0
  0
LINE
  5
96
330
1A1
100
AcDbEntity
  8
1
 62
     7
100
AcDbLine
 10
192.5124193527552
 20
277.1574804468313
 30
0.0
 11
193.0124193527552
 21
277.1574804468313
 31
0.0
  0
LINE
  5
97
330
1A1
100
AcDbEntity
  8
1
 62
     7
100
AcDbLine
 10
192.0124193527552
 20
268.9074804468313
 30
0.0
 11
193.0124193527552
 21
267.9074804468313
 31
0.0
  0
LINE
  5
98
330
1A1
100
AcDbEntity
  8
1
 62
     7
100
AcDbLine
 10
161.0124193527551
 20
256.6574804468312
 30
0.0
 11
188.0124193527552
 21
256.6574804468312
 31
0.0
  0
LINE
  5
99
330
1A1
100
AcDbEntity
  8
1
 62
     7
100
AcDbLine
 10
188.0124193527552
 20
258.9074804468312
 30
0.0
 11
188.0124193527552
 21
256.6574804468312
 31
0.0
  0
LINE
  5
9A
330
1A1
100
AcDbEntity
  8
1
 62
     7
100
AcDbLine
 10
177.2124193527552
 20
273.1574804468313
 30
0.0
 11
184.0124193527552
 21
273.1574804468313
 31
0.0
  0
LINE
  5
9B
330
1A1
100
AcDbEntity
  8
1
 62
     7
100
AcDbLine
 10
184.0124193527552
 20
273.7074804468313
 30
0.0
 11
184.0124193527552
 21
257.8574804468313
 31
0.0
  0
LINE
  5
9C
330
1A1
100
AcDbEntity
  8
1
 62
     7
100
AcDbLine
 10
188.0124193527552
 20
257.8574804468313
 30
0.0
 11
184.0124193527552
 21
257.8574804468313
 31
0.0
  0
LINE
  5
9D
330
1A1
100
AcDbEntity
  8
1
 62
     7
100
AcDbLine
 10
177.2124193527552
 20
272.4574804468313
 30
0.0
 11
175.8624193527552
 21
272.4574804468313
 31
0.0
  0
LINE
  5
9E
330
1A1
100
AcDbEntity
  8
1
 62
     7
100
AcDbLine
 10
177.2124193527552
 20
278.1574804468312
 30
0.0
 11
177.2124193527552
 21
272.4574804468313
 31
0.0
  0
LINE
  5
9F
330
1A1
100
AcDbEntity
  8
1
 62
     7
100
AcDbLine
 10
160.0124193527551
 20
257.6574804468313
 30
0.0
 11
161.0124193527551
 21
256.6574804468312
 31
0.0
  0
LINE
  5
A0
330
1A1
100
AcDbEntity
  8
1
 62
     7
100
AcDbLine
 10
160.0124193527551
 20
275.1574804468313
 30
0.0
 11
158.0124193527551
 21
275.1574804468313
 31
0.0
  0
LINE
  5
A1
330
1A1
100
AcDbEntity
  8
1
 62
     7
100
AcDbLine
 10
167.0524193527551
 20
281.1574804468313
 30
0.0
 11
160.9724193527551
 21
281.1574804468313
 31
0.0
  0
LINE
  5
A2
330
1A1
100
AcDbEntity
  8
1
 62
     7
100
AcDbLine
 10
170.8124193527551
 20
275.0790194777486
 30
0.0
 11
165.2124193527551
 21
275.0790194777486
 31
0.0
  0
LINE
  5
A3
330
1A1
100
AcDbEntity
  8
1
 62
     7
100
AcDbLine
 10
160.0124193527551
 20
275.0790194777486
 30
0.0
 11
162.8124193527551
 21
275.0790194777486
 31
0.0
  0
LINE
  5
A4
330
1A1
100
AcDbEntity
  8
1
 62
     7
100
AcDbLine
 10
160.0124193527551
 20
279.2359414159139
 30
0.0
 11
162.8124193527551
 21
279.2359414159139
 31
0.0
  0
LINE
  5
A5
330
1A1
100
AcDbEntity
  8
1
 62
     7
100
AcDbLine
 10
170.8124193527551
 20
279.2359414159139
 30
0.0
 11
165.2124193527551
 21
279.2359414159139
 31
0.0
  0
LINE
  5
A6
330
1A1
100
AcDbEntity
  8
1
 62
     7
100
AcDbLine
 10
175.0524193527552
 20
281.1574804468313
 30
0.0
 11
168.9724193527552
 21
281.1574804468313
 31
0.0
  0
LINE
  5
A7
330
1A1
100
AcDbEntity
  8
1
 62
     7
100
AcDbLine
 10
176.0124193527552
 20
275.0790194777486
 30
0.0
 11
173.2124193527551
 21
275.0790194777486
 31
0.0
  0
LINE
  5
A8
330
1A1
100
AcDbEntity
  8
1
 62
     7
100
AcDbLine
 10
176.0124193527552
 20
279.2359414159139
 30
0.0
 11
173.2124193527551
 21
279.2359414159139
 31
0.0
  0
LINE
  5
A9
330
1A1
100
AcDbEntity
  8
1
 62
     7
100
AcDbLine
 10
175.8624193527552
 20
273.1574804468313
 30
0.0
 11
160.0124193527551
 21
273.1574804468313
 31
0.0
  0
LINE
  5
AA
330
1A1
100
AcDbEntity
  8
1
 62
     7
100
AcDbLine
 10
175.8624193527552
 20
272.4574804468313
 30
0.0
 11
175.8624193527552
 21
273.6022135257119
 31
0.0
  0
LINE
  5
AB
330
1A1
100
AcDbEntity
  8
1
 62
     7
100
AcDbLine
 10
177.2124193527552
 20
275.1074804468313
 30
0.0
 11
176.0124193527552
 21
275.1074804468313
 31
0.0
  0
LINE
  5
AC
330
1A1
100
AcDbEntity
  8
1
 62
     7
100
AcDbLine
 10
321.0360548800313
 20
317.6240985474931
 30
0.0
 11
327.5535460047312
 21
341.9477065627532
 31
0.0
  0
LINE
  5
AD
330
1A1
100
AcDbEntity
  8
1
  6
CENTER
 62
     3
100
AcDbLine
 10
299.3622051484429
 20
278.2574804468313
 30
0.0
 11
293.8196425642226
 21
275.0574804468313
 31
0.0
  0
LINE
  5
AE
330
1A1
100
AcDbEntity
  8
1
  6
CENTER
 62
     3
100
AcDbLine
 10
314.7774573358059
 20
304.9574804468313
 30
0.0
 11
314.7774573358061
 21
311.3574804468311
 31
0.0
  0
LINE
  5
AF
330
1A1
100
AcDbEntity
  8
1
  6
DASHDOT
 62
     3
100
AcDbLine
 10
318.1564098321709
 20
287.1574804468311
 30
0.0
 11
311.3985048394411
 21
287.1574804468311
 31
0.0
  0
LINE
  5
B0
330
1A1
100
AcDbEntity
  8
1
  6
CENTER
 62
     3
100
AcDbLine
 10
314.7774573358059
 20
290.5364329431961
 30
0.0
 11
314.7774573358059
 21
283.7785279504663
 31
0.0
  0
LINE
  5
B1
330
1A1
100
AcDbEntity
  8
1
 62
     7
100
AcDbLine
 10
176.0124193527552
 20
296.1574804468312
 30
0.0
 11
178.0124193527552
 21
296.1574804468312
 31
0.0
  0
LINE
  5
B2
330
1A1
100
AcDbEntity
  8
1
 62
     7
100
AcDbLine
 10
178.0124193527552
 20
296.1574804468312
 30
0.0
 11
178.0124193527552
 21
300.6074804468311
 31
0.0
  0
LINE
  5
B3
330
1A1
100
AcDbEntity
  8
1
 62
     7
100
AcDbLine
 10
178.0124193527552
 20
300.6074804468311
 30
0.0
 11
185.0124193527552
 21
300.6074804468311
 31
0.0
  0
LINE
  5
B4
330
1A1
100
AcDbEntity
  8
1
 62
     7
100
AcDbLine
 10
185.0124193527552
 20
300.6074804468311
 30
0.0
 11
185.0124193527552
 21
315.4074804468312
 31
0.0
  0
LINE
  5
B5
330
1A1
100
AcDbEntity
  8
1
 62
     7
100
AcDbLine
 10
185.0124193527552
 20
315.4074804468312
 30
0.0
 11
189.0124193527552
 21
315.4074804468312
 31
0.0
  0
LINE
  5
B6
330
1A1
100
AcDbEntity
  8
1
 62
     7
100
AcDbLine
 10
193.0124193527552
 20
297.1574804468311
 30
0.0
 11
207.0124193527552
 21
297.1574804468311
 31
0.0
  0
LINE
  5
B7
330
1A1
100
AcDbEntity
  8
1
 62
     7
100
AcDbLine
 10
192.0124193527552
 20
305.4074804468311
 30
0.0
 11
192.0124193527552
 21
297.6574804468311
 31
0.0
  0
LINE
  5
B8
330
1A1
100
AcDbEntity
  8
1
 62
     7
100
AcDbLine
 10
189.8114574584319
 20
317.6574804468311
 30
0.0
 11
193.0124193527552
 21
317.6574804468311
 31
0.0
  0
LINE
  5
B9
330
1A1
100
AcDbEntity
  8
1
 62
     7
100
AcDbLine
 10
189.8114574584319
 20
317.6574804468311
 30
0.0
 11
189.0124193527552
 21
315.4074804468312
 31
0.0
  0
LINE
  5
BA
330
1A1
100
AcDbEntity
  8
1
 62
     7
100
AcDbLine
 10
176.0124193527552
 20
294.6574804468312
 30
0.0
 11
207.0124193527552
 21
294.6574804468312
 31
0.0
  0
LINE
  5
BB
330
1A1
100
AcDbEntity
  8
1
 62
     7
100
AcDbLine
 10
176.0124193527552
 20
292.8143346963236
 30
0.0
 11
207.0124193527552
 21
292.8143346963236
 31
0.0
  0
LINE
  5
BC
330
1A1
100
AcDbEntity
  8
1
 62
     7
100
AcDbLine
 10
193.0124193527552
 20
317.6574804468311
 30
0.0
 11
193.0124193527552
 21
297.1574804468311
 31
0.0
  0
LINE
  5
BD
330
1A1
100
AcDbEntity
  8
1
 62
     7
100
AcDbLine
 10
193.0124193527552
 20
297.1574804468311
 30
0.0
 11
192.5124193527552
 21
297.1574804468311
 31
0.0
  0
LINE
  5
BE
330
1A1
100
AcDbEntity
  8
1
 62
     7
100
AcDbLine
 10
193.0124193527552
 20
306.4074804468312
 30
0.0
 11
192.0124193527552
 21
305.4074804468311
 31
0.0
  0
LINE
  5
BF
330
1A1
100
AcDbEntity
  8
1
 62
     7
100
AcDbLine
 10
165.0124193527553
 20
318.0074804468313
 30
0.0
 11
170.0124193527553
 21
318.0074804468313
 31
0.0
  0
LINE
  5
C0
330
1A1
100
AcDbEntity
  8
1
 62
     7
100
AcDbLine
 10
188.0124193527552
 20
317.6574804468311
 30
0.0
 11
161.0124193527551
 21
317.6574804468311
 31
0.0
  0
LINE
  5
C1
330
1A1
100
AcDbEntity
  8
1
 62
     7
100
AcDbLine
 10
188.0124193527552
 20
317.6574804468311
 30
0.0
 11
188.0124193527552
 21
315.4074804468312
 31
0.0
  0
LINE
  5
C2
330
1A1
100
AcDbEntity
  8
1
 62
     7
100
AcDbLine
 10
184.0124193527552
 20
301.1574804468311
 30
0.0
 11
177.2124193527552
 21
301.1574804468311
 31
0.0
  0
LINE
  5
C3
330
1A1
100
AcDbEntity
  8
1
 62
     7
100
AcDbLine
 10
184.0124193527552
 20
316.457480446831
 30
0.0
 11
184.0124193527552
 21
300.6074804468311
 31
0.0
  0
LINE
  5
C4
330
1A1
100
AcDbEntity
  8
1
 62
     7
100
AcDbLine
 10
184.0124193527552
 20
316.457480446831
 30
0.0
 11
188.0124193527552
 21
316.457480446831
 31
0.0
  0
LINE
  5
C5
330
1A1
100
AcDbEntity
  8
1
 62
     7
100
AcDbLine
 10
175.8624193527552
 20
301.8574804468311
 30
0.0
 11
177.2124193527552
 21
301.8574804468311
 31
0.0
  0
LINE
  5
C6
330
1A1
100
AcDbEntity
  8
1
 62
     7
100
AcDbLine
 10
177.2124193527552
 20
301.8574804468311
 30
0.0
 11
177.2124193527552
 21
296.1574804468312
 31
0.0
  0
LINE
  5
C7
330
1A1
100
AcDbEntity
  8
1
 62
     7
100
AcDbLine
 10
161.0124193527551
 20
317.6574804468311
 30
0.0
 11
160.0124193527551
 21
316.6574804468311
 31
0.0
  0
LINE
  5
C8
330
1A1
100
AcDbEntity
  8
1
 62
     7
100
AcDbLine
 10
158.0124193527551
 20
323.0574804468312
 30
0.0
 11
160.0124193527551
 21
323.0574804468312
 31
0.0
  0
LINE
  5
C9
330
1A1
100
AcDbEntity
  8
1
 62
     7
100
AcDbLine
 10
158.0124193527551
 20
334.2574804468313
 30
0.0
 11
160.0124193527551
 21
334.2574804468313
 31
0.0
  0
LINE
  5
CA
330
1A1
100
AcDbEntity
  8
1
 62
     7
100
AcDbLine
 10
158.0124193527551
 20
299.1574804468312
 30
0.0
 11
160.0124193527551
 21
299.1574804468312
 31
0.0
  0
LINE
  5
CB
330
1A1
100
AcDbEntity
  8
1
 62
     7
100
AcDbLine
 10
160.0124193527551
 20
259.6574804468311
 30
0.0
 11
158.0124193527551
 21
259.6574804468311
 31
0.0
  0
LINE
  5
CC
330
1A1
100
AcDbEntity
  8
1
 62
     7
100
AcDbLine
 10
158.0124193527551
 20
259.6574804468311
 30
0.0
 11
158.0124193527551
 21
275.1574804468313
 31
0.0
  0
LINE
  5
CD
330
1A1
100
AcDbEntity
  8
1
 62
     7
100
AcDbLine
 10
158.0124193527551
 20
337.1574804468311
 30
0.0
 11
160.0124193527551
 21
337.1574804468311
 31
0.0
  0
LINE
  5
CE
330
1A1
100
AcDbEntity
  8
1
 62
     3
100
AcDbLine
 10
167.9024193527551
 20
345.8999195282913
 30
0.0
 11
167.9024193527551
 21
342.9391143836535
 31
0.0
  0
LINE
  5
CF
330
1A1
100
AcDbEntity
  8
1
 62
     3
100
AcDbLine
 10
167.1224193527551
 20
342.9391143836535
 30
0.0
 11
167.1224193527551
 21
345.8999195282913
 31
0.0
  0
LINE
  5
D0
330
1A1
100
AcDbEntity
  8
1
 62
     7
100
AcDbLine
 10
166.5924193527551
 20
342.9391143836535
 30
0.0
 11
168.4324193527551
 21
342.9391143836535
 31
0.0
  0
LINE
  5
D1
330
1A1
100
AcDbEntity
  8
1
 62
     7
100
AcDbLine
 10
168.4324193527551
 20
342.9391143836535
 30
0.0
 11
168.4324193527551
 21
318.0074804468313
 31
0.0
  0
LINE
  5
D2
330
1A1
100
AcDbEntity
  8
1
 62
     7
100
AcDbLine
 10
166.5924193527551
 20
342.9391143836535
 30
0.0
 11
166.5924193527551
 21
318.0074804468313
 31
0.0
  0
LINE
  5
D3
330
1A1
100
AcDbEntity
  8
1
 62
     7
100
AcDbLine
 10
160.9724193527551
 20
293.1574804468311
 30
0.0
 11
167.0524193527551
 21
293.1574804468311
 31
0.0
  0
LINE
  5
D4
330
1A1
100
AcDbEntity
  8
1
 62
     7
100
AcDbLine
 10
165.2124193527551
 20
299.2359414159139
 30
0.0
 11
170.8124193527551
 21
299.2359414159139
 31
0.0
  0
LINE
  5
D5
330
1A1
100
AcDbEntity
  8
1
 62
     7
100
AcDbLine
 10
162.8124193527551
 20
299.2359414159139
 30
0.0
 11
160.0124193527551
 21
299.2359414159139
 31
0.0
  0
LINE
  5
D6
330
1A1
100
AcDbEntity
  8
1
 62
     7
100
AcDbLine
 10
162.8124193527551
 20
295.0790194777487
 30
0.0
 11
160.0124193527551
 21
295.0790194777487
 31
0.0
  0
LINE
  5
D7
330
1A1
100
AcDbEntity
  8
1
 62
     7
100
AcDbLine
 10
165.2124193527551
 20
295.0790194777487
 30
0.0
 11
170.8124193527551
 21
295.0790194777487
 31
0.0
  0
LINE
  5
D8
330
1A1
100
AcDbEntity
  8
1
 62
     7
100
AcDbLine
 10
168.9724193527552
 20
293.1574804468311
 30
0.0
 11
175.0524193527552
 21
293.1574804468311
 31
0.0
  0
LINE
  5
D9
330
1A1
100
AcDbEntity
  8
1
 62
     7
100
AcDbLine
 10
173.2124193527551
 20
299.2359414159139
 30
0.0
 11
176.0124193527552
 21
299.2359414159139
 31
0.0
  0
LINE
  5
DA
330
1A1
100
AcDbEntity
  8
1
 62
     7
100
AcDbLine
 10
173.2124193527551
 20
295.0790194777487
 30
0.0
 11
176.0124193527552
 21
295.0790194777487
 31
0.0
  0
LINE
  5
DB
330
1A1
100
AcDbEntity
  8
1
 62
     7
100
AcDbLine
 10
160.0124193527551
 20
301.1574804468311
 30
0.0
 11
175.8624193527552
 21
301.1574804468311
 31
0.0
  0
LINE
  5
DC
330
1A1
100
AcDbEntity
  8
1
 62
     7
100
AcDbLine
 10
175.8624193527552
 20
300.7127473679509
 30
0.0
 11
175.8624193527552
 21
301.8574804468311
 31
0.0
  0
LINE
  5
DD
330
1A1
100
AcDbEntity
  8
1
 62
     7
100
AcDbLine
 10
176.0124193527552
 20
299.2074804468312
 30
0.0
 11
177.2124193527552
 21
299.2074804468312
 31
0.0
  0
LINE
  5
DE
330
1A1
100
AcDbEntity
  8
1
 62
     7
100
AcDbLine
 10
168.0124193527551
 20
300.1974804468312
 30
0.0
 11
168.0124193527551
 21
294.1174804468311
 31
0.0
  0
LINE
  5
DF
330
1A1
100
AcDbEntity
  8
1
 62
     7
100
AcDbLine
 10
176.0124193527552
 20
301.8574804468311
 30
0.0
 11
176.0124193527552
 21
292.8143346963236
 31
0.0
  0
LINE
  5
E0
330
1A1
100
AcDbEntity
  8
1
  6
CENTER
 62
     3
100
AcDbLine
 10
330.1927095231692
 20
278.2574804468311
 30
0.0
 11
335.7352721073894
 21
275.0574804468311
 31
0.0
  0
LINE
  5
E1
330
1A1
100
AcDbEntity
  8
1
 62
     7
100
AcDbLine
 10
312.177457335806
 20
331.6574804468312
 30
0.0
 11
312.177457335806
 21
325.6574804468312
 31
0.0
  0
LINE
  5
E2
330
1A1
100
AcDbEntity
  8
1
 62
     7
100
AcDbLine
 10
317.3774573358061
 20
331.6574804468312
 30
0.0
 11
317.3774573358061
 21
325.6574804468312
 31
0.0
  0
LINE
  5
E3
330
1A1
100
AcDbEntity
  8
1
 62
     7
100
AcDbLine
 10
320.7774573358059
 20
336.1574804468312
 30
0.0
 11
320.7774573358059
 21
317.6933895506329
 31
0.0
  0
LINE
  5
E4
330
1A1
100
AcDbEntity
  8
1
 62
     7
100
AcDbLine
 10
319.777457335806
 20
337.1574804468311
 30
0.0
 11
309.7774573358059
 21
337.1574804468311
 31
0.0
  0
LINE
  5
E5
330
1A1
100
AcDbEntity
  8
1
 62
     7
100
AcDbLine
 10
308.777457335806
 20
336.1574804468312
 30
0.0
 11
308.777457335806
 21
317.0614935554425
 31
0.0
  0
LINE
  5
E6
330
1A1
100
AcDbEntity
  8
1
 62
     7
100
AcDbLine
 10
320.3985438346804
 20
317.7949191172606
 30
0.0
 11
325.2281729661258
 21
316.5008238917482
 31
0.0
  0
LINE
  5
E7
330
1A1
100
AcDbEntity
  8
1
 62
     7
100
AcDbLine
 10
329.3308495251033
 20
341.4714795197645
 30
0.0
 11
322.8133584004031
 21
317.1478715045044
 31
0.0
  0
LINE
  5
E8
330
1A1
100
AcDbEntity
  8
1
 62
     7
100
AcDbLine
 10
331.108153045475
 20
340.9952524767758
 30
0.0
 11
324.5906619207751
 21
316.6716444615158
 31
0.0
  0
LINE
  5
E9
330
1A1
100
AcDbEntity
  8
1
 62
     7
100
AcDbLine
 10
320.2690138999686
 20
317.3115068198151
 30
0.0
 11
320.3985438346804
 21
317.7949191172606
 31
0.0
  0
LINE
  5
EA
330
1A1
100
AcDbEntity
  8
1
 62
     7
100
AcDbLine
 10
325.098643031414
 20
316.0174115943023
 30
0.0
 11
325.2281729661258
 21
316.5008238917482
 31
0.0
  0
LINE
  5
EB
330
1A1
100
AcDbEntity
  8
1
 62
     7
100
AcDbLine
 10
312.777457335806
 20
292.8143346963236
 30
0.0
 11
312.777457335806
 21
294.6574804468312
 31
0.0
  0
LINE
  5
EC
330
1A1
100
AcDbEntity
  8
1
 62
     7
100
AcDbLine
 10
316.7774573358059
 20
294.6574804468312
 30
0.0
 11
312.777457335806
 21
294.6574804468312
 31
0.0
  0
LINE
  5
ED
330
1A1
100
AcDbEntity
  8
1
 62
     7
100
AcDbLine
 10
316.7774573358059
 20
294.6574804468312
 30
0.0
 11
316.7774573358059
 21
292.8143346963236
 31
0.0
  0
LINE
  5
EE
330
1A1
100
AcDbEntity
  8
1
 62
     7
100
AcDbLine
 10
165.0124193527553
 20
318.0074804468313
 30
0.0
 11
165.0124193527551
 21
317.6574804468311
 31
0.0
  0
LINE
  5
EF
330
1A1
100
AcDbEntity
  8
1
 62
     7
100
AcDbLine
 10
170.0124193527553
 20
318.0074804468313
 30
0.0
 11
170.0124193527553
 21
317.6574804468311
 31
0.0
  0
LINE
  5
F0
330
1A1
100
AcDbEntity
  8
1
 62
     7
100
AcDbLine
 10
54.43780270827438
 20
315.4074804468312
 30
0.0
 11
54.93780270827439
 21
315.4074804468312
 31
0.0
  0
LINE
  5
F1
330
1A1
100
AcDbEntity
  8
1
 62
     7
100
AcDbLine
 10
54.43780270827438
 20
317.6574804468311
 30
0.0
 11
54.43780270827438
 21
256.6574804468312
 31
0.0
  0
LINE
  5
F2
330
1A1
100
AcDbEntity
  8
1
 62
     7
100
AcDbLine
 10
54.93780270827439
 20
315.4074804468312
 30
0.0
 11
54.93780270827439
 21
258.9074804468312
 31
0.0
  0
LINE
  5
F3
330
1A1
100
AcDbEntity
  8
1
 62
     7
100
AcDbLine
 10
56.23684081395103
 20
317.6574804468311
 30
0.0
 11
56.23684081395103
 21
256.6574804468312
 31
0.0
  0
LINE
  5
F4
330
1A1
100
AcDbEntity
  8
1
 62
     7
100
AcDbLine
 10
27.43780270827439
 20
317.6574804468311
 30
0.0
 11
27.43780270827439
 21
256.6574804468312
 31
0.0
  0
LINE
  5
F5
330
1A1
100
AcDbEntity
  8
1
 62
     7
100
AcDbLine
 10
59.7378027082744
 20
297.1574804468311
 30
0.0
 11
59.43780270827438
 21
297.1574804468311
 31
0.0
  0
LINE
  5
F6
330
1A1
100
AcDbEntity
  8
1
 62
     7
100
AcDbLine
 10
176.0124193527552
 20
281.1574804468311
 30
0.0
 11
207.0124193527552
 21
281.1574804468311
 31
0.0
  0
LINE
  5
F7
330
1A1
100
AcDbEntity
  8
1
 62
     7
100
AcDbLine
 10
-93.10332394370179
 20
341.9477065627532
 30
0.0
 11
-86.58583281900169
 21
317.6240985474931
 31
0.0
  0
LINE
  5
F8
330
1A1
100
AcDbEntity
  8
1
  6
DASHDOT
 62
     3
100
AcDbLine
 10
-76.94828277841151
 20
287.1574804468311
 30
0.0
 11
-83.7061877711414
 21
287.1574804468311
 31
0.0
  0
LINE
  5
F9
330
1A1
100
AcDbEntity
  8
1
  6
CENTER
 62
     3
100
AcDbLine
 10
-80.3272352747764
 20
283.7785279504663
 30
0.0
 11
-80.3272352747764
 21
290.5364329431961
 31
0.0
  0
LINE
  5
FA
330
1A1
100
AcDbEntity
  8
1
 62
     7
100
AcDbLine
 10
-90.77795090509621
 20
316.5008238917482
 30
0.0
 11
-86.3272352747764
 21
317.6933895506329
 31
0.0
  0
LINE
  5
FB
330
1A1
100
AcDbEntity
  8
1
 62
     7
100
AcDbLine
 10
-88.36313633937363
 20
317.1478715045044
 30
0.0
 11
-94.8806274640737
 21
341.4714795197645
 31
0.0
  0
LINE
  5
FC
330
1A1
100
AcDbEntity
  8
1
 62
     7
100
AcDbLine
 10
-90.14043985974552
 20
316.6716444615158
 30
0.0
 11
-96.65793098444552
 21
340.9952524767758
 31
0.0
  0
LINE
  5
FD
330
1A1
100
AcDbEntity
  8
1
 62
     7
100
AcDbLine
 10
-90.77795090509621
 20
316.5008238917482
 30
0.0
 11
-90.60946767938309
 21
315.8720359331634
 31
0.0
  0
LINE
  5
FE
330
1A1
100
AcDbEntity
  8
1
 62
     7
100
AcDbLine
 10
-82.92723527477631
 20
331.6574804468312
 30
0.0
 11
-82.92723527477631
 21
325.6574804468312
 31
0.0
  0
LINE
  5
FF
330
1A1
100
AcDbEntity
  8
1
 62
     7
100
AcDbLine
 10
-77.72723527477632
 20
331.6574804468312
 30
0.0
 11
-77.72723527477632
 21
325.6574804468312
 31
0.0
  0
LINE
  5
100
330
1A1
100
AcDbEntity
  8
1
 62
     7
100
AcDbLine
 10
-74.32723527477634
 20
336.1574804468312
 30
0.0
 11
-74.32723527477634
 21
315.5520221758326
 31
0.0
  0
LINE
  5
101
330
1A1
100
AcDbEntity
  8
1
 62
     7
100
AcDbLine
 10
-75.32723527477634
 20
337.1574804468311
 30
0.0
 11
-85.32723527477632
 21
337.1574804468311
 31
0.0
  0
LINE
  5
102
330
1A1
100
AcDbEntity
  8
1
 62
     7
100
AcDbLine
 10
-86.3272352747764
 20
336.1574804468312
 30
0.0
 11
-86.32723527477635
 21
315.5520221758326
 31
0.0
  0
LINE
  5
103
330
1A1
100
AcDbEntity
  8
1
 62
     7
100
AcDbLine
 10
158.0124193527551
 20
299.1574804468312
 30
0.0
 11
158.0124193527551
 21
337.1574804468311
 31
0.0
  0
LINE
  5
104
330
1A1
100
AcDbEntity
  8
1
 62
     7
100
AcDbLine
 10
158.0124193527551
 20
275.1574804468313
 30
0.0
 11
158.0124193527551
 21
299.1574804468312
 31
0.0
  0
LINE
  5
105
330
1A1
100
AcDbEntity
  8
1
 62
     7
100
AcDbLine
 10
160.0124193527551
 20
294.1174804468311
 30
0.0
 11
160.0124193527551
 21
337.1574804468311
 31
0.0
  0
LINE
  5
106
330
1A1
100
AcDbEntity
  8
1
 62
     7
100
AcDbLine
 10
160.0124193527551
 20
280.1974804468313
 30
0.0
 11
160.0124193527551
 21
294.1174804468311
 31
0.0
  0
LINE
  5
107
330
1A1
100
AcDbEntity
  8
1
 62
     7
100
AcDbLine
 10
168.0124193527551
 20
294.1174804468311
 30
0.0
 11
168.0124193527551
 21
280.1974804468313
 31
0.0
  0
LINE
  5
108
330
1A1
100
AcDbEntity
  8
1
 62
     7
100
AcDbLine
 10
168.0124193527551
 20
280.1974804468313
 30
0.0
 11
168.0124193527551
 21
274.1174804468313
 31
0.0
  0
LINE
  5
109
330
1A1
100
AcDbEntity
  8
1
 62
     7
100
AcDbLine
 10
176.0124193527552
 20
292.8143346963236
 30
0.0
 11
176.0124193527552
 21
281.1574804468311
 31
0.0
  0
LINE
  5
10A
330
1A1
100
AcDbEntity
  8
1
 62
     7
100
AcDbLine
 10
176.0124193527552
 20
281.1574804468311
 30
0.0
 11
176.0124193527552
 21
272.4574804468313
 31
0.0
  0
LINE
  5
10B
330
1A1
100
AcDbEntity
  8
1
 62
     7
100
AcDbLine
 10
207.0124193527552
 20
292.8143346963236
 30
0.0
 11
207.0124193527552
 21
281.1574804468311
 31
0.0
  0
LINE
  5
10C
330
1A1
100
AcDbEntity
  8
1
 62
     7
100
AcDbLine
 10
207.0124193527552
 20
281.1574804468311
 30
0.0
 11
207.0124193527552
 21
273.1574804468312
 31
0.0
  0
LINE
  5
10D
330
1A1
100
AcDbEntity
  8
1
 62
     7
100
AcDbLine
 10
210.0124193527552
 20
301.1574804468311
 30
0.0
 11
210.0124193527552
 21
273.1574804468312
 31
0.0
  0
LINE
  5
10E
330
1A1
100
AcDbEntity
  8
1
 62
     7
100
AcDbLine
 10
210.0124193527552
 20
273.1574804468312
 30
0.0
 11
210.0124193527552
 21
262.6574804468311
 31
0.0
  0
LINE
  5
10F
330
1A1
100
AcDbEntity
  8
1
 62
     3
100
AcDbLine
 10
167.5124193527551
 20
342.9391143836535
 30
0.0
 11
167.5124193527551
 21
345.8999195282913
 31
0.0
  0
LINE
  5
110
330
1A1
100
AcDbEntity
  8
1
 62
     3
100
AcDbLine
 10
34.32780270827436
 20
345.8999195282913
 30
0.0
 11
34.32780270827436
 21
342.9391143836535
 31
0.0
  0
LINE
  5
111
330
1A1
100
AcDbEntity
  8
1
 62
     3
100
AcDbLine
 10
33.54780270827436
 20
342.9391143836535
 30
0.0
 11
33.54780270827436
 21
345.8999195282913
 31
0.0
  0
LINE
  5
112
330
1A1
100
AcDbEntity
  8
1
 62
     7
100
AcDbLine
 10
33.01780270827436
 20
342.9391143836535
 30
0.0
 11
34.85780270827441
 21
342.9391143836535
 31
0.0
  0
LINE
  5
113
330
1A1
100
AcDbEntity
  8
1
 62
     3
100
AcDbLine
 10
33.93780270827437
 20
342.9391143836535
 30
0.0
 11
33.93780270827437
 21
345.8999195282913
 31
0.0
  0
LINE
  5
114
330
1A1
100
AcDbEntity
  8
1
 62
     3
100
AcDbLine
 10
-96.15888091227665
 20
344.1942235816753
 30
0.0
 11
-95.3925681520068
 21
341.33430542586
 31
0.0
  0
LINE
  5
115
330
1A1
100
AcDbEntity
  8
1
 62
     3
100
AcDbLine
 10
-96.14599029651229
 20
341.13242657068
 30
0.0
 11
-96.9123030567821
 21
343.9923447264953
 31
0.0
  0
LINE
  5
116
330
1A1
100
AcDbEntity
  8
1
 62
     3
100
AcDbLine
 10
-95.76927922425957
 20
341.2333659982702
 30
0.0
 11
-96.53559198452937
 21
344.0932841540852
 31
0.0
  0
LINE
  5
117
330
1A1
100
AcDbEntity
  8
1
 62
     3
100
AcDbLine
 10
-94.38157739190478
 20
344.6704506246638
 30
0.0
 11
-93.615264631635
 21
341.8105324688486
 31
0.0
  0
LINE
  5
118
330
1A1
100
AcDbEntity
  8
1
 62
     3
100
AcDbLine
 10
-94.36868677614052
 20
341.6086536136688
 30
0.0
 11
-95.13499953641035
 21
344.468571769484
 31
0.0
  0
LINE
  5
119
330
1A1
100
AcDbEntity
  8
1
 62
     7
100
AcDbLine
 10
-93.10332394370179
 20
341.9477065627532
 30
0.0
 11
-96.65793098444552
 21
340.9952524767758
 31
0.0
  0
LINE
  5
11A
330
1A1
100
AcDbEntity
  8
1
 62
     3
100
AcDbLine
 10
-93.99197570388777
 20
341.7095930412588
 30
0.0
 11
-94.75828846415758
 21
344.5695111970741
 31
0.0
  0
LINE
  5
11B
330
1A1
100
AcDbEntity
  8
1
 62
     3
100
AcDbLine
 10
329.8427902130363
 20
341.33430542586
 30
0.0
 11
330.6091029733062
 21
344.1942235816753
 31
0.0
  0
LINE
  5
11C
330
1A1
100
AcDbEntity
  8
1
 62
     3
100
AcDbLine
 10
331.3625251178117
 20
343.9923447264953
 30
0.0
 11
330.5962123575419
 21
341.13242657068
 31
0.0
  0
LINE
  5
11D
330
1A1
100
AcDbEntity
  8
1
 62
     3
100
AcDbLine
 10
330.9858140455588
 20
344.0932841540852
 30
0.0
 11
330.2195012852891
 21
341.2333659982702
 31
0.0
  0
LINE
  5
11E
330
1A1
100
AcDbEntity
  8
1
 62
     3
100
AcDbLine
 10
328.0654866926646
 20
341.8105324688486
 30
0.0
 11
328.8317994529343
 21
344.6704506246638
 31
0.0
  0
LINE
  5
11F
330
1A1
100
AcDbEntity
  8
1
 62
     3
100
AcDbLine
 10
329.5852215974399
 20
344.468571769484
 30
0.0
 11
328.8189088371701
 21
341.6086536136688
 31
0.0
  0
LINE
  5
120
330
1A1
100
AcDbEntity
  8
1
 62
     7
100
AcDbLine
 10
331.108153045475
 20
340.9952524767758
 30
0.0
 11
327.5535460047312
 21
341.9477065627532
 31
0.0
  0
LINE
  5
121
330
1A1
100
AcDbEntity
  8
1
 62
     3
100
AcDbLine
 10
329.2085105251871
 20
344.5695111970741
 30
0.0
 11
328.4421977649173
 21
341.7095930412588
 31
0.0
  0
ARC
  5
122
330
1A1
100
AcDbEntity
  8
1
 62
     7
100
AcDbCircle
 10
194.8124193527551
 20
316.3574804468311
 30
0.0
 40
0.5
100
AcDbArc
 50
0.0
 51
180.0
  0
ARC
  5
123
330
1A1
100
AcDbEntity
  8
1
 62
     7
100
AcDbCircle
 10
194.8124193527551
 20
312.7574804468313
 30
0.0
 40
0.5
100
AcDbArc
 50
180.0
 51
0.0
  0
ARC
  5
124
330
1A1
100
AcDbEntity
  8
1
 62
     7
100
AcDbCircle
 10
192.5124193527552
 20
276.6574804468313
 30
0.0
 40
0.5
100
AcDbArc
 50
90.0
 51
180.0
  0
ARC
  5
125
330
1A1
100
AcDbEntity
  8
1
 62
     7
100
AcDbCircle
 10
160.9724193527551
 20
280.1974804468313
 30
0.0
 40
0.9599999999999797
100
AcDbArc
 50
90.0
 51
180.0
  0
ARC
  5
126
330
1A1
100
AcDbEntity
  8
1
 62
     7
100
AcDbCircle
 10
167.0524193527551
 20
274.1174804468313
 30
0.0
 40
0.9599999999999797
100
AcDbArc
 50
270.0
 51
0.0
  0
ARC
  5
127
330
1A1
100
AcDbEntity
  8
1
 62
     7
100
AcDbCircle
 10
160.9724193527551
 20
274.1174804468313
 30
0.0
 40
0.9600000000000076
100
AcDbArc
 50
180.0
 51
270.0
  0
ARC
  5
128
330
1A1
100
AcDbEntity
  8
1
 62
     7
100
AcDbCircle
 10
167.0524193527551
 20
280.1974804468313
 30
0.0
 40
0.9599999999999797
100
AcDbArc
 50
0.0
 51
90.0
  0
ARC
  5
129
330
1A1
100
AcDbEntity
  8
1
 62
     7
100
AcDbCircle
 10
168.9724193527552
 20
280.1974804468313
 30
0.0
 40
0.9599999999999797
100
AcDbArc
 50
90.0
 51
180.0
  0
ARC
  5
12A
330
1A1
100
AcDbEntity
  8
1
 62
     7
100
AcDbCircle
 10
175.0524193527552
 20
274.1174804468313
 30
0.0
 40
0.9599999999999797
100
AcDbArc
 50
270.0
 51
327.5382550327612
  0
ARC
  5
12B
330
1A1
100
AcDbEntity
  8
1
 62
     7
100
AcDbCircle
 10
168.9724193527552
 20
274.1174804468313
 30
0.0
 40
0.9600000000000076
100
AcDbArc
 50
180.0
 51
270.0
  0
ARC
  5
12C
330
1A1
100
AcDbEntity
  8
1
 62
     7
100
AcDbCircle
 10
175.0524193527552
 20
280.1974804468313
 30
0.0
 40
0.9599999999999797
100
AcDbArc
 50
0.0
 51
90.0
  0
ARC
  5
12D
330
1A1
100
AcDbEntity
  8
1
 62
     7
100
AcDbCircle
 10
175.0524193527552
 20
274.1174804468313
 30
0.0
 40
0.9599999999999655
100
AcDbArc
 50
327.5382550327612
 51
0.0
  0
ARC
  5
12E
330
1A1
100
AcDbEntity
  8
1
 62
     7
100
AcDbCircle
 10
192.5124193527552
 20
297.6574804468311
 30
0.0
 40
0.5
100
AcDbArc
 50
180.0
 51
270.0
  0
ARC
  5
12F
330
1A1
100
AcDbEntity
  8
1
 62
     7
100
AcDbCircle
 10
160.9724193527551
 20
294.1174804468311
 30
0.0
 40
0.9600000000000076
100
AcDbArc
 50
180.0
 51
270.0
  0
ARC
  5
130
330
1A1
100
AcDbEntity
  8
1
 62
     7
100
AcDbCircle
 10
167.0524193527551
 20
300.1974804468312
 30
0.0
 40
0.9599999999999797
100
AcDbArc
 50
0.0
 51
90.0
  0
ARC
  5
131
330
1A1
100
AcDbEntity
  8
1
 62
     7
100
AcDbCircle
 10
160.9724193527551
 20
300.1974804468312
 30
0.0
 40
0.959999999999866
100
AcDbArc
 50
90.0
 51
180.0
  0
ARC
  5
132
330
1A1
100
AcDbEntity
  8
1
 62
     7
100
AcDbCircle
 10
167.0524193527551
 20
294.1174804468311
 30
0.0
 40
0.9600000000000363
100
AcDbArc
 50
270.0
 51
0.0
  0
ARC
  5
133
330
1A1
100
AcDbEntity
  8
1
 62
     7
100
AcDbCircle
 10
168.9724193527552
 20
294.1174804468311
 30
0.0
 40
0.9600000000000076
100
AcDbArc
 50
180.0
 51
270.0
  0
ARC
  5
134
330
1A1
100
AcDbEntity
  8
1
 62
     7
100
AcDbCircle
 10
175.0524193527552
 20
300.1974804468312
 30
0.0
 40
0.9599999999999655
100
AcDbArc
 50
32.46174496723887
 51
90.0
  0
ARC
  5
135
330
1A1
100
AcDbEntity
  8
1
 62
     7
100
AcDbCircle
 10
168.9724193527552
 20
300.1974804468312
 30
0.0
 40
0.959999999999866
100
AcDbArc
 50
90.0
 51
180.0
  0
ARC
  5
136
330
1A1
100
AcDbEntity
  8
1
 62
     7
100
AcDbCircle
 10
175.0524193527552
 20
294.1174804468311
 30
0.0
 40
0.9600000000000363
100
AcDbArc
 50
270.0
 51
0.0
  0
ARC
  5
137
330
1A1
100
AcDbEntity
  8
1
 62
     7
100
AcDbCircle
 10
175.0524193527552
 20
300.1974804468312
 30
0.0
 40
0.9599999999999797
100
AcDbArc
 50
0.0
 51
32.46174496723887
  0
ARC
  5
138
330
1A1
100
AcDbEntity
  8
1
 62
     7
100
AcDbCircle
 10
309.7774573358059
 20
264.4002837829185
 30
0.0
 40
1.500000000000069
100
AcDbArc
 50
257.6083919366925
 51
295.5710332442038
  0
ARC
  5
139
330
1A1
100
AcDbEntity
  8
1
 62
     7
100
AcDbCircle
 10
336.9857677656729
 20
294.2059517598654
 30
0.0
 40
1.499999999999804
100
AcDbArc
 50
17.60839193668512
 51
55.57103324420011
  0
ARC
  5
13A
330
1A1
100
AcDbEntity
  8
1
 62
     7
100
AcDbCircle
 10
297.5691469059391
 20
302.8662057977098
 30
0.0
 40
1.500000000000075
100
AcDbArc
 50
137.6083919366879
 51
175.5710332442031
  0
ARC
  5
13B
330
1A1
100
AcDbEntity
  8
1
 62
     7
100
AcDbCircle
 10
292.5691469059391
 20
294.2059517598654
 30
0.0
 40
1.500000000000054
100
AcDbArc
 50
124.4289667557997
 51
162.3916080633079
  0
ARC
  5
13C
330
1A1
100
AcDbEntity
  8
1
 62
     7
100
AcDbCircle
 10
319.777457335806
 20
264.4002837829185
 30
0.0
 40
1.500000000000031
100
AcDbArc
 50
244.4289667558
 51
282.3916080633117
  0
ARC
  5
13D
330
1A1
100
AcDbEntity
  8
1
 62
     7
100
AcDbCircle
 10
331.9857677656728
 20
302.8662057977098
 30
0.0
 40
1.499999999999964
100
AcDbArc
 50
4.428966755792895
 51
42.39160806331208
  0
ARC
  5
13E
330
1A1
100
AcDbEntity
  8
1
 62
     7
100
AcDbCircle
 10
309.7774573358059
 20
336.1574804468312
 30
0.0
 40
1.0
100
AcDbArc
 50
90.0
 51
180.0
  0
ARC
  5
13F
330
1A1
100
AcDbEntity
  8
1
 62
     7
100
AcDbCircle
 10
319.777457335806
 20
336.1574804468312
 30
0.0
 40
1.0
100
AcDbArc
 50
0.0
 51
90.0
  0
ARC
  5
140
330
1A1
100
AcDbEntity
  8
1
 62
     7
100
AcDbCircle
 10
-88.32723527477634
 20
315.5520221758326
 30
0.0
 40
2.000000000000006
100
AcDbArc
 50
285.7348791794123
 51
0.0
  0
ARC
  5
141
330
1A1
100
AcDbEntity
  8
1
 62
     7
100
AcDbCircle
 10
-72.32723527477634
 20
315.5520221758326
 30
0.0
 40
2.0
100
AcDbArc
 50
180.0
 51
254.2651208205893
  0
ARC
  5
142
330
1A1
100
AcDbEntity
  8
1
 62
     7
100
AcDbCircle
 10
-85.32723527477632
 20
336.1574804468312
 30
0.0
 40
1.0
100
AcDbArc
 50
90.0
 51
180.0
  0
ARC
  5
143
330
1A1
100
AcDbEntity
  8
1
 62
     7
100
AcDbCircle
 10
-75.32723527477634
 20
336.1574804468312
 30
0.0
 40
1.0
100
AcDbArc
 50
0.0
 51
90.0
  0
ARC
  5
144
330
1A1
100
AcDbEntity
  8
1
 62
     7
100
AcDbCircle
 10
63.26002493049671
 20
273.4574804468313
 30
0.0
 40
2.777777777777874
100
AcDbArc
 50
290.6096929375293
 51
69.39030706246831
  0
ARC
  5
145
330
1A1
100
AcDbEntity
  8
1
 62
     7
100
AcDbCircle
 10
63.26002493049671
 20
314.5574804468311
 30
0.0
 40
2.777777777777659
100
AcDbArc
 50
290.609692937531
 51
69.39030706246938
  0
ARC
  5
146
330
1A1
100
AcDbEntity
  8
1
 62
     7
100
AcDbCircle
 10
196.8346415749774
 20
314.5574804468311
 30
0.0
 40
2.777777777777664
100
AcDbArc
 50
290.6096929375312
 51
69.39030706246914
  0
ARC
  5
147
330
1A1
100
AcDbEntity
  8
1
 62
     7
100
AcDbCircle
 10
164.0124193527551
 20
277.1574804468313
 30
0.0
 40
2.399999999999935
100
AcDbArc
 50
239.9999999999995
 51
300.0000000000011
  0
ARC
  5
148
330
1A1
100
AcDbEntity
  8
1
 62
     7
100
AcDbCircle
 10
164.0124193527551
 20
277.1574804468313
 30
0.0
 40
2.399999999999948
100
AcDbArc
 50
300.0000000000011
 51
59.99999999999886
  0
ARC
  5
149
330
1A1
100
AcDbEntity
  8
1
 62
     7
100
AcDbCircle
 10
164.0124193527551
 20
277.1574804468313
 30
0.0
 40
2.399999999999935
100
AcDbArc
 50
120.0000000000005
 51
239.9999999999995
  0
ARC
  5
14A
330
1A1
100
AcDbEntity
  8
1
 62
     7
100
AcDbCircle
 10
164.0124193527551
 20
277.1574804468313
 30
0.0
 40
2.399999999999948
100
AcDbArc
 50
59.99999999999886
 51
120.0000000000005
  0
ARC
  5
14B
330
1A1
100
AcDbEntity
  8
1
 62
     7
100
AcDbCircle
 10
172.0124193527552
 20
277.1574804468313
 30
0.0
 40
2.399999999999935
100
AcDbArc
 50
239.9999999999995
 51
300.0000000000011
  0
ARC
  5
14C
330
1A1
100
AcDbEntity
  8
1
 62
     7
100
AcDbCircle
 10
172.0124193527552
 20
277.1574804468313
 30
0.0
 40
2.399999999999948
100
AcDbArc
 50
300.0000000000011
 51
59.99999999999886
  0
ARC
  5
14D
330
1A1
100
AcDbEntity
  8
1
 62
     7
100
AcDbCircle
 10
172.0124193527552
 20
277.1574804468313
 30
0.0
 40
2.399999999999935
100
AcDbArc
 50
120.0000000000005
 51
239.9999999999995
  0
ARC
  5
14E
330
1A1
100
AcDbEntity
  8
1
 62
     7
100
AcDbCircle
 10
172.0124193527552
 20
277.1574804468313
 30
0.0
 40
2.399999999999948
100
AcDbArc
 50
59.99999999999886
 51
120.0000000000005
  0
ARC
  5
14F
330
1A1
100
AcDbEntity
  8
1
  6
DASHDOT
 62
     3
100
AcDbCircle
 10
314.7774573358059
 20
287.1574804468311
 30
0.0
 40
20.99999999999989
100
AcDbArc
 50
201.2607453897348
 51
218.739254610265
  0
ARC
  5
150
330
1A1
100
AcDbEntity
  8
1
  6
DASHDOT
 62
     3
100
AcDbCircle
 10
314.7774573358059
 20
287.1574804468311
 30
0.0
 40
21.00000000000016
100
AcDbArc
 50
81.26074538973501
 51
98.73925461026468
  0
ARC
  5
151
330
1A1
100
AcDbEntity
  8
1
  6
DASHDOT
 62
     3
100
AcDbCircle
 10
314.7774573358059
 20
287.1574804468311
 30
0.0
 40
21.00000000000006
100
AcDbArc
 50
321.2607453897352
 51
338.7392546102652
  0
ARC
  5
152
330
1A1
100
AcDbEntity
  8
1
 62
     7
100
AcDbCircle
 10
164.0124193527551
 20
297.1574804468311
 30
0.0
 40
2.400000000000047
100
AcDbArc
 50
60.0000000000002
 51
119.9999999999991
  0
ARC
  5
153
330
1A1
100
AcDbEntity
  8
1
 62
     7
100
AcDbCircle
 10
164.0124193527551
 20
297.1574804468311
 30
0.0
 40
2.399999999999948
100
AcDbArc
 50
300.0000000000011
 51
60.0000000000002
  0
ARC
  5
154
330
1A1
100
AcDbEntity
  8
1
 62
     7
100
AcDbCircle
 10
164.0124193527551
 20
297.1574804468311
 30
0.0
 40
2.400000000000034
100
AcDbArc
 50
119.9999999999991
 51
239.9999999999995
  0
ARC
  5
155
330
1A1
100
AcDbEntity
  8
1
 62
     7
100
AcDbCircle
 10
164.0124193527551
 20
297.1574804468311
 30
0.0
 40
2.399999999999935
100
AcDbArc
 50
239.9999999999995
 51
300.0000000000011
  0
ARC
  5
156
330
1A1
100
AcDbEntity
  8
1
 62
     7
100
AcDbCircle
 10
172.0124193527552
 20
297.1574804468311
 30
0.0
 40
2.400000000000047
100
AcDbArc
 50
60.0000000000002
 51
119.9999999999991
  0
ARC
  5
157
330
1A1
100
AcDbEntity
  8
1
 62
     7
100
AcDbCircle
 10
172.0124193527552
 20
297.1574804468311
 30
0.0
 40
2.399999999999948
100
AcDbArc
 50
300.0000000000011
 51
60.0000000000002
  0
ARC
  5
158
330
1A1
100
AcDbEntity
  8
1
 62
     7
100
AcDbCircle
 10
172.0124193527552
 20
297.1574804468311
 30
0.0
 40
2.400000000000034
100
AcDbArc
 50
119.9999999999991
 51
239.9999999999995
  0
ARC
  5
159
330
1A1
100
AcDbEntity
  8
1
 62
     7
100
AcDbCircle
 10
172.0124193527552
 20
297.1574804468311
 30
0.0
 40
2.399999999999935
100
AcDbArc
 50
239.9999999999995
 51
300.0000000000011
  0
ARC
  5
15A
330
1A1
100
AcDbEntity
  8
1
 62
     7
100
AcDbCircle
 10
314.7774573358059
 20
287.1574804468311
 30
0.0
 40
24.79999999999991
100
AcDbArc
 50
162.3916080633112
 51
257.6083919366884
  0
ARC
  5
15B
330
1A1
100
AcDbEntity
  8
1
 62
     7
100
AcDbCircle
 10
314.7774573358059
 20
287.1574804468311
 30
0.0
 40
24.79999999999995
100
AcDbArc
 50
282.3916080633117
 51
17.60839193668817
  0
ARC
  5
15C
330
1A1
100
AcDbEntity
  8
1
 62
     7
100
AcDbCircle
 10
314.7774573358059
 20
287.1574804468311
 30
0.0
 40
24.80000000000023
100
AcDbArc
 50
42.3916080633116
 51
137.608391936688
  0
ARC
  5
15D
330
1A1
100
AcDbEntity
  8
1
 62
     7
100
AcDbCircle
 10
314.7774573358059
 20
331.6574804468312
 30
0.0
 40
2.600000000000135
100
AcDbArc
 50
90.0
 51
180.0
  0
ARC
  5
15E
330
1A1
100
AcDbEntity
  8
1
 62
     7
100
AcDbCircle
 10
314.7774573358061
 20
325.6574804468312
 30
0.0
 40
2.600000000000021
100
AcDbArc
 50
270.0
 51
0.0
  0
ARC
  5
15F
330
1A1
100
AcDbEntity
  8
1
 62
     7
100
AcDbCircle
 10
314.7774573358059
 20
331.6574804468312
 30
0.0
 40
2.600000000000135
100
AcDbArc
 50
0.0
 51
90.0
  0
ARC
  5
160
330
1A1
100
AcDbEntity
  8
1
 62
     7
100
AcDbCircle
 10
314.7774573358061
 20
325.6574804468312
 30
0.0
 40
2.600000000000021
100
AcDbArc
 50
180.0
 51
270.0
  0
ARC
  5
161
330
1A1
100
AcDbEntity
  8
1
 62
     7
100
AcDbCircle
 10
-80.3272352747764
 20
287.1574804468311
 30
0.0
 40
30.50000000000006
100
AcDbArc
 50
101.3452953903589
 51
78.65470460964094
  0
ARC
  5
162
330
1A1
100
AcDbEntity
  8
1
 62
     7
100
AcDbCircle
 10
-80.3272352747764
 20
287.1574804468311
 30
0.0
 40
29.50000000000006
100
AcDbArc
 50
101.7352574744552
 51
78.26474252554456
  0
ARC
  5
163
330
1A1
100
AcDbEntity
  8
1
 62
     7
100
AcDbCircle
 10
-80.3272352747764
 20
287.1574804468311
 30
0.0
 40
27.5
100
AcDbArc
 50
105.7348791794109
 51
74.26512082058879
  0
ARC
  5
164
330
1A1
100
AcDbEntity
  8
1
 62
     7
100
AcDbCircle
 10
-80.32723527477632
 20
331.6574804468312
 30
0.0
 40
2.600000000000021
100
AcDbArc
 50
90.0
 51
180.0
  0
ARC
  5
165
330
1A1
100
AcDbEntity
  8
1
 62
     7
100
AcDbCircle
 10
-80.32723527477632
 20
325.6574804468312
 30
0.0
 40
2.599999999999965
100
AcDbArc
 50
270.0
 51
0.0
  0
ARC
  5
166
330
1A1
100
AcDbEntity
  8
1
 62
     7
100
AcDbCircle
 10
-80.32723527477632
 20
331.6574804468312
 30
0.0
 40
2.600000000000021
100
AcDbArc
 50
0.0
 51
90.0
  0
ARC
  5
167
330
1A1
100
AcDbEntity
  8
1
 62
     7
100
AcDbCircle
 10
-80.32723527477632
 20
325.6574804468312
 30
0.0
 40
2.599999999999965
100
AcDbArc
 50
180.0
 51
270.0
  0
CIRCLE
  5
168
330
1A1
100
AcDbEntity
  8
1
 62
     7
100
AcDbCircle
 10
296.5909238563328
 20
276.6574804468313
 30
0.0
 40
1.600000000000135
  0
CIRCLE
  5
169
330
1A1
100
AcDbEntity
  8
1
 62
     3
100
AcDbCircle
 10
296.5909238563328
 20
276.6574804468313
 30
0.0
 40
2.0
  0
CIRCLE
  5
16A
330
1A1
100
AcDbEntity
  8
1
 62
     7
100
AcDbCircle
 10
314.7774573358059
 20
308.1574804468311
 30
0.0
 40
1.600000000000023
  0
CIRCLE
  5
16B
330
1A1
100
AcDbEntity
  8
1
 62
     3
100
AcDbCircle
 10
314.7774573358059
 20
308.1574804468311
 30
0.0
 40
1.999999999999884
  0
CIRCLE
  5
16C
330
1A1
100
AcDbEntity
  8
1
 62
     7
100
AcDbCircle
 10
314.7774573358059
 20
287.1574804468311
 30
0.0
 40
14.0
  0
CIRCLE
  5
16D
330
1A1
100
AcDbEntity
  8
1
 62
     7
100
AcDbCircle
 10
332.9639908152793
 20
276.6574804468311
 30
0.0
 40
1.599999999999965
  0
CIRCLE
  5
16E
330
1A1
100
AcDbEntity
  8
1
 62
     3
100
AcDbCircle
 10
332.9639908152793
 20
276.6574804468311
 30
0.0
 40
2.0
  0
CIRCLE
  5
16F
330
1A1
100
AcDbEntity
  8
1
 62
     7
100
AcDbCircle
 10
314.7774573358059
 20
287.1574804468311
 30
0.0
 40
24.5
  0
CIRCLE
  5
170
330
1A1
100
AcDbEntity
  8
1
 62
     7
100
AcDbCircle
 10
338.5065533994997
 20
273.4574804468313
 30
0.0
 40
2.300000000000124
  0
CIRCLE
  5
171
330
1A1
100
AcDbEntity
  8
1
 62
     7
100
AcDbCircle
 10
291.0483612721125
 20
273.4574804468313
 30
0.0
 40
2.299999999999898
  0
CIRCLE
  5
172
330
1A1
100
AcDbEntity
  8
1
 62
     7
100
AcDbCircle
 10
314.7774573358059
 20
314.5574804468312
 30
0.0
 40
2.300000000000124
  0
CIRCLE
  5
173
330
1A1
100
AcDbEntity
  8
1
 62
     7
100
AcDbCircle
 10
314.7774573358059
 20
287.1574804468311
 30
0.0
 40
30.0
  0
CIRCLE
  5
174
330
1A1
100
AcDbEntity
  8
1
 62
     7
100
AcDbCircle
 10
314.7774573358059
 20
287.1574804468311
 30
0.0
 40
11.0
  0
CIRCLE
  5
175
330
1A1
100
AcDbEntity
  8
1
 62
     7
100
AcDbCircle
 10
314.7774573358059
 20
287.1574804468311
 30
0.0
 40
30.64999999999992
  0
CIRCLE
  5
176
330
1A1
100
AcDbEntity
  8
1
 62
     7
100
AcDbCircle
 10
314.7774573358059
 20
287.1574804468311
 30
0.0
 40
6.0
  0
CIRCLE
  5
177
330
1A1
100
AcDbEntity
  8
1
 62
     7
100
AcDbCircle
 10
-80.3272352747764
 20
287.1574804468311
 30
0.0
 40
6.0
  0
CIRCLE
  5
178
330
1A1
100
AcDbEntity
  8
1
 62
     7
100
AcDbCircle
 10
-80.3272352747764
 20
287.1574804468311
 30
0.0
 40
12.00000000000006
  0
TEXT
  5
17A
330
1A1
100
AcDbEntity
  8
1
 62
     7
100
AcDbText
 10
-105.0320762099926
 20
382.7267446745892
 30
0.0
 40
5.5
  1
AMC 40
 41
0.9
  7
SIMPLEX
100
AcDbText
  0
ENDSEC
  0
SECTION
  2
OBJECTS
  0
DICTIONARY
  5
18D
330
0
100
AcDbDictionary
281
     1
  3
ACAD_COLOR
350
19C
  3
ACAD_GROUP
350
18E
  3
ACAD_LAYOUT
350
19A
  3
ACAD_MATERIAL
350
19B
  3
ACAD_MLINESTYLE
350
197
  3
ACAD_PLOTSETTINGS
350
199
  3
ACAD_PLOTSTYLENAME
350
18F
  0
DICTIONARY
  5
19C
102
{ACAD_REACTORS
330
18D
102
}
330
18D
100
AcDbDictionary
281
     1
  0
DICTIONARY
  5
18E
102
{ACAD_REACTORS
330
18D
102
}
330
18D
100
AcDbDictionary
281
     1
  0
DICTIONARY
  5
19A
102
{ACAD_REACTORS
330
18D
102
}
330
18D
100
AcDbDictionary
281
     1
  3
Layout1
350
1A0
  3
Model
350
1A4
  0
DICTIONARY
  5
19B
102
{ACAD_REACTORS
330
18D
102
}
330
18D
100
AcDbDictionary
281
     1
  0
DICTIONARY
  5
197
102
{ACAD_REACTORS
330
18D
102
}
330
18D
100
AcDbDictionary
281
     1
  3
Standard
350
198
  0
DICTIONARY
  5
199
102
{ACAD_REACTORS
330
18D
102
}
330
18D
100
AcDbDictionary
281
     1
  0
ACDBDICTIONARYWDFLT
  5
18F
102
{ACAD_REACTORS
330
18D
102
}
330
18D
100
AcDbDictionary
281
     1
  3
Normal
350
190
100
AcDbDictionaryWithDefault
340
190
  0
LAYOUT
  5
1A0
102
{ACAD_REACTORS
330
19A
102
}
330
19A
100
AcDbPlotSettings
  1

  2
\\Ogura1\HP Color LaserJet 4600 PCL 5c
  4

  6

 40
0.0
 41
0.0
 42
0.0
 43
0.0
 44
0.0
 45
0.0
 46
0.0
 47
0.0
 48
0.0
 49
0.0
140
0.0
141
0.0
142
1.0
143
1.0
 70
   688
 72
     0
 73
     0
 74
     5
  7

 75
    16
147
1.0
 76
     0
 77
     2
 78
   300
148
0.0
149
0.0
100
AcDbLayout
  1
Layout1
 70
     1
 71
     1
 10
0.0
 20
0.0
 11
12.0
 21
9.0
 12
0.0
 22
0.0
 32
0.0
 14
1.000000000000000E+20
 24
1.000000000000000E+20
 34
1.000000000000000E+20
 15
-1.000000000000000E+20
 25
-1.000000000000000E+20
 35
-1.000000000000000E+20
146
0.0
 13
0.0
 23
0.0
 33
0.0
 16
1.0
 26
0.0
 36
0.0
 17
0.0
 27
1.0
 37
0.0
 76
     0
330
19D
  0
LAYOUT
  5
1A4
102
{ACAD_REACTORS
330
19A
102
}
330
19A
100
AcDbPlotSettings
  1

  2
\\Ogura1\HP Color LaserJet 4600 PCL 5c
  4

  6

 40
0.0
 41
0.0
 42
0.0
 43
0.0
 44
0.0
 45
0.0
 46
0.0
 47
0.0
 48
0.0
 49
0.0
140
0.0
141
0.0
142
1.0
143
1.0
 70
  1712
 72
     0
 73
     0
 74
     0
  7

 75
     0
147
1.0
 76
     0
 77
     2
 78
   300
148
0.0
149
0.0
100
AcDbLayout
  1
Model
 70
     1
 71
     0
 10
0.0
 20
0.0
 11
12.0
 21
9.0
 12
0.0
 22
0.0
 32
0.0
 14
0.0
 24
0.0
 34
0.0
 15
0.0
 25
0.0
 35
0.0
146
0.0
 13
0.0
 23
0.0
 33
0.0
 16
1.0
 26
0.0
 36
0.0
 17
0.0
 27
1.0
 37
0.0
 76
     0
330
1A1
  0
MLINESTYLE
  5
198
102
{ACAD_REACTORS
330
197
102
}
330
197
100
AcDbMlineStyle
  2
STANDARD
 70
     0
  3

 62
   256
 51
90.0
 52
90.0
 71
     2
 49
0.5
 62
   256
  6
BYLAYER
 49
-0.5
 62
   256
  6
BYLAYER
  0
ACDBPLACEHOLDER
  5
190
102
{ACAD_REACTORS
330
18F
102
}
330
18F
  0
ENDSEC
  0
EOF
