  0
SECTION
  2
HEADER
  9
$ACADVER
  1
AC1018
  9
$ACADMAINTVER
 70
     0
  9
$DWGCODEPAGE
  3
ANSI_932
  9
$INSBASE
 10
0.0
 20
0.0
 30
0.0
  9
$EXTMIN
 10
-159.7954265388576
 20
-4.724812047517076
 30
-0.0015258207003583
  9
$EXTMAX
 10
195.1152865855401
 20
105.7877454159206
 30
0.0000000349246037
  9
$LIMMIN
 10
-159.7845970107528
 20
-4.721439935031503
  9
$LIMMAX
 10
195.1044554048543
 20
105.7843727888521
  9
$ORTHOMODE
 70
     0
  9
$REGENMODE
 70
     1
  9
$FILLMODE
 70
     1
  9
$QTEXTMODE
 70
     0
  9
$MIRRTEXT
 70
     1
  9
$LTSCALE
 40
1.0
  9
$ATTMODE
 70
     1
  9
$TEXTSIZE
 40
3.5
  9
$TRACEWID
 40
0.5
  9
$TEXTSTYLE
  7
STANDARD
  9
$CLAYER
  8
0
  9
$CELTYPE
  6
ByLayer
  9
$CECOLOR
 62
   256
  9
$CELTSCALE
 40
1.0
  9
$DISPSILH
 70
     0
  9
$DIMSCALE
 40
1.0
  9
$DIMASZ
 40
0.18
  9
$DIMEXO
 40
0.0625
  9
$DIMDLI
 40
0.38
  9
$DIMRND
 40
0.0
  9
$DIMDLE
 40
0.0
  9
$DIMEXE
 40
0.18
  9
$DIMTP
 40
0.0
  9
$DIMTM
 40
0.0
  9
$DIMTXT
 40
0.18
  9
$DIMCEN
 40
0.09
  9
$DIMTSZ
 40
0.0
  9
$DIMTOL
 70
     0
  9
$DIMLIM
 70
     0
  9
$DIMTIH
 70
     1
  9
$DIMTOH
 70
     1
  9
$DIMSE1
 70
     0
  9
$DIMSE2
 70
     0
  9
$DIMTAD
 70
     0
  9
$DIMZIN
 70
     0
  9
$DIMBLK
  1

  9
$DIMASO
 70
     1
  9
$DIMSHO
 70
     1
  9
$DIMPOST
  1

  9
$DIMAPOST
  1

  9
$DIMALT
 70
     0
  9
$DIMALTD
 70
     2
  9
$DIMALTF
 40
25.4
  9
$DIMLFAC
 40
1.0
  9
$DIMTOFL
 70
     0
  9
$DIMTVP
 40
0.0
  9
$DIMTIX
 70
     0
  9
$DIMSOXD
 70
     0
  9
$DIMSAH
 70
     0
  9
$DIMBLK1
  1

  9
$DIMBLK2
  1

  9
$DIMSTYLE
  2
STANDARD
  9
$DIMCLRD
 70
     0
  9
$DIMCLRE
 70
     0
  9
$DIMCLRT
 70
     0
  9
$DIMTFAC
 40
1.0
  9
$DIMGAP
 40
0.09
  9
$DIMJUST
 70
     0
  9
$DIMSD1
 70
     0
  9
$DIMSD2
 70
     0
  9
$DIMTOLJ
 70
     1
  9
$DIMTZIN
 70
     0
  9
$DIMALTZ
 70
     0
  9
$DIMALTTZ
 70
     0
  9
$DIMUPT
 70
     0
  9
$DIMDEC
 70
     4
  9
$DIMTDEC
 70
     4
  9
$DIMALTU
 70
     2
  9
$DIMALTTD
 70
     2
  9
$DIMTXSTY
  7
STANDARD
  9
$DIMAUNIT
 70
     0
  9
$DIMADEC
 70
     0
  9
$DIMALTRND
 40
0.0
  9
$DIMAZIN
 70
     0
  9
$DIMDSEP
 70
    46
  9
$DIMATFIT
 70
     3
  9
$DIMFRAC
 70
     0
  9
$DIMLDRBLK
  1

  9
$DIMLUNIT
 70
     2
  9
$DIMLWD
 70
    -2
  9
$DIMLWE
 70
    -2
  9
$DIMTMOVE
 70
     0
  9
$LUNITS
 70
     2
  9
$LUPREC
 70
     4
  9
$SKETCHINC
 40
0.1
  9
$FILLETRAD
 40
2.0
  9
$AUNITS
 70
     0
  9
$AUPREC
 70
     0
  9
$MENU
  1
ACAD
  9
$ELEVATION
 40
0.0
  9
$PELEVATION
 40
0.0
  9
$THICKNESS
 40
0.0
  9
$LIMCHECK
 70
     0
  9
$CHAMFERA
 40
0.0
  9
$CHAMFERB
 40
0.0
  9
$CHAMFERC
 40
0.0
  9
$CHAMFERD
 40
0.0
  9
$SKPOLY
 70
     0
  9
$TDCREATE
 40
2452093.889039005
  9
$TDUCREATE
 40
2452094.055705671
  9
$TDUPDATE
 40
2453209.435695185
  9
$TDUUPDATE
 40
2453209.602361852
  9
$TDINDWG
 40
0.0006632986
  9
$TDUSRTIMER
 40
0.0006631250
  9
$USRTIMER
 70
     1
  9
$ANGBASE
 50
0.0
  9
$ANGDIR
 70
     0
  9
$PDMODE
 70
     0
  9
$PDSIZE
 40
0.0
  9
$PLINEWID
 40
0.0
  9
$SPLFRAME
 70
     0
  9
$SPLINETYPE
 70
     6
  9
$SPLINESEGS
 70
     8
  9
$HANDSEED
  5
1CE
  9
$SURFTAB1
 70
     6
  9
$SURFTAB2
 70
     6
  9
$SURFTYPE
 70
     6
  9
$SURFU
 70
     6
  9
$SURFV
 70
     6
  9
$UCSBASE
  2

  9
$UCSNAME
  2

  9
$UCSORG
 10
0.0
 20
0.0
 30
0.0
  9
$UCSXDIR
 10
1.0
 20
0.0
 30
0.0
  9
$UCSYDIR
 10
0.0
 20
1.0
 30
0.0
  9
$UCSORTHOREF
  2

  9
$UCSORTHOVIEW
 70
     0
  9
$UCSORGTOP
 10
0.0
 20
0.0
 30
0.0
  9
$UCSORGBOTTOM
 10
0.0
 20
0.0
 30
0.0
  9
$UCSORGLEFT
 10
0.0
 20
0.0
 30
0.0
  9
$UCSORGRIGHT
 10
0.0
 20
0.0
 30
0.0
  9
$UCSORGFRONT
 10
0.0
 20
0.0
 30
0.0
  9
$UCSORGBACK
 10
0.0
 20
0.0
 30
0.0
  9
$PUCSBASE
  2

  9
$PUCSNAME
  2

  9
$PUCSORG
 10
0.0
 20
0.0
 30
0.0
  9
$PUCSXDIR
 10
1.0
 20
0.0
 30
0.0
  9
$PUCSYDIR
 10
0.0
 20
1.0
 30
0.0
  9
$PUCSORTHOREF
  2

  9
$PUCSORTHOVIEW
 70
     0
  9
$PUCSORGTOP
 10
0.0
 20
0.0
 30
0.0
  9
$PUCSORGBOTTOM
 10
0.0
 20
0.0
 30
0.0
  9
$PUCSORGLEFT
 10
0.0
 20
0.0
 30
0.0
  9
$PUCSORGRIGHT
 10
0.0
 20
0.0
 30
0.0
  9
$PUCSORGFRONT
 10
0.0
 20
0.0
 30
0.0
  9
$PUCSORGBACK
 10
0.0
 20
0.0
 30
0.0
  9
$USERI1
 70
     0
  9
$USERI2
 70
     0
  9
$USERI3
 70
     0
  9
$USERI4
 70
     0
  9
$USERI5
 70
     0
  9
$USERR1
 40
0.0
  9
$USERR2
 40
0.0
  9
$USERR3
 40
0.0
  9
$USERR4
 40
0.0
  9
$USERR5
 40
0.0
  9
$WORLDVIEW
 70
     1
  9
$SHADEDGE
 70
     3
  9
$SHADEDIF
 70
    70
  9
$TILEMODE
 70
     1
  9
$MAXACTVP
 70
    64
  9
$PINSBASE
 10
0.0
 20
0.0
 30
0.0
  9
$PLIMCHECK
 70
     0
  9
$PEXTMIN
 10
1.000000000000000E+20
 20
1.000000000000000E+20
 30
1.000000000000000E+20
  9
$PEXTMAX
 10
-1.000000000000000E+20
 20
-1.000000000000000E+20
 30
-1.000000000000000E+20
  9
$PLIMMIN
 10
0.0
 20
0.0
  9
$PLIMMAX
 10
12.0
 20
9.0
  9
$UNITMODE
 70
     0
  9
$VISRETAIN
 70
     1
  9
$PLINEGEN
 70
     0
  9
$PSLTSCALE
 70
     1
  9
$TREEDEPTH
 70
  3020
  9
$CMLSTYLE
  2
Standard
  9
$CMLJUST
 70
     0
  9
$CMLSCALE
 40
1.0
  9
$PROXYGRAPHICS
 70
     1
  9
$MEASUREMENT
 70
     0
  9
$CELWEIGHT
370
    -1
  9
$ENDCAPS
280
     0
  9
$JOINSTYLE
280
     0
  9
$LWDISPLAY
290
     0
  9
$INSUNITS
 70
     0
  9
$HYPERLINKBASE
  1

  9
$STYLESHEET
  1

  9
$XEDIT
290
     1
  9
$CEPSNTYPE
380
     0
  9
$PSTYLEMODE
290
     1
  9
$FINGERPRINTGUID
  2
{03713F76-5FE4-472A-AAB8-58A260BA2A50}
  9
$VERSIONGUID
  2
{6E7A1D54-E9F3-4707-9754-E4896EE4C1CF}
  9
$EXTNAMES
290
     1
  9
$PSVPSCALE
 40
0.0
  9
$OLESTARTUP
290
     0
  9
$SORTENTS
280
   127
  9
$INDEXCTL
280
     0
  9
$HIDETEXT
280
     0
  9
$XCLIPFRAME
290
     0
  9
$HALOGAP
280
     0
  9
$OBSCOLOR
 70
   257
  9
$OBSLTYPE
280
     0
  9
$INTERSECTIONDISPLAY
280
     0
  9
$INTERSECTIONCOLOR
 70
   257
  9
$DIMASSOC
280
     1
  9
$PROJECTNAME
  1

  0
ENDSEC
  0
SECTION
  2
CLASSES
  0
CLASS
  1
ACDBDICTIONARYWDFLT
  2
AcDbDictionaryWithDefault
  3
ObjectDBX Classes
 90
        0
 91
        1
280
     0
281
     0
  0
ENDSEC
  0
SECTION
  2
TABLES
  0
TABLE
  2
VPORT
  5
19B
330
0
100
AcDbSymbolTable
 70
     2
  0
VPORT
  5
1CD
330
19B
100
AcDbSymbolTableRecord
100
AcDbViewportTableRecord
  2
*Active
 70
     0
 10
0.0
 20
0.0
 11
1.0
 21
1.0
 12
17.65993002334124
 22
50.53146668420177
 13
0.0
 23
0.0
 14
1.0
 24
1.0
 15
0.0
 25
0.0
 16
0.0
 26
0.0
 36
1.0
 17
0.0
 27
0.0
 37
0.0
 40
219.6192608757674
 41
1.625
 42
50.0
 43
0.0
 44
0.0
 50
0.0
 51
0.0
 71
     0
 72
   100
 73
     1
 74
     1
 75
     0
 76
     0
 77
     0
 78
     0
281
     0
 65
     1
110
0.0
120
0.0
130
0.0
111
1.0
121
0.0
131
0.0
112
0.0
122
1.0
132
0.0
 79
     0
146
0.0
  0
ENDTAB
  0
TABLE
  2
LTYPE
  5
198
330
0
100
AcDbSymbolTable
 70
     9
  0
LTYPE
  5
1A6
330
198
100
AcDbSymbolTableRecord
100
AcDbLinetypeTableRecord
  2
ByBlock
 70
     0
  3

 72
    65
 73
     0
 40
0.0
  0
LTYPE
  5
1A7
330
198
100
AcDbSymbolTableRecord
100
AcDbLinetypeTableRecord
  2
ByLayer
 70
     0
  3

 72
    65
 73
     0
 40
0.0
  0
LTYPE
  5
1A8
330
198
100
AcDbSymbolTableRecord
100
AcDbLinetypeTableRecord
  2
CONTINUOUS
 70
     0
  3
Solid line
 72
    65
 73
     0
 40
0.0
  0
LTYPE
  5
1B8
330
198
100
AcDbSymbolTableRecord
100
AcDbLinetypeTableRecord
  2
BORDER
 70
     0
  3
__ __ . __ __ .
 72
    65
 73
     6
 40
16.3435747822977
 49
4.669592794942198
 74
     0
 49
-2.334796397471099
 74
     0
 49
4.669592794942198
 74
     0
 49
-2.334796397471099
 74
     0
 49
0.0
 74
     0
 49
-2.334796397471099
 74
     0
  0
LTYPE
  5
1B9
330
198
100
AcDbSymbolTableRecord
100
AcDbLinetypeTableRecord
  2
CENTER
 70
     0
  3
____ _ ____ _
 72
    65
 73
     4
 40
18.67837117976879
 49
11.67398198735549
 74
     0
 49
-2.334796397471099
 74
     0
 49
2.334796397471099
 74
     0
 49
-2.334796397471099
 74
     0
  0
LTYPE
  5
1BA
330
198
100
AcDbSymbolTableRecord
100
AcDbLinetypeTableRecord
  2
DASHDOT
 70
     0
  3
__ . __ . __ .
 72
    65
 73
     4
 40
9.339185589884399
 49
4.669592794942198
 74
     0
 49
-2.334796397471099
 74
     0
 49
0.0
 74
     0
 49
-2.334796397471099
 74
     0
  0
LTYPE
  5
1BB
330
198
100
AcDbSymbolTableRecord
100
AcDbLinetypeTableRecord
  2
DASHED
 70
     0
  3
__ __ __ __ __
 72
    65
 73
     2
 40
7.004389192413299
 49
4.669592794942198
 74
     0
 49
-2.334796397471099
 74
     0
  0
LTYPE
  5
1BC
330
198
100
AcDbSymbolTableRecord
100
AcDbLinetypeTableRecord
  2
DIVIDE
 70
     0
  3
__ . . __ . . 
 72
    65
 73
     6
 40
11.67398198735549
 49
4.669592794942198
 74
     0
 49
-2.334796397471099
 74
     0
 49
0.0
 74
     0
 49
-2.334796397471099
 74
     0
 49
0.0
 74
     0
 49
-2.334796397471099
 74
     0
  0
LTYPE
  5
1BD
330
198
100
AcDbSymbolTableRecord
100
AcDbLinetypeTableRecord
  2
DOT
 70
     0
  3
..............
 72
    65
 73
     4
 40
4.669592794942198
 49
0.0
 74
     0
 49
-2.334796397471099
 74
     0
 49
0.0
 74
     0
 49
-2.334796397471099
 74
     0
  0
LTYPE
  5
1BE
330
198
100
AcDbSymbolTableRecord
100
AcDbLinetypeTableRecord
  2
HIDDEN
 70
     0
  3
_ _ _ _ _ _ _
 72
    65
 73
     2
 40
3.50219459620665
 49
2.334796397471099
 74
     0
 49
-1.167398198735549
 74
     0
  0
LTYPE
  5
1BF
330
198
100
AcDbSymbolTableRecord
100
AcDbLinetypeTableRecord
  2
PHANTOM
 70
     0
  3
_____ _ _ _____ _ _ 
 72
    65
 73
     6
 40
23.34796397471099
 49
11.67398198735549
 74
     0
 49
-2.334796397471099
 74
     0
 49
2.334796397471099
 74
     0
 49
-2.334796397471099
 74
     0
 49
2.334796397471099
 74
     0
 49
-2.334796397471099
 74
     0
  0
ENDTAB
  0
TABLE
  2
LAYER
  5
195
330
0
100
AcDbSymbolTable
 70
     2
  0
LAYER
  5
1A3
330
195
100
AcDbSymbolTableRecord
100
AcDbLayerTableRecord
  2
0
 70
     0
 62
     7
  6
CONTINUOUS
370
    -3
390
1A2
  0
LAYER
  5
1C0
330
195
100
AcDbSymbolTableRecord
100
AcDbLayerTableRecord
  2
1
 70
     0
 62
     7
  6
CONTINUOUS
370
    -3
390
1A2
  0
ENDTAB
  0
TABLE
  2
STYLE
  5
196
330
0
100
AcDbSymbolTable
 70
     4
  0
STYLE
  5
1A4
330
196
100
AcDbSymbolTableRecord
100
AcDbTextStyleTableRecord
  2
STANDARD
 70
     0
 40
0.0
 41
1.0
 50
0.0
 71
     0
 42
3.5
  3
txt
  4

  0
STYLE
  5
1C1
330
196
100
AcDbSymbolTableRecord
100
AcDbTextStyleTableRecord
  2
SIMPLEX
 70
     0
 40
0.0
 41
1.0
 50
0.0
 71
     0
 42
3.5
  3
simplex
  4

  0
STYLE
  5
1C2
330
196
100
AcDbSymbolTableRecord
100
AcDbTextStyleTableRecord
  2
COMPLEX
 70
     0
 40
0.0
 41
1.0
 50
0.0
 71
     0
 42
3.5
  3
complex
  4

  0
STYLE
  5
1C3
330
196
100
AcDbSymbolTableRecord
100
AcDbTextStyleTableRecord
  2
ITALIC
 70
     0
 40
0.0
 41
1.0
 50
0.0
 71
     0
 42
3.5
  3
italic
  4

  0
ENDTAB
  0
TABLE
  2
VIEW
  5
199
330
0
100
AcDbSymbolTable
 70
     0
  0
ENDTAB
  0
TABLE
  2
UCS
  5
19A
330
0
100
AcDbSymbolTable
 70
     0
  0
ENDTAB
  0
TABLE
  2
APPID
  5
19C
330
0
100
AcDbSymbolTable
 70
     1
  0
APPID
  5
1A5
330
19C
100
AcDbSymbolTableRecord
100
AcDbRegAppTableRecord
  2
ACAD
 70
     0
  0
ENDTAB
  0
TABLE
  2
DIMSTYLE
  5
19D
330
0
100
AcDbSymbolTable
 70
     1
100
AcDbDimStyleTable
 71
     0
  0
DIMSTYLE
105
1C4
330
19D
100
AcDbSymbolTableRecord
100
AcDbDimStyleTableRecord
  2
STANDARD
 70
     0
279
     2
340
1A4
  0
ENDTAB
  0
TABLE
  2
BLOCK_RECORD
  5
194
330
0
100
AcDbSymbolTable
 70
     2
  0
BLOCK_RECORD
  5
1B3
330
194
100
AcDbSymbolTableRecord
100
AcDbBlockTableRecord
  2
*Model_Space
340
1B6
  0
BLOCK_RECORD
  5
1AF
330
194
100
AcDbSymbolTableRecord
100
AcDbBlockTableRecord
  2
*Paper_Space
340
1B2
  0
BLOCK_RECORD
  5
1C9
330
194
100
AcDbSymbolTableRecord
100
AcDbBlockTableRecord
  2
$MODEL_SPACE
340
0
  0
BLOCK_RECORD
  5
1CB
330
194
100
AcDbSymbolTableRecord
100
AcDbBlockTableRecord
  2
$PAPER_SPACE
340
0
  0
ENDTAB
  0
ENDSEC
  0
SECTION
  2
BLOCKS
  0
BLOCK
  5
1B4
330
1B3
100
AcDbEntity
  8
0
100
AcDbBlockBegin
  2
*Model_Space
 70
     0
 10
0.0
 20
0.0
 30
0.0
  3
*Model_Space
  1

  0
ENDBLK
  5
1B5
330
1B3
100
AcDbEntity
  8
0
100
AcDbBlockEnd
  0
BLOCK
  5
1B0
330
1AF
100
AcDbEntity
 67
     1
  8
0
100
AcDbBlockBegin
  2
*Paper_Space
 70
     0
 10
0.0
 20
0.0
 30
0.0
  3
*Paper_Space
  1

  0
ENDBLK
  5
1B1
330
1AF
100
AcDbEntity
 67
     1
  8
0
100
AcDbBlockEnd
  0
BLOCK
  5
1CA
330
1C9
100
AcDbEntity
  8
0
100
AcDbBlockBegin
  2
$MODEL_SPACE
 70
     0
 10
0.0
 20
0.0
 30
0.0
  3
$MODEL_SPACE
  1

  0
ENDBLK
  5
20
330
1C9
100
AcDbEntity
  8
0
100
AcDbBlockEnd
  0
BLOCK
  5
1CC
330
1CB
100
AcDbEntity
  8
0
100
AcDbBlockBegin
  2
$PAPER_SPACE
 70
     0
 10
0.0
 20
0.0
 30
0.0
  3
$PAPER_SPACE
  1

  0
ENDBLK
  5
1C
330
1CB
100
AcDbEntity
  8
0
100
AcDbBlockEnd
  0
ENDSEC
  0
SECTION
  2
ENTITIES
  0
LINE
  5
33
330
1B3
100
AcDbEntity
  8
1
  6
DASHDOT
 62
     3
100
AcDbLine
 10
150.5268705076763
 20
10.00071382947335
 30
0.0
 11
155.4730749582234
 21
12.85640630046367
 31
0.0
  0
LINE
  5
34
330
1B3
100
AcDbEntity
  8
1
  6
DASHDOT
 62
     3
100
AcDbLine
 10
169.4544554048543
 20
42.78425253595883
 30
0.0
 11
169.4544554048543
 21
37.07286759397817
 31
0.0
  0
LINE
  5
35
330
1B3
100
AcDbEntity
  8
1
  6
DASHDOT
 62
     3
100
AcDbLine
 10
166.6323254503196
 20
20.92856006496849
 30
0.0
 11
172.276585359389
 21
20.92856006496849
 31
0.0
  0
LINE
  5
36
330
1B3
100
AcDbEntity
  8
1
  6
DASHDOT
 62
     3
100
AcDbLine
 10
169.4544554048543
 20
18.10643011043384
 30
0.0
 11
169.4544554048543
 21
23.75069001950316
 31
0.0
  0
LINE
  5
37
330
1B3
100
AcDbEntity
  8
1
  6
DASHDOT
 62
     3
100
AcDbLine
 10
188.3820403020322
 20
10.00071382947331
 30
0.0
 11
183.4358358514851
 21
12.85640630046365
 31
0.0
  0
LINE
  5
38
330
1B3
100
AcDbEntity
  8
1
 62
     7
100
AcDbLine
 10
76.19072377799835
 20
36.6785600649685
 30
0.0
 11
76.19072377799835
 21
29.4285600649685
 31
0.0
  0
LINE
  5
39
330
1B3
100
AcDbEntity
  8
1
 62
     7
100
AcDbLine
 10
64.19072377799833
 20
25.9285600649685
 30
0.0
 11
88.69072377799836
 21
25.9285600649685
 31
0.0
  0
LINE
  5
3A
330
1B3
100
AcDbEntity
  8
1
 62
     7
100
AcDbLine
 10
64.19072377799834
 20
27.4285600649685
 30
0.0
 11
88.69072377799836
 21
27.4285600649685
 31
0.0
  0
LINE
  5
3B
330
1B3
100
AcDbEntity
  8
1
 62
     7
100
AcDbLine
 10
77.19072377799834
 20
37.17856006496849
 30
0.0
 11
76.69072377799834
 21
37.17856006496849
 31
0.0
  0
LINE
  5
3C
330
1B3
100
AcDbEntity
  8
1
 62
     7
100
AcDbLine
 10
88.69072377799836
 20
28.9285600649685
 30
0.0
 11
76.69072377799834
 21
28.9285600649685
 31
0.0
  0
LINE
  5
3D
330
1B3
100
AcDbEntity
  8
1
 62
     7
100
AcDbLine
 10
77.19072377799834
 20
46.4285600649685
 30
0.0
 11
77.19072377799834
 21
28.9285600649685
 31
0.0
  0
LINE
  5
3E
330
1B3
100
AcDbEntity
  8
1
 62
     7
100
AcDbLine
 10
74.05674918178275
 20
46.4285600649685
 30
0.0
 11
77.19072377799834
 21
46.4285600649685
 31
0.0
  0
LINE
  5
3F
330
1B3
100
AcDbEntity
  8
1
 62
     7
100
AcDbLine
 10
73.19072377799834
 20
44.92856006496849
 30
0.0
 11
74.05674918178275
 21
46.4285600649685
 31
0.0
  0
LINE
  5
40
330
1B3
100
AcDbEntity
  8
1
 62
     7
100
AcDbLine
 10
71.19072377799835
 20
44.92856006496849
 30
0.0
 11
73.19072377799834
 21
44.92856006496849
 31
0.0
  0
LINE
  5
41
330
1B3
100
AcDbEntity
  8
1
 62
     7
100
AcDbLine
 10
71.19072377799835
 20
33.37856006496849
 30
0.0
 11
71.19072377799835
 21
44.92856006496849
 31
0.0
  0
LINE
  5
42
330
1B3
100
AcDbEntity
  8
1
 62
     7
100
AcDbLine
 10
66.19072377799835
 20
33.37856006496849
 30
0.0
 11
71.19072377799835
 21
33.37856006496849
 31
0.0
  0
LINE
  5
43
330
1B3
100
AcDbEntity
  8
1
 62
     7
100
AcDbLine
 10
66.19072377799835
 20
28.9285600649685
 30
0.0
 11
66.19072377799835
 21
33.37856006496849
 31
0.0
  0
LINE
  5
44
330
1B3
100
AcDbEntity
  8
1
 62
     7
100
AcDbLine
 10
64.19072377799834
 20
28.9285600649685
 30
0.0
 11
66.19072377799835
 21
28.9285600649685
 31
0.0
  0
LINE
  5
45
330
1B3
100
AcDbEntity
  8
1
 62
     7
100
AcDbLine
 10
64.19072377799834
 20
33.9285600649685
 30
0.0
 11
48.19072377799834
 21
33.9285600649685
 31
0.0
  0
LINE
  5
46
330
1B3
100
AcDbEntity
  8
1
 62
     7
100
AcDbLine
 10
48.19072377799834
 20
-3.071439935031508
 30
0.0
 11
48.19072377799834
 21
14.96856006496849
 31
0.0
  0
LINE
  5
47
330
1B3
100
AcDbEntity
  8
1
 62
     7
100
AcDbLine
 10
64.19072377799834
 20
34.5285600649685
 30
0.0
 11
64.19072377799833
 21
25.9285600649685
 31
0.0
  0
LINE
  5
48
330
1B3
100
AcDbEntity
  8
1
 62
     7
100
AcDbLine
 10
65.39072377799834
 20
34.5285600649685
 30
0.0
 11
64.19072377799834
 21
34.5285600649685
 31
0.0
  0
LINE
  5
49
330
1B3
100
AcDbEntity
  8
1
 62
     7
100
AcDbLine
 10
61.39072377799835
 20
27.85009909588585
 30
0.0
 11
64.19072377799834
 21
27.85009909588585
 31
0.0
  0
LINE
  5
4A
330
1B3
100
AcDbEntity
  8
1
 62
     7
100
AcDbLine
 10
58.99072377799834
 20
27.85009909588585
 30
0.0
 11
53.39072377799835
 21
27.85009909588585
 31
0.0
  0
LINE
  5
4B
330
1B3
100
AcDbEntity
  8
1
 62
     7
100
AcDbLine
 10
58.99072377799834
 20
32.00702103405117
 30
0.0
 11
53.39072377799835
 21
32.00702103405117
 31
0.0
  0
LINE
  5
4C
330
1B3
100
AcDbEntity
  8
1
 62
     7
100
AcDbLine
 10
61.39072377799835
 20
32.00702103405117
 30
0.0
 11
64.19072377799834
 21
32.00702103405115
 31
0.0
  0
LINE
  5
4D
330
1B3
100
AcDbEntity
  8
1
 62
     7
100
AcDbLine
 10
56.19072377799835
 20
32.9685600649685
 30
0.0
 11
56.19072377799835
 21
26.8885600649685
 31
0.0
  0
LINE
  5
4E
330
1B3
100
AcDbEntity
  8
1
 62
     7
100
AcDbLine
 10
57.15072377799835
 20
25.9285600649685
 30
0.0
 11
63.23072377799834
 21
25.9285600649685
 31
0.0
  0
LINE
  5
4F
330
1B3
100
AcDbEntity
  8
1
 62
     7
100
AcDbLine
 10
50.99072377799834
 20
27.85009909588585
 30
0.0
 11
48.19072377799834
 21
27.85009909588585
 31
0.0
  0
LINE
  5
50
330
1B3
100
AcDbEntity
  8
1
 62
     7
100
AcDbLine
 10
50.99072377799834
 20
32.00702103405117
 30
0.0
 11
48.19072377799834
 21
32.00702103405115
 31
0.0
  0
LINE
  5
51
330
1B3
100
AcDbEntity
  8
1
 62
     7
100
AcDbLine
 10
49.15072377799834
 20
25.9285600649685
 30
0.0
 11
55.23072377799834
 21
25.9285600649685
 31
0.0
  0
LINE
  5
52
330
1B3
100
AcDbEntity
  8
1
 62
     7
100
AcDbLine
 10
64.19072377799834
 20
31.5285600649685
 30
0.0
 11
65.39072377799834
 21
31.5285600649685
 31
0.0
  0
LINE
  5
53
330
1B3
100
AcDbEntity
  8
1
 62
     7
100
AcDbLine
 10
46.69072377799832
 20
54.17856006496852
 30
0.0
 11
48.19072377799832
 21
54.17856006496852
 31
0.0
  0
LINE
  5
54
330
1B3
100
AcDbEntity
  8
1
 62
     7
100
AcDbLine
 10
46.69072377799832
 20
63.67856006496852
 30
0.0
 11
48.19072377799832
 21
63.67856006496852
 31
0.0
  0
LINE
  5
55
330
1B3
100
AcDbEntity
  8
1
 62
     7
100
AcDbLine
 10
46.69072377799832
 20
32.42856006496853
 30
0.0
 11
48.19072377799832
 21
32.42856006496853
 31
0.0
  0
LINE
  5
56
330
1B3
100
AcDbEntity
  8
1
 62
     7
100
AcDbLine
 10
46.69072377799832
 20
65.92856006496849
 30
0.0
 11
48.19072377799832
 21
65.92856006496849
 31
0.0
  0
LINE
  5
57
330
1B3
100
AcDbEntity
  8
1
 62
     7
100
AcDbLine
 10
70.19072377799834
 20
33.9285600649685
 30
0.0
 11
65.39072377799834
 21
33.9285600649685
 31
0.0
  0
LINE
  5
58
330
1B3
100
AcDbEntity
  8
1
 62
     7
100
AcDbLine
 10
72.69072377799834
 20
46.4285600649685
 30
0.0
 11
72.69072377799834
 21
44.92856006496849
 31
0.0
  0
LINE
  5
59
330
1B3
100
AcDbEntity
  8
1
 62
     7
100
AcDbLine
 10
70.19072377799834
 20
45.47856006496849
 30
0.0
 11
70.19072377799834
 21
33.37856006496849
 31
0.0
  0
LINE
  5
5A
330
1B3
100
AcDbEntity
  8
1
 62
     7
100
AcDbLine
 10
70.19072377799834
 20
45.47856006496849
 30
0.0
 11
72.69072377799834
 21
45.47856006496849
 31
0.0
  0
LINE
  5
5B
330
1B3
100
AcDbEntity
  8
1
 62
     7
100
AcDbLine
 10
65.39072377799834
 20
34.5285600649685
 30
0.0
 11
65.39072377799834
 21
28.9285600649685
 31
0.0
  0
LINE
  5
5C
330
1B3
100
AcDbEntity
  8
1
 62
     7
100
AcDbLine
 10
48.19072377799834
 20
44.92856006496849
 30
0.0
 11
49.69072377799834
 21
46.4285600649685
 31
0.0
  0
LINE
  5
5D
330
1B3
100
AcDbEntity
  8
1
 62
     7
100
AcDbLine
 10
52.19072377799836
 20
47.42856006496849
 30
0.0
 11
51.69072377799836
 21
46.9285600649685
 31
0.0
  0
LINE
  5
5E
330
1B3
100
AcDbEntity
  8
1
 62
     7
100
AcDbLine
 10
51.69072377799836
 20
46.9285600649685
 30
0.0
 11
51.69072377799836
 21
46.4285600649685
 31
0.0
  0
LINE
  5
5F
330
1B3
100
AcDbEntity
  8
1
 62
     7
100
AcDbLine
 10
57.69072377799832
 20
46.4285600649685
 30
0.0
 11
57.69072377799832
 21
46.9285600649685
 31
0.0
  0
LINE
  5
60
330
1B3
100
AcDbEntity
  8
1
 62
     7
100
AcDbLine
 10
57.69072377799832
 20
46.9285600649685
 30
0.0
 11
57.19072377799832
 21
47.42856006496849
 31
0.0
  0
LINE
  5
61
330
1B3
100
AcDbEntity
  8
1
 62
     7
100
AcDbLine
 10
49.69072377799834
 20
46.4285600649685
 30
0.0
 11
72.69072377799834
 21
46.4285600649685
 31
0.0
  0
LINE
  5
62
330
1B3
100
AcDbEntity
  8
1
 62
     3
100
AcDbLine
 10
54.30072377799834
 20
71.71019400179075
 30
0.0
 11
54.30072377799834
 21
74.67099914642851
 31
0.0
  0
LINE
  5
63
330
1B3
100
AcDbEntity
  8
1
 62
     3
100
AcDbLine
 10
55.08072377799834
 20
74.67099914642851
 30
0.0
 11
55.08072377799834
 21
71.71019400179075
 31
0.0
  0
LINE
  5
64
330
1B3
100
AcDbEntity
  8
1
 62
     7
100
AcDbLine
 10
52.19072377799836
 20
47.42856006496849
 30
0.0
 11
57.19072377799832
 21
47.42856006496849
 31
0.0
  0
LINE
  5
65
330
1B3
100
AcDbEntity
  8
1
 62
     7
100
AcDbLine
 10
53.77072377799834
 20
71.71019400179075
 30
0.0
 11
53.77072377799834
 21
47.42856006496849
 31
0.0
  0
LINE
  5
66
330
1B3
100
AcDbEntity
  8
1
 62
     7
100
AcDbLine
 10
55.61072377799835
 20
71.71019400179075
 30
0.0
 11
55.61072377799835
 21
47.42856006496849
 31
0.0
  0
LINE
  5
67
330
1B3
100
AcDbEntity
  8
1
 62
     7
100
AcDbLine
 10
53.77072377799834
 20
71.71019400179075
 30
0.0
 11
55.61072377799835
 21
71.71019400179075
 31
0.0
  0
LINE
  5
68
330
1B3
100
AcDbEntity
  8
1
 62
     7
100
AcDbLine
 10
184.7110520773478
 20
70.75773991581349
 30
0.0
 11
178.0904636204429
 21
46.04936741864017
 31
0.0
  0
LINE
  5
69
330
1B3
100
AcDbEntity
  8
1
 62
     7
100
AcDbLine
 10
182.9337485569761
 20
71.23396695880214
 30
0.0
 11
176.3131601000711
 21
46.5255944616288
 31
0.0
  0
LINE
  5
6A
330
1B3
100
AcDbEntity
  8
1
 62
     7
100
AcDbLine
 10
181.1564450366041
 20
71.71019400179075
 30
0.0
 11
174.5358565796993
 21
47.00182150461745
 31
0.0
  0
LINE
  5
6B
330
1B3
100
AcDbEntity
  8
1
 62
     7
100
AcDbLine
 10
173.8983455343484
 20
47.1726420743851
 30
0.0
 11
178.7279746657937
 21
45.87854684887251
 31
0.0
  0
LINE
  5
6C
330
1B3
100
AcDbEntity
  8
1
 62
     7
100
AcDbLine
 10
179.0815280563871
 20
45.26617441317671
 30
0.0
 11
178.7279746657937
 21
45.87854684887251
 31
0.0
  0
LINE
  5
6D
330
1B3
100
AcDbEntity
  8
1
 62
     7
100
AcDbLine
 10
178.9521185338358
 20
44.78321150003217
 30
0.0
 11
179.0815280563871
 21
45.26617441317671
 31
0.0
  0
LINE
  5
6E
330
1B3
100
AcDbEntity
  8
1
 62
     7
100
AcDbLine
 10
173.2859730986526
 20
46.81908868379181
 30
0.0
 11
173.1565635761014
 21
46.33612577064727
 31
0.0
  0
LINE
  5
6F
330
1B3
100
AcDbEntity
  8
1
 62
     7
100
AcDbLine
 10
173.8983455343484
 20
47.1726420743851
 30
0.0
 11
173.2859730986526
 21
46.81908868379181
 31
0.0
  0
LINE
  5
70
330
1B3
100
AcDbEntity
  8
1
 62
     7
100
AcDbLine
 10
167.3544554048544
 20
61.57856006496849
 30
0.0
 11
167.3544554048544
 21
56.27856006496848
 31
0.0
  0
LINE
  5
71
330
1B3
100
AcDbEntity
  8
1
 62
     7
100
AcDbLine
 10
171.5544554048544
 20
61.57856006496849
 30
0.0
 11
171.5544554048544
 21
56.27856006496848
 31
0.0
  0
LINE
  5
72
330
1B3
100
AcDbEntity
  8
1
 62
     7
100
AcDbLine
 10
174.4544554048543
 20
64.92856006496849
 30
0.0
 11
174.4544554048543
 21
47.02363288368009
 31
0.0
  0
LINE
  5
73
330
1B3
100
AcDbEntity
  8
1
 62
     7
100
AcDbLine
 10
173.4544554048543
 20
65.92856006496849
 30
0.0
 11
165.4544554048543
 21
65.92856006496849
 31
0.0
  0
LINE
  5
74
330
1B3
100
AcDbEntity
  8
1
 62
     7
100
AcDbLine
 10
164.4544554048543
 20
64.92856006496849
 30
0.0
 11
164.4544554048543
 21
45.9335595650685
 31
0.0
  0
LINE
  5
75
330
1B3
100
AcDbEntity
  8
1
 62
     7
100
AcDbLine
 10
167.4544554048543
 20
27.4285600649685
 30
0.0
 11
171.4544554048543
 21
27.4285600649685
 31
0.0
  0
LINE
  5
76
330
1B3
100
AcDbEntity
  8
1
 62
     7
100
AcDbLine
 10
171.4544554048543
 20
27.4285600649685
 30
0.0
 11
171.4544554048543
 21
25.51113575992434
 31
0.0
  0
LINE
  5
77
330
1B3
100
AcDbEntity
  8
1
 62
     7
100
AcDbLine
 10
167.4544554048543
 20
25.51113575992434
 30
0.0
 11
167.4544554048543
 21
27.4285600649685
 31
0.0
  0
LINE
  5
78
330
1B3
100
AcDbEntity
  8
1
  6
DASHDOT
 62
     3
100
AcDbLine
 10
46.69072377799832
 20
20.92856006496849
 30
0.0
 11
42.69072377799832
 21
20.92856006496849
 31
0.0
  0
LINE
  5
79
330
1B3
100
AcDbEntity
  8
1
 62
     7
100
AcDbLine
 10
76.19072377799835
 20
12.42856006496849
 30
0.0
 11
76.19072377799835
 21
5.178560064968491
 31
0.0
  0
LINE
  5
7A
330
1B3
100
AcDbEntity
  8
1
 62
     7
100
AcDbLine
 10
88.69072377799836
 20
15.9285600649685
 30
0.0
 11
64.19072377799833
 21
15.9285600649685
 31
0.0
  0
LINE
  5
7B
330
1B3
100
AcDbEntity
  8
1
 62
     7
100
AcDbLine
 10
76.69072377799834
 20
4.678560064968491
 30
0.0
 11
77.19072377799834
 21
4.678560064968491
 31
0.0
  0
LINE
  5
7C
330
1B3
100
AcDbEntity
  8
1
 62
     7
100
AcDbLine
 10
76.69072377799834
 20
12.92856006496849
 30
0.0
 11
88.69072377799836
 21
12.92856006496849
 31
0.0
  0
LINE
  5
7D
330
1B3
100
AcDbEntity
  8
1
 62
     7
100
AcDbLine
 10
77.19072377799834
 20
12.92856006496849
 30
0.0
 11
77.19072377799834
 21
-4.571439935031508
 31
0.0
  0
LINE
  5
7E
330
1B3
100
AcDbEntity
  8
1
 62
     7
100
AcDbLine
 10
77.19072377799834
 20
-4.571439935031508
 30
0.0
 11
74.05674918178275
 21
-4.571439935031508
 31
0.0
  0
LINE
  5
7F
330
1B3
100
AcDbEntity
  8
1
 62
     7
100
AcDbLine
 10
74.05674918178275
 20
-4.571439935031508
 30
0.0
 11
73.19072377799834
 21
-3.071439935031508
 31
0.0
  0
LINE
  5
80
330
1B3
100
AcDbEntity
  8
1
 62
     7
100
AcDbLine
 10
73.19072377799834
 20
-3.071439935031508
 30
0.0
 11
71.19072377799835
 21
-3.071439935031508
 31
0.0
  0
LINE
  5
81
330
1B3
100
AcDbEntity
  8
1
 62
     7
100
AcDbLine
 10
71.19072377799835
 20
-3.071439935031508
 30
0.0
 11
71.19072377799835
 21
8.478560064968489
 31
0.0
  0
LINE
  5
82
330
1B3
100
AcDbEntity
  8
1
 62
     7
100
AcDbLine
 10
71.19072377799835
 20
8.478560064968489
 30
0.0
 11
66.19072377799835
 21
8.478560064968496
 31
0.0
  0
LINE
  5
83
330
1B3
100
AcDbEntity
  8
1
 62
     7
100
AcDbLine
 10
66.19072377799835
 20
8.478560064968496
 30
0.0
 11
66.19072377799835
 21
12.92856006496849
 31
0.0
  0
LINE
  5
84
330
1B3
100
AcDbEntity
  8
1
 62
     7
100
AcDbLine
 10
66.19072377799835
 20
12.92856006496849
 30
0.0
 11
64.19072377799834
 21
12.92856006496849
 31
0.0
  0
LINE
  5
85
330
1B3
100
AcDbEntity
  8
1
 62
     7
100
AcDbLine
 10
48.19072377799834
 20
7.928560064968494
 30
0.0
 11
64.19072377799834
 21
7.928560064968494
 31
0.0
  0
LINE
  5
86
330
1B3
100
AcDbEntity
  8
1
 62
     7
100
AcDbLine
 10
64.19072377799834
 20
7.328560064968491
 30
0.0
 11
65.39072377799834
 21
7.328560064968491
 31
0.0
  0
LINE
  5
87
330
1B3
100
AcDbEntity
  8
1
 62
     7
100
AcDbLine
 10
64.19072377799834
 20
14.00702103405114
 30
0.0
 11
61.39072377799835
 21
14.00702103405115
 31
0.0
  0
LINE
  5
88
330
1B3
100
AcDbEntity
  8
1
 62
     7
100
AcDbLine
 10
58.99072377799834
 20
14.00702103405115
 30
0.0
 11
53.39072377799835
 21
14.00702103405115
 31
0.0
  0
LINE
  5
89
330
1B3
100
AcDbEntity
  8
1
 62
     7
100
AcDbLine
 10
58.99072377799834
 20
9.850099095885838
 30
0.0
 11
53.39072377799835
 21
9.850099095885838
 31
0.0
  0
LINE
  5
8A
330
1B3
100
AcDbEntity
  8
1
 62
     7
100
AcDbLine
 10
64.19072377799834
 20
9.850099095885848
 30
0.0
 11
61.39072377799835
 21
9.850099095885838
 31
0.0
  0
LINE
  5
8B
330
1B3
100
AcDbEntity
  8
1
 62
     7
100
AcDbLine
 10
63.23072377799834
 20
15.9285600649685
 30
0.0
 11
57.15072377799835
 21
15.9285600649685
 31
0.0
  0
LINE
  5
8C
330
1B3
100
AcDbEntity
  8
1
 62
     7
100
AcDbLine
 10
48.19072377799834
 20
14.00702103405114
 30
0.0
 11
50.99072377799834
 21
14.00702103405115
 31
0.0
  0
LINE
  5
8D
330
1B3
100
AcDbEntity
  8
1
 62
     7
100
AcDbLine
 10
48.19072377799834
 20
9.850099095885848
 30
0.0
 11
50.99072377799834
 21
9.850099095885838
 31
0.0
  0
LINE
  5
8E
330
1B3
100
AcDbEntity
  8
1
 62
     7
100
AcDbLine
 10
55.23072377799834
 20
15.9285600649685
 30
0.0
 11
49.15072377799834
 21
15.9285600649685
 31
0.0
  0
LINE
  5
8F
330
1B3
100
AcDbEntity
  8
1
 62
     7
100
AcDbLine
 10
65.39072377799834
 20
10.32856006496849
 30
0.0
 11
64.19072377799834
 21
10.32856006496849
 31
0.0
  0
LINE
  5
90
330
1B3
100
AcDbEntity
  8
1
 62
     7
100
AcDbLine
 10
48.19072377799832
 20
9.428560064968472
 30
0.0
 11
46.69072377799832
 21
9.428560064968472
 31
0.0
  0
LINE
  5
91
330
1B3
100
AcDbEntity
  8
1
 62
     7
100
AcDbLine
 10
65.39072377799834
 20
7.928560064968494
 30
0.0
 11
70.19072377799834
 21
7.928560064968494
 31
0.0
  0
LINE
  5
92
330
1B3
100
AcDbEntity
  8
1
 62
     7
100
AcDbLine
 10
72.69072377799834
 20
-3.071439935031508
 30
0.0
 11
72.69072377799834
 21
-4.571439935031508
 31
0.0
  0
LINE
  5
93
330
1B3
100
AcDbEntity
  8
1
 62
     7
100
AcDbLine
 10
70.19072377799834
 20
8.478560064968496
 30
0.0
 11
70.19072377799834
 21
-3.621439935031505
 31
0.0
  0
LINE
  5
94
330
1B3
100
AcDbEntity
  8
1
 62
     7
100
AcDbLine
 10
72.69072377799834
 20
-3.621439935031507
 30
0.0
 11
70.19072377799834
 21
-3.621439935031505
 31
0.0
  0
LINE
  5
95
330
1B3
100
AcDbEntity
  8
1
 62
     7
100
AcDbLine
 10
65.39072377799834
 20
12.92856006496849
 30
0.0
 11
65.39072377799834
 21
7.328560064968491
 31
0.0
  0
LINE
  5
96
330
1B3
100
AcDbEntity
  8
1
 62
     7
100
AcDbLine
 10
49.69072377799834
 20
-4.571439935031508
 30
0.0
 11
48.19072377799834
 21
-3.071439935031508
 31
0.0
  0
LINE
  5
97
330
1B3
100
AcDbEntity
  8
1
 62
     7
100
AcDbLine
 10
72.69072377799834
 20
-4.571439935031508
 30
0.0
 11
49.69072377799834
 21
-4.571439935031508
 31
0.0
  0
LINE
  5
98
330
1B3
100
AcDbEntity
  8
1
 62
     7
100
AcDbLine
 10
48.19072377799834
 20
-2.571439935031483
 30
0.0
 11
46.69072377799832
 21
-2.571439935031483
 31
0.0
  0
LINE
  5
99
330
1B3
100
AcDbEntity
  8
1
 62
     7
100
AcDbLine
 10
46.69072377799832
 20
-2.571439935031483
 30
0.0
 11
46.69072377799832
 21
9.428560064968472
 31
0.0
  0
LINE
  5
9A
330
1B3
100
AcDbEntity
  8
1
 62
     7
100
AcDbLine
 10
87.69072377799835
 20
12.92856006496849
 30
0.0
 11
87.69072377799835
 21
12.42856006496851
 31
0.0
  0
LINE
  5
9B
330
1B3
100
AcDbEntity
  8
1
 62
     7
100
AcDbLine
 10
80.44072377799833
 20
12.92856006496849
 30
0.0
 11
80.44072377799833
 21
-4.721439935031496
 31
0.0
  0
LINE
  5
9C
330
1B3
100
AcDbEntity
  8
1
 62
     7
100
AcDbLine
 10
80.74072377799835
 20
28.9285600649685
 30
0.0
 11
80.74072377799835
 21
41.87856006496849
 31
0.0
  0
LINE
  5
9D
330
1B3
100
AcDbEntity
  8
1
 62
     7
100
AcDbLine
 10
77.44072377799835
 20
28.9285600649685
 30
0.0
 11
77.44072377799835
 21
46.57856006496849
 31
0.0
  0
LINE
  5
9E
330
1B3
100
AcDbEntity
  8
1
 62
     7
100
AcDbLine
 10
80.74072377799835
 20
-4.071439935031491
 30
0.0
 11
80.44072377799833
 21
-4.071439935031491
 31
0.0
  0
LINE
  5
9F
330
1B3
100
AcDbEntity
  8
1
 62
     7
100
AcDbLine
 10
80.74072377799835
 20
-4.071439935031491
 30
0.0
 11
80.74072377799835
 21
6.928560064968507
 31
0.0
  0
LINE
  5
A0
330
1B3
100
AcDbEntity
  8
1
 62
     7
100
AcDbLine
 10
80.74072377799835
 20
45.9285600649685
 30
0.0
 11
80.74072377799835
 21
44.77856006496849
 31
0.0
  0
LINE
  5
A1
330
1B3
100
AcDbEntity
  8
1
 62
     7
100
AcDbLine
 10
80.44072377799833
 20
45.9285600649685
 30
0.0
 11
80.74072377799835
 21
45.9285600649685
 31
0.0
  0
LINE
  5
A2
330
1B3
100
AcDbEntity
  8
1
 62
     7
100
AcDbLine
 10
81.54072377799836
 20
45.32856006496849
 30
0.0
 11
81.54072377799836
 21
41.32856006496849
 31
0.0
  0
LINE
  5
A3
330
1B3
100
AcDbEntity
  8
1
 62
     7
100
AcDbLine
 10
80.74072377799835
 20
45.32856006496849
 30
0.0
 11
81.54072377799836
 21
45.32856006496849
 31
0.0
  0
LINE
  5
A4
330
1B3
100
AcDbEntity
  8
1
 62
     7
100
AcDbLine
 10
80.74072377799835
 20
41.32856006496849
 30
0.0
 11
81.54072377799836
 21
41.32856006496849
 31
0.0
  0
LINE
  5
A5
330
1B3
100
AcDbEntity
  8
1
 62
     7
100
AcDbLine
 10
80.44072377799833
 20
41.87856006496849
 30
0.0
 11
80.74072377799835
 21
41.87856006496849
 31
0.0
  0
LINE
  5
A6
330
1B3
100
AcDbEntity
  8
1
 62
     7
100
AcDbLine
 10
80.44072377799833
 20
44.77856006496849
 30
0.0
 11
80.74072377799835
 21
44.77856006496849
 31
0.0
  0
LINE
  5
A7
330
1B3
100
AcDbEntity
  8
1
 62
     7
100
AcDbLine
 10
78.94072377799834
 20
41.82856006496849
 30
0.0
 11
77.44072377799835
 21
41.82856006496849
 31
0.0
  0
LINE
  5
A8
330
1B3
100
AcDbEntity
  8
1
 62
     7
100
AcDbLine
 10
78.94072377799834
 20
44.82856006496849
 30
0.0
 11
78.94072377799834
 21
41.82856006496849
 31
0.0
  0
LINE
  5
A9
330
1B3
100
AcDbEntity
  8
1
 62
     7
100
AcDbLine
 10
77.44072377799835
 20
44.82856006496849
 30
0.0
 11
78.94072377799834
 21
44.82856006496849
 31
0.0
  0
LINE
  5
AA
330
1B3
100
AcDbEntity
  8
1
 62
     7
100
AcDbLine
 10
80.44072377799833
 20
41.87856006496849
 30
0.0
 11
80.44072377799833
 21
28.9285600649685
 31
0.0
  0
LINE
  5
AB
330
1B3
100
AcDbEntity
  8
1
 62
     7
100
AcDbLine
 10
77.44072377799835
 20
32.9285600649685
 30
0.0
 11
80.44072377799833
 21
32.92856006496851
 31
0.0
  0
LINE
  5
AC
330
1B3
100
AcDbEntity
  8
1
 62
     7
100
AcDbLine
 10
77.44072377799835
 20
4.72856006496849
 30
0.0
 11
80.44072377799833
 21
4.72856006496849
 31
0.0
  0
LINE
  5
AD
330
1B3
100
AcDbEntity
  8
1
 62
     7
100
AcDbLine
 10
77.44072377799835
 20
-4.721439935031496
 30
0.0
 11
77.44072377799835
 21
12.9285600649685
 31
0.0
  0
LINE
  5
AE
330
1B3
100
AcDbEntity
  8
1
 62
     7
100
AcDbLine
 10
80.44072377799833
 20
-4.721439935031496
 30
0.0
 11
77.44072377799835
 21
-4.721439935031496
 31
0.0
  0
LINE
  5
AF
330
1B3
100
AcDbEntity
  8
1
 62
     7
100
AcDbLine
 10
80.44072377799833
 20
46.57856006496849
 30
0.0
 11
80.44072377799833
 21
44.77856006496849
 31
0.0
  0
LINE
  5
B0
330
1B3
100
AcDbEntity
  8
1
 62
     7
100
AcDbLine
 10
77.44072377799835
 20
46.57856006496849
 30
0.0
 11
80.44072377799833
 21
46.57856006496849
 31
0.0
  0
LINE
  5
B1
330
1B3
100
AcDbEntity
  8
1
 62
     7
100
AcDbLine
 10
80.74072377799835
 20
39.92856006496849
 30
0.0
 11
83.34072377799834
 21
39.92856006496849
 31
0.0
  0
LINE
  5
B2
330
1B3
100
AcDbEntity
  8
1
 62
     7
100
AcDbLine
 10
83.34072377799834
 20
39.92856006496849
 30
0.0
 11
83.3407237779984
 21
42.92856006496849
 31
0.0
  0
LINE
  5
B3
330
1B3
100
AcDbEntity
  8
1
 62
     7
100
AcDbLine
 10
83.3407237779984
 20
42.92856006496849
 30
0.0
 11
91.69072377799835
 21
42.92856006496849
 31
0.0
  0
LINE
  5
B4
330
1B3
100
AcDbEntity
  8
1
 62
     7
100
AcDbLine
 10
91.69072377799835
 20
42.92856006496849
 30
0.0
 11
91.69072377799835
 21
33.92856006496851
 31
0.0
  0
LINE
  5
B5
330
1B3
100
AcDbEntity
  8
1
 62
     7
100
AcDbLine
 10
91.69072377799835
 20
-1.071439935031492
 30
0.0
 11
83.3407237779984
 21
-1.071439935031492
 31
0.0
  0
LINE
  5
B6
330
1B3
100
AcDbEntity
  8
1
 62
     7
100
AcDbLine
 10
83.3407237779984
 20
-1.071439935031492
 30
0.0
 11
83.3407237779984
 21
1.928560064968508
 31
0.0
  0
LINE
  5
B7
330
1B3
100
AcDbEntity
  8
1
 62
     7
100
AcDbLine
 10
83.3407237779984
 20
1.928560064968508
 30
0.0
 11
80.74072377799835
 21
1.928560064968508
 31
0.0
  0
LINE
  5
B8
330
1B3
100
AcDbEntity
  8
1
 62
     7
100
AcDbLine
 10
91.69072377799835
 20
33.92856006496851
 30
0.0
 11
88.69072377799836
 21
33.92856006496851
 31
0.0
  0
LINE
  5
B9
330
1B3
100
AcDbEntity
  8
1
 62
     7
100
AcDbLine
 10
88.69072377799836
 20
7.928560064968507
 30
0.0
 11
91.69072377799835
 21
7.928560064968507
 31
0.0
  0
LINE
  5
BA
330
1B3
100
AcDbEntity
  8
1
 62
     7
100
AcDbLine
 10
80.74072377799835
 20
29.4285600649685
 30
0.0
 11
87.69072377799835
 21
29.4285600649685
 31
0.0
  0
LINE
  5
BB
330
1B3
100
AcDbEntity
  8
1
 62
     7
100
AcDbLine
 10
80.74072377799835
 20
12.42856006496851
 30
0.0
 11
87.69072377799835
 21
12.42856006496851
 31
0.0
  0
LINE
  5
BC
330
1B3
100
AcDbEntity
  8
1
 62
     7
100
AcDbLine
 10
88.69072377799836
 20
30.42856006496851
 30
0.0
 11
87.69072377799835
 21
29.4285600649685
 31
0.0
  0
LINE
  5
BD
330
1B3
100
AcDbEntity
  8
1
 62
     7
100
AcDbLine
 10
88.69072377799836
 20
33.92856006496851
 30
0.0
 11
88.69072377799836
 21
25.9285600649685
 31
0.0
  0
LINE
  5
BE
330
1B3
100
AcDbEntity
  8
1
 62
     7
100
AcDbLine
 10
87.69072377799835
 20
12.42856006496851
 30
0.0
 11
88.69072377799836
 21
11.4285600649685
 31
0.0
  0
LINE
  5
BF
330
1B3
100
AcDbEntity
  8
1
 62
     7
100
AcDbLine
 10
87.69072377799835
 20
29.4285600649685
 30
0.0
 11
87.69072377799835
 21
28.9285600649685
 31
0.0
  0
LINE
  5
C0
330
1B3
100
AcDbEntity
  8
1
 62
     3
100
AcDbLine
 10
91.69072377799835
 20
41.92856006496849
 30
0.0
 11
83.3407237779984
 21
41.92856006496849
 31
0.0
  0
LINE
  5
C1
330
1B3
100
AcDbEntity
  8
1
 62
     3
100
AcDbLine
 10
91.69072377799835
 20
37.92856006496851
 30
0.0
 11
80.74072377799835
 21
37.92856006496851
 31
0.0
  0
LINE
  5
C2
330
1B3
100
AcDbEntity
  8
1
  6
CENTER
 62
     3
100
AcDbLine
 10
93.88072377799835
 20
39.92856006496849
 30
0.0
 11
83.34072377799834
 21
39.92856006496849
 31
0.0
  0
LINE
  5
C3
330
1B3
100
AcDbEntity
  8
1
 62
     7
100
AcDbLine
 10
91.69072377799835
 20
41.52856006496849
 30
0.0
 11
83.3407237779984
 21
41.52856006496849
 31
0.0
  0
LINE
  5
C4
330
1B3
100
AcDbEntity
  8
1
 62
     7
100
AcDbLine
 10
91.69072377799835
 20
38.32856006496849
 30
0.0
 11
80.74072377799835
 21
38.32856006496849
 31
0.0
  0
LINE
  5
C5
330
1B3
100
AcDbEntity
  8
1
 62
     7
100
AcDbLine
 10
79.46169945224905
 20
12.42856006496851
 30
0.0
 11
80.14072377799834
 21
12.42856006496851
 31
0.0
  0
LINE
  5
C6
330
1B3
100
AcDbEntity
  8
1
 62
     7
100
AcDbLine
 10
79.46169945224905
 20
5.428560064968507
 30
0.0
 11
80.14072377799834
 21
5.428560064968507
 31
0.0
  0
LINE
  5
C7
330
1B3
100
AcDbEntity
  8
1
 62
     7
100
AcDbLine
 10
80.44072377799833
 20
10.92856006496851
 30
0.0
 11
80.74072377799835
 21
10.92856006496851
 31
0.0
  0
LINE
  5
C8
330
1B3
100
AcDbEntity
  8
1
 62
     7
100
AcDbLine
 10
84.84072377799838
 20
10.92856006496851
 30
0.0
 11
85.44072377799833
 21
10.32856006496849
 31
0.0
  0
LINE
  5
C9
330
1B3
100
AcDbEntity
  8
1
 62
     7
100
AcDbLine
 10
85.44072377799833
 20
10.32856006496849
 30
0.0
 11
85.44072377799833
 21
7.528560064968502
 31
0.0
  0
LINE
  5
CA
330
1B3
100
AcDbEntity
  8
1
 62
     7
100
AcDbLine
 10
85.44072377799833
 20
7.528560064968502
 30
0.0
 11
84.84072377799838
 21
6.928560064968507
 31
0.0
  0
LINE
  5
CB
330
1B3
100
AcDbEntity
  8
1
 62
     7
100
AcDbLine
 10
84.84072377799838
 20
6.928560064968507
 30
0.0
 11
80.74072377799835
 21
6.928560064968507
 31
0.0
  0
LINE
  5
CC
330
1B3
100
AcDbEntity
  8
1
 62
     7
100
AcDbLine
 10
84.84072377799838
 20
10.92856006496851
 30
0.0
 11
84.84072377799838
 21
6.928560064968507
 31
0.0
  0
LINE
  5
CD
330
1B3
100
AcDbEntity
  8
1
 62
     7
100
AcDbLine
 10
81.97995426253971
 20
10.92856006496851
 30
0.0
 11
81.97995426253971
 21
6.928560064968507
 31
0.0
  0
LINE
  5
CE
330
1B3
100
AcDbEntity
  8
1
 62
     3
100
AcDbLine
 10
85.44072377799833
 20
10.32856006496849
 30
0.0
 11
81.97995426253971
 21
10.32856006496849
 31
0.0
  0
LINE
  5
CF
330
1B3
100
AcDbEntity
  8
1
 62
     3
100
AcDbLine
 10
81.97995426253971
 20
10.32856006496849
 30
0.0
 11
80.94072377799834
 21
10.92856006496851
 31
0.0
  0
LINE
  5
D0
330
1B3
100
AcDbEntity
  8
1
 62
     3
100
AcDbLine
 10
85.44072377799833
 20
7.528560064968502
 30
0.0
 11
81.97995426253971
 21
7.528560064968502
 31
0.0
  0
LINE
  5
D1
330
1B3
100
AcDbEntity
  8
1
 62
     3
100
AcDbLine
 10
81.97995426253971
 20
7.528560064968502
 30
0.0
 11
80.94072377799834
 21
6.928560064968507
 31
0.0
  0
LINE
  5
D2
330
1B3
100
AcDbEntity
  8
1
 62
     7
100
AcDbLine
 10
80.74072377799835
 20
10.92856006496851
 30
0.0
 11
80.74072377799835
 21
12.92856006496849
 31
0.0
  0
LINE
  5
D3
330
1B3
100
AcDbEntity
  8
1
 62
     7
100
AcDbLine
 10
80.74072377799835
 20
10.92856006496851
 30
0.0
 11
84.84072377799838
 21
10.92856006496851
 31
0.0
  0
LINE
  5
D4
330
1B3
100
AcDbEntity
  8
1
 62
     7
100
AcDbLine
 10
80.74072377799835
 20
6.928560064968507
 30
0.0
 11
80.44072377799833
 21
6.928560064968507
 31
0.0
  0
LINE
  5
D5
330
1B3
100
AcDbEntity
  8
1
 62
     7
100
AcDbLine
 10
87.34072377799838
 20
10.32856006496849
 30
0.0
 11
85.44072377799833
 21
10.32856006496849
 31
0.0
  0
LINE
  5
D6
330
1B3
100
AcDbEntity
  8
1
 62
     7
100
AcDbLine
 10
87.34072377799838
 20
10.32856006496849
 30
0.0
 11
87.34072377799838
 21
7.528560064968502
 31
0.0
  0
LINE
  5
D7
330
1B3
100
AcDbEntity
  8
1
 62
     7
100
AcDbLine
 10
87.34072377799838
 20
10.32856006496849
 30
0.0
 11
88.2644842087018
 21
8.928560064968506
 31
0.0
  0
LINE
  5
D8
330
1B3
100
AcDbEntity
  8
1
 62
     7
100
AcDbLine
 10
88.2644842087018
 20
8.928560064968506
 30
0.0
 11
87.34072377799838
 21
7.528560064968502
 31
0.0
  0
LINE
  5
D9
330
1B3
100
AcDbEntity
  8
1
 62
     7
100
AcDbLine
 10
85.44072377799833
 20
7.528560064968502
 30
0.0
 11
87.34072377799838
 21
7.528560064968502
 31
0.0
  0
LINE
  5
DA
330
1B3
100
AcDbEntity
  8
1
  6
DASHDOT
 62
     3
100
AcDbLine
 10
91.69072377799835
 20
20.92856006496849
 30
0.0
 11
95.69072377799836
 21
20.92856006496849
 31
0.0
  0
LINE
  5
DB
330
1B3
100
AcDbEntity
  8
1
 62
     7
100
AcDbLine
 10
-11.52086538389686
 20
42.92856006496849
 30
0.0
 11
-11.52086538389686
 21
-1.071439935031492
 31
0.0
  0
LINE
  5
DC
330
1B3
100
AcDbEntity
  8
1
 62
     7
100
AcDbLine
 10
-19.87086538389685
 20
-1.071439935031492
 30
0.0
 11
-11.52086538389686
 21
-1.071439935031492
 31
0.0
  0
LINE
  5
DD
330
1B3
100
AcDbEntity
  8
1
 62
     7
100
AcDbLine
 10
-22.47086538389687
 20
1.928560064968508
 30
0.0
 11
-19.87086538389685
 21
1.928560064968508
 31
0.0
  0
LINE
  5
DE
330
1B3
100
AcDbEntity
  8
1
 62
     7
100
AcDbLine
 10
-19.87086538389685
 20
39.92856006496849
 30
0.0
 11
-22.47086538389687
 21
39.92856006496849
 31
0.0
  0
LINE
  5
DF
330
1B3
100
AcDbEntity
  8
1
 62
     7
100
AcDbLine
 10
-11.52086538389686
 20
42.92856006496849
 30
0.0
 11
-19.87086538389685
 21
42.92856006496849
 31
0.0
  0
LINE
  5
E0
330
1B3
100
AcDbEntity
  8
1
 62
     7
100
AcDbLine
 10
-22.47086538389687
 20
-4.071439935031491
 30
0.0
 11
-22.77086538389687
 21
-4.071439935031491
 31
0.0
  0
LINE
  5
E1
330
1B3
100
AcDbEntity
  8
1
 62
     7
100
AcDbLine
 10
-22.47086538389687
 20
45.9285600649685
 30
0.0
 11
-22.47086538389687
 21
-4.071439935031491
 31
0.0
  0
LINE
  5
E2
330
1B3
100
AcDbEntity
  8
1
 62
     7
100
AcDbLine
 10
-22.77086538389687
 20
45.9285600649685
 30
0.0
 11
-22.47086538389687
 21
45.9285600649685
 31
0.0
  0
LINE
  5
E3
330
1B3
100
AcDbEntity
  8
1
 62
     7
100
AcDbLine
 10
-21.67086538389687
 20
45.32856006496849
 30
0.0
 11
-21.67086538389687
 21
41.32856006496849
 31
0.0
  0
LINE
  5
E4
330
1B3
100
AcDbEntity
  8
1
 62
     7
100
AcDbLine
 10
-22.47086538389687
 20
45.32856006496849
 30
0.0
 11
-21.67086538389687
 21
45.32856006496849
 31
0.0
  0
LINE
  5
E5
330
1B3
100
AcDbEntity
  8
1
 62
     7
100
AcDbLine
 10
-22.47086538389687
 20
41.32856006496849
 30
0.0
 11
-21.67086538389687
 21
41.32856006496849
 31
0.0
  0
LINE
  5
E6
330
1B3
100
AcDbEntity
  8
1
 62
     7
100
AcDbLine
 10
-22.77086538389687
 20
-4.721439935031496
 30
0.0
 11
-25.77086538389687
 21
-4.721439935031496
 31
0.0
  0
LINE
  5
E7
330
1B3
100
AcDbEntity
  8
1
 62
     7
100
AcDbLine
 10
-22.77086538389687
 20
46.57856006496849
 30
0.0
 11
-22.77086538389687
 21
-4.721439935031496
 31
0.0
  0
LINE
  5
E8
330
1B3
100
AcDbEntity
  8
1
 62
     7
100
AcDbLine
 10
-25.77086538389687
 20
46.57856006496849
 30
0.0
 11
-22.77086538389687
 21
46.57856006496849
 31
0.0
  0
LINE
  5
E9
330
1B3
100
AcDbEntity
  8
1
 62
     7
100
AcDbLine
 10
-25.77086538389687
 20
46.57856006496849
 30
0.0
 11
-25.77086538389687
 21
-4.721439935031496
 31
0.0
  0
LINE
  5
EA
330
1B3
100
AcDbEntity
  8
1
 62
     7
100
AcDbLine
 10
-19.87086538389685
 20
-1.071439935031492
 30
0.0
 11
-19.87086538389685
 21
42.92856006496849
 31
0.0
  0
LINE
  5
EB
330
1B3
100
AcDbEntity
  8
1
 62
     7
100
AcDbLine
 10
-21.67086538389687
 20
11.72856006496848
 30
0.0
 11
-21.67086538389687
 21
7.72856006496849
 31
0.0
  0
LINE
  5
EC
330
1B3
100
AcDbEntity
  8
1
 62
     7
100
AcDbLine
 10
-21.67086538389687
 20
11.72856006496848
 30
0.0
 11
-22.47086538389687
 21
11.72856006496848
 31
0.0
  0
LINE
  5
ED
330
1B3
100
AcDbEntity
  8
1
 62
     7
100
AcDbLine
 10
-21.67086538389687
 20
7.72856006496849
 30
0.0
 11
-22.47086538389687
 21
7.72856006496849
 31
0.0
  0
LINE
  5
EE
330
1B3
100
AcDbEntity
  8
1
 62
     7
100
AcDbLine
 10
-30.02086538389687
 20
-3.071439935031491
 30
0.0
 11
-30.52086538389688
 21
-3.071439935031491
 31
0.0
  0
LINE
  5
EF
330
1B3
100
AcDbEntity
  8
1
 62
     7
100
AcDbLine
 10
-29.15483998011243
 20
-4.571439935031492
 30
0.0
 11
-30.02086538389687
 21
-3.071439935031491
 31
0.0
  0
LINE
  5
F0
330
1B3
100
AcDbEntity
  8
1
 62
     7
100
AcDbLine
 10
-26.02086538389687
 20
-4.571439935031492
 30
0.0
 11
-29.15483998011243
 21
-4.571439935031492
 31
0.0
  0
LINE
  5
F1
330
1B3
100
AcDbEntity
  8
1
 62
     7
100
AcDbLine
 10
-26.02086538389687
 20
46.4285600649685
 30
0.0
 11
-26.02086538389687
 21
-4.571439935031492
 31
0.0
  0
LINE
  5
F2
330
1B3
100
AcDbEntity
  8
1
 62
     7
100
AcDbLine
 10
-29.15483998011243
 20
46.4285600649685
 30
0.0
 11
-26.02086538389687
 21
46.4285600649685
 31
0.0
  0
LINE
  5
F3
330
1B3
100
AcDbEntity
  8
1
 62
     7
100
AcDbLine
 10
-30.02086538389687
 20
44.92856006496849
 30
0.0
 11
-29.15483998011243
 21
46.4285600649685
 31
0.0
  0
LINE
  5
F4
330
1B3
100
AcDbEntity
  8
1
 62
     7
100
AcDbLine
 10
-55.02086538389685
 20
-3.071439935031491
 30
0.0
 11
-55.02086538389688
 21
65.92856006496849
 31
0.0
  0
LINE
  5
F5
330
1B3
100
AcDbEntity
  8
1
 62
     7
100
AcDbLine
 10
-53.52086538389687
 20
-4.571439935031492
 30
0.0
 11
-53.52086538389687
 21
46.4285600649685
 31
0.0
  0
LINE
  5
F6
330
1B3
100
AcDbEntity
  8
1
 62
     7
100
AcDbLine
 10
-55.02086538389688
 20
-2.872436186500833
 30
0.0
 11
-55.02086538389688
 21
-2.419555084577239
 31
0.0
  0
LINE
  5
F7
330
1B3
100
AcDbEntity
  8
1
 62
     7
100
AcDbLine
 10
-56.52086538389688
 20
65.92856006496849
 30
0.0
 11
-56.52086538389688
 21
-2.571439935031491
 31
0.0
  0
LINE
  5
F8
330
1B3
100
AcDbEntity
  8
1
 62
     7
100
AcDbLine
 10
-55.02086538389688
 20
-2.571439935031491
 30
0.0
 11
-56.52086538389688
 21
-2.571439935031491
 31
0.0
  0
LINE
  5
F9
330
1B3
100
AcDbEntity
  8
1
 62
     7
100
AcDbLine
 10
-56.52086538389688
 20
65.92856006496849
 30
0.0
 11
-55.02086538389688
 21
65.92856006496849
 31
0.0
  0
LINE
  5
FA
330
1B3
100
AcDbEntity
  8
1
 62
     7
100
AcDbLine
 10
-55.02086538389685
 20
44.92856006496849
 30
0.0
 11
-53.52086538389687
 21
46.4285600649685
 31
0.0
  0
LINE
  5
FB
330
1B3
100
AcDbEntity
  8
1
 62
     7
100
AcDbLine
 10
-53.52086538389687
 20
-4.571439935031492
 30
0.0
 11
-55.02086538389685
 21
-3.071439935031491
 31
0.0
  0
LINE
  5
FC
330
1B3
100
AcDbEntity
  8
1
 62
     7
100
AcDbLine
 10
-53.52086538389687
 20
-4.571439935031492
 30
0.0
 11
-30.52086538389688
 21
-4.571439935031492
 31
0.0
  0
LINE
  5
FD
330
1B3
100
AcDbEntity
  8
1
 62
     7
100
AcDbLine
 10
-51.02086538389685
 20
47.42856006496849
 30
0.0
 11
-51.52086538389685
 21
46.9285600649685
 31
0.0
  0
LINE
  5
FE
330
1B3
100
AcDbEntity
  8
1
 62
     7
100
AcDbLine
 10
-51.52086538389685
 20
46.9285600649685
 30
0.0
 11
-51.52086538389685
 21
46.4285600649685
 31
0.0
  0
LINE
  5
FF
330
1B3
100
AcDbEntity
  8
1
 62
     7
100
AcDbLine
 10
-45.52086538389688
 20
46.4285600649685
 30
0.0
 11
-45.52086538389688
 21
46.9285600649685
 31
0.0
  0
LINE
  5
100
330
1B3
100
AcDbEntity
  8
1
 62
     7
100
AcDbLine
 10
-45.52086538389688
 20
46.9285600649685
 30
0.0
 11
-46.02086538389688
 21
47.42856006496849
 31
0.0
  0
LINE
  5
101
330
1B3
100
AcDbEntity
  8
1
 62
     7
100
AcDbLine
 10
-53.52086538389687
 20
46.4285600649685
 30
0.0
 11
-30.52086538389688
 21
46.4285600649685
 31
0.0
  0
LINE
  5
102
330
1B3
100
AcDbEntity
  8
1
 62
     7
100
AcDbLine
 10
-51.02086538389685
 20
47.42856006496849
 30
0.0
 11
-46.02086538389688
 21
47.42856006496849
 31
0.0
  0
LINE
  5
103
330
1B3
100
AcDbEntity
  8
1
 62
     7
100
AcDbLine
 10
-49.44086538389687
 20
71.71019400179075
 30
0.0
 11
-49.44086538389687
 21
47.42856006496849
 31
0.0
  0
LINE
  5
104
330
1B3
100
AcDbEntity
  8
1
 62
     7
100
AcDbLine
 10
-47.60086538389685
 20
71.71019400179075
 30
0.0
 11
-47.60086538389685
 21
47.42856006496849
 31
0.0
  0
LINE
  5
105
330
1B3
100
AcDbEntity
  8
1
  6
DASHDOT
 62
     3
100
AcDbLine
 10
-11.52086538389686
 20
20.92856006496851
 30
0.0
 11
-7.520865383896866
 21
20.92856006496851
 31
0.0
  0
LINE
  5
106
330
1B3
100
AcDbEntity
  8
1
  6
DASHDOT
 62
     3
100
AcDbLine
 10
-56.52086538389688
 20
20.92856006496851
 30
0.0
 11
-60.5208653838969
 21
20.92856006496851
 31
0.0
  0
LINE
  5
107
330
1B3
100
AcDbEntity
  8
1
 62
     7
100
AcDbLine
 10
-30.52086538389688
 20
44.92856006496849
 30
0.0
 11
-30.02086538389687
 21
44.92856006496849
 31
0.0
  0
LINE
  5
108
330
1B3
100
AcDbEntity
  8
1
 62
     7
100
AcDbLine
 10
-30.52086538389688
 20
46.4285600649685
 30
0.0
 11
-30.52086538389688
 21
-4.571439935031492
 31
0.0
  0
LINE
  5
109
330
1B3
100
AcDbEntity
  8
1
 62
     7
100
AcDbLine
 10
-30.02086538389687
 20
44.92856006496849
 30
0.0
 11
-30.02086538389687
 21
-3.071439935031491
 31
0.0
  0
LINE
  5
10A
330
1B3
100
AcDbEntity
  8
1
 62
     7
100
AcDbLine
 10
-29.15483998011243
 20
46.4285600649685
 30
0.0
 11
-29.15483998011243
 21
-4.571439935031492
 31
0.0
  0
LINE
  5
10B
330
1B3
100
AcDbEntity
  8
1
  6
DASHDOT
 62
     3
100
AcDbLine
 10
-137.1067269652874
 20
20.92856006496849
 30
0.0
 11
-131.4624670562182
 21
20.92856006496849
 31
0.0
  0
LINE
  5
10C
330
1B3
100
AcDbEntity
  8
1
  6
DASHDOT
 62
     3
100
AcDbLine
 10
-134.2845970107528
 20
23.75069001950316
 30
0.0
 11
-134.2845970107528
 21
18.10643011043384
 31
0.0
  0
LINE
  5
10D
330
1B3
100
AcDbEntity
  8
1
 62
     7
100
AcDbLine
 10
-142.9206052263416
 20
46.04936741864017
 30
0.0
 11
-149.5411936832466
 21
70.75773991581349
 31
0.0
  0
LINE
  5
10E
330
1B3
100
AcDbEntity
  8
1
 62
     7
100
AcDbLine
 10
-141.1433017059696
 20
46.5255944616288
 30
0.0
 11
-147.7638901628746
 21
71.23396695880214
 31
0.0
  0
LINE
  5
10F
330
1B3
100
AcDbEntity
  8
1
 62
     7
100
AcDbLine
 10
-139.3659981855978
 20
47.00182150461745
 30
0.0
 11
-145.9865866425028
 21
71.71019400179075
 31
0.0
  0
LINE
  5
110
330
1B3
100
AcDbEntity
  8
1
 62
     7
100
AcDbLine
 10
-143.5581162716923
 20
45.87854684887251
 30
0.0
 11
-139.2845970107528
 21
47.02363288368009
 31
0.0
  0
LINE
  5
111
330
1B3
100
AcDbEntity
  8
1
 62
     7
100
AcDbLine
 10
-143.5581162716923
 20
45.87854684887251
 30
0.0
 11
-143.9116696622857
 21
45.26617441317671
 31
0.0
  0
LINE
  5
112
330
1B3
100
AcDbEntity
  8
1
 62
     7
100
AcDbLine
 10
-143.7364270459866
 20
44.61216006549743
 30
0.0
 11
-143.9116696622857
 21
45.26617441317671
 31
0.0
  0
LINE
  5
113
330
1B3
100
AcDbEntity
  8
1
 62
     7
100
AcDbLine
 10
-139.2845970107528
 20
64.92856006496849
 30
0.0
 11
-139.2845970107528
 21
45.44895973544694
 31
0.0
  0
LINE
  5
114
330
1B3
100
AcDbEntity
  8
1
 62
     7
100
AcDbLine
 10
-130.2845970107528
 20
65.92856006496849
 30
0.0
 11
-138.2845970107528
 21
65.92856006496849
 31
0.0
  0
LINE
  5
115
330
1B3
100
AcDbEntity
  8
1
 62
     7
100
AcDbLine
 10
-129.2845970107528
 20
64.92856006496849
 30
0.0
 11
-129.2845970107528
 21
45.44895973544694
 31
0.0
  0
LINE
  5
116
330
1B3
100
AcDbEntity
  8
1
 62
     7
100
AcDbLine
 10
-132.1845970107528
 20
61.57856006496849
 30
0.0
 11
-132.1845970107528
 21
56.27856006496848
 31
0.0
  0
LINE
  5
117
330
1B3
100
AcDbEntity
  8
1
 62
     7
100
AcDbLine
 10
-136.3845970107529
 20
61.57856006496849
 30
0.0
 11
-136.3845970107529
 21
56.27856006496848
 31
0.0
  0
LINE
  5
118
330
1B3
100
AcDbEntity
  8
1
 62
     7
100
AcDbLine
 10
46.69072377799832
 20
32.42856006496853
 30
0.0
 11
46.69072377799832
 21
65.92856006496849
 31
0.0
  0
LINE
  5
119
330
1B3
100
AcDbEntity
  8
1
 62
     7
100
AcDbLine
 10
46.69072377799832
 20
9.428560064968472
 30
0.0
 11
46.69072377799832
 21
32.42856006496853
 31
0.0
  0
LINE
  5
11A
330
1B3
100
AcDbEntity
  8
1
 62
     7
100
AcDbLine
 10
48.19072377799834
 20
14.96856006496849
 30
0.0
 11
48.19072377799834
 21
26.8885600649685
 31
0.0
  0
LINE
  5
11B
330
1B3
100
AcDbEntity
  8
1
 62
     7
100
AcDbLine
 10
48.19072377799834
 20
26.8885600649685
 30
0.0
 11
48.19072377799832
 21
65.92856006496849
 31
0.0
  0
LINE
  5
11C
330
1B3
100
AcDbEntity
  8
1
 62
     7
100
AcDbLine
 10
56.19072377799835
 20
26.8885600649685
 30
0.0
 11
56.19072377799835
 21
14.96856006496849
 31
0.0
  0
LINE
  5
11D
330
1B3
100
AcDbEntity
  8
1
 62
     7
100
AcDbLine
 10
56.19072377799835
 20
14.96856006496849
 30
0.0
 11
56.19072377799835
 21
8.888560064968494
 31
0.0
  0
LINE
  5
11E
330
1B3
100
AcDbEntity
  8
1
 62
     7
100
AcDbLine
 10
64.19072377799833
 20
25.9285600649685
 30
0.0
 11
64.19072377799833
 21
15.9285600649685
 31
0.0
  0
LINE
  5
11F
330
1B3
100
AcDbEntity
  8
1
 62
     7
100
AcDbLine
 10
64.19072377799833
 20
15.9285600649685
 30
0.0
 11
64.19072377799834
 21
7.328560064968491
 31
0.0
  0
LINE
  5
120
330
1B3
100
AcDbEntity
  8
1
 62
     7
100
AcDbLine
 10
88.69072377799836
 20
25.9285600649685
 30
0.0
 11
88.69072377799836
 21
15.9285600649685
 31
0.0
  0
LINE
  5
121
330
1B3
100
AcDbEntity
  8
1
 62
     7
100
AcDbLine
 10
88.69072377799836
 20
15.9285600649685
 30
0.0
 11
88.69072377799836
 21
7.928560064968507
 31
0.0
  0
LINE
  5
122
330
1B3
100
AcDbEntity
  8
1
 62
     7
100
AcDbLine
 10
91.69072377799835
 20
33.92856006496851
 30
0.0
 11
91.69072377799835
 21
7.928560064968507
 31
0.0
  0
LINE
  5
123
330
1B3
100
AcDbEntity
  8
1
 62
     7
100
AcDbLine
 10
91.69072377799835
 20
7.928560064968507
 30
0.0
 11
91.69072377799835
 21
-1.071439935031492
 31
0.0
  0
LINE
  5
124
330
1B3
100
AcDbEntity
  8
1
 62
     3
100
AcDbLine
 10
54.69072377799834
 20
71.71019400179075
 30
0.0
 11
54.69072377799834
 21
74.67099914642851
 31
0.0
  0
LINE
  5
125
330
1B3
100
AcDbEntity
  8
1
 62
     3
100
AcDbLine
 10
-48.91086538389686
 20
71.71019400179075
 30
0.0
 11
-48.91086538389686
 21
74.67099914642851
 31
0.0
  0
LINE
  5
126
330
1B3
100
AcDbEntity
  8
1
 62
     3
100
AcDbLine
 10
-48.13086538389685
 20
74.67099914642851
 30
0.0
 11
-48.13086538389685
 21
71.71019400179075
 31
0.0
  0
LINE
  5
127
330
1B3
100
AcDbEntity
  8
1
 62
     7
100
AcDbLine
 10
-49.44086538389687
 20
71.71019400179075
 30
0.0
 11
-47.60086538389685
 21
71.71019400179075
 31
0.0
  0
LINE
  5
128
330
1B3
100
AcDbEntity
  8
1
 62
     3
100
AcDbLine
 10
-48.52086538389685
 20
71.71019400179075
 30
0.0
 11
-48.52086538389685
 21
74.67099914642851
 31
0.0
  0
LINE
  5
129
330
1B3
100
AcDbEntity
  8
1
 62
     3
100
AcDbLine
 10
-149.0292529953134
 20
70.89491400971779
 30
0.0
 11
-149.7955657555831
 21
73.75483216553297
 31
0.0
  0
LINE
  5
12A
330
1B3
100
AcDbEntity
  8
1
 62
     3
100
AcDbLine
 10
-149.0421436110776
 20
73.95671102071296
 30
0.0
 11
-148.2758308508078
 21
71.09679286489778
 31
0.0
  0
LINE
  5
12B
330
1B3
100
AcDbEntity
  8
1
 62
     3
100
AcDbLine
 10
-148.6525419230606
 20
70.9958534373078
 30
0.0
 11
-149.4188546833304
 21
73.85577159312294
 31
0.0
  0
LINE
  5
12C
330
1B3
100
AcDbEntity
  8
1
 62
     3
100
AcDbLine
 10
-147.2519494749415
 20
71.37114105270645
 30
0.0
 11
-148.0182622352113
 21
74.23105920852163
 31
0.0
  0
LINE
  5
12D
330
1B3
100
AcDbEntity
  8
1
 62
     3
100
AcDbLine
 10
-147.2648400907057
 20
74.43293806370158
 30
0.0
 11
-146.498527330436
 21
71.57301990788643
 31
0.0
  0
LINE
  5
12E
330
1B3
100
AcDbEntity
  8
1
 62
     7
100
AcDbLine
 10
-145.9865866425028
 20
71.71019400179075
 30
0.0
 11
-149.5411936832466
 21
70.75773991581349
 31
0.0
  0
LINE
  5
12F
330
1B3
100
AcDbEntity
  8
1
 62
     3
100
AcDbLine
 10
-146.8752384026888
 20
71.47208048029646
 30
0.0
 11
-147.6415511629585
 21
74.33199863611159
 31
0.0
  0
LINE
  5
130
330
1B3
100
AcDbEntity
  8
1
 62
     3
100
AcDbLine
 10
184.9654241496845
 20
73.75483216553297
 30
0.0
 11
184.1991113894148
 21
70.89491400971779
 31
0.0
  0
LINE
  5
131
330
1B3
100
AcDbEntity
  8
1
 62
     3
100
AcDbLine
 10
183.4456892449093
 20
71.09679286489776
 30
0.0
 11
184.2120020051791
 21
73.95671102071294
 31
0.0
  0
LINE
  5
132
330
1B3
100
AcDbEntity
  8
1
 62
     3
100
AcDbLine
 10
184.5887130774318
 20
73.85577159312294
 30
0.0
 11
183.822400317162
 21
70.9958534373078
 31
0.0
  0
LINE
  5
133
330
1B3
100
AcDbEntity
  8
1
 62
     3
100
AcDbLine
 10
183.1881206293125
 20
74.23105920852163
 30
0.0
 11
182.4218078690428
 21
71.37114105270645
 31
0.0
  0
LINE
  5
134
330
1B3
100
AcDbEntity
  8
1
 62
     3
100
AcDbLine
 10
181.6683857245373
 20
71.57301990788642
 30
0.0
 11
182.4346984848071
 21
74.43293806370158
 31
0.0
  0
LINE
  5
135
330
1B3
100
AcDbEntity
  8
1
 62
     7
100
AcDbLine
 10
184.7110520773478
 20
70.75773991581349
 30
0.0
 11
181.1564450366041
 21
71.71019400179075
 31
0.0
  0
LINE
  5
136
330
1B3
100
AcDbEntity
  8
1
 62
     3
100
AcDbLine
 10
182.8114095570597
 20
74.33199863611159
 30
0.0
 11
182.04509679679
 21
71.47208048029646
 31
0.0
  0
ARC
  5
137
330
1B3
100
AcDbEntity
  8
1
 62
     7
100
AcDbCircle
 10
76.69072377799834
 20
29.4285600649685
 30
0.0
 40
0.5
100
AcDbArc
 50
180.0
 51
270.0
  0
ARC
  5
138
330
1B3
100
AcDbEntity
  8
1
 62
     7
100
AcDbCircle
 10
76.69072377799834
 20
36.6785600649685
 30
0.0
 40
0.5
100
AcDbArc
 50
90.0
 51
180.0
  0
ARC
  5
139
330
1B3
100
AcDbEntity
  8
1
 62
     7
100
AcDbCircle
 10
63.23072377799834
 20
26.8885600649685
 30
0.0
 40
0.9600000000000008
100
AcDbArc
 50
270.0
 51
0.0
  0
ARC
  5
13A
330
1B3
100
AcDbEntity
  8
1
 62
     7
100
AcDbCircle
 10
57.15072377799835
 20
32.9685600649685
 30
0.0
 40
0.9600000000000008
100
AcDbArc
 50
90.0
 51
180.0
  0
ARC
  5
13B
330
1B3
100
AcDbEntity
  8
1
 62
     7
100
AcDbCircle
 10
63.23072377799834
 20
32.9685600649685
 30
0.0
 40
0.9600000000000008
100
AcDbArc
 50
0.0
 51
90.0
  0
ARC
  5
13C
330
1B3
100
AcDbEntity
  8
1
 62
     7
100
AcDbCircle
 10
57.15072377799835
 20
26.8885600649685
 30
0.0
 40
0.9599999999999937
100
AcDbArc
 50
180.0
 51
270.0
  0
ARC
  5
13D
330
1B3
100
AcDbEntity
  8
1
 62
     7
100
AcDbCircle
 10
55.23072377799834
 20
26.8885600649685
 30
0.0
 40
0.9600000000000008
100
AcDbArc
 50
270.0
 51
0.0
  0
ARC
  5
13E
330
1B3
100
AcDbEntity
  8
1
 62
     7
100
AcDbCircle
 10
49.15072377799834
 20
32.9685600649685
 30
0.0
 40
0.9600000000000008
100
AcDbArc
 50
90.0
 51
180.0
  0
ARC
  5
13F
330
1B3
100
AcDbEntity
  8
1
 62
     7
100
AcDbCircle
 10
55.23072377799834
 20
32.9685600649685
 30
0.0
 40
0.9600000000000008
100
AcDbArc
 50
0.0
 51
90.0
  0
ARC
  5
140
330
1B3
100
AcDbEntity
  8
1
 62
     7
100
AcDbCircle
 10
49.15072377799834
 20
26.8885600649685
 30
0.0
 40
0.9599999999999937
100
AcDbArc
 50
180.0
 51
270.0
  0
ARC
  5
141
330
1B3
100
AcDbEntity
  8
1
 62
     7
100
AcDbCircle
 10
165.4544554048543
 20
64.92856006496849
 30
0.0
 40
1.0
100
AcDbArc
 50
90.0
 51
180.0
  0
ARC
  5
142
330
1B3
100
AcDbEntity
  8
1
 62
     7
100
AcDbCircle
 10
173.4544554048543
 20
64.92856006496849
 30
0.0
 40
1.0
100
AcDbArc
 50
0.0
 51
90.0
  0
ARC
  5
143
330
1B3
100
AcDbEntity
  8
1
 62
     7
100
AcDbCircle
 10
76.69072377799834
 20
12.42856006496849
 30
0.0
 40
0.5
100
AcDbArc
 50
90.0
 51
180.0
  0
ARC
  5
144
330
1B3
100
AcDbEntity
  8
1
 62
     7
100
AcDbCircle
 10
76.69072377799834
 20
5.178560064968491
 30
0.0
 40
0.5
100
AcDbArc
 50
180.0
 51
270.0
  0
ARC
  5
145
330
1B3
100
AcDbEntity
  8
1
 62
     7
100
AcDbCircle
 10
63.23072377799834
 20
14.96856006496849
 30
0.0
 40
0.9600000000000008
100
AcDbArc
 50
0.0
 51
90.0
  0
ARC
  5
146
330
1B3
100
AcDbEntity
  8
1
 62
     7
100
AcDbCircle
 10
57.15072377799835
 20
8.888560064968494
 30
0.0
 40
0.9599999999999937
100
AcDbArc
 50
180.0
 51
270.0
  0
ARC
  5
147
330
1B3
100
AcDbEntity
  8
1
 62
     7
100
AcDbCircle
 10
63.23072377799834
 20
8.888560064968494
 30
0.0
 40
0.9600000000000008
100
AcDbArc
 50
270.0
 51
0.0
  0
ARC
  5
148
330
1B3
100
AcDbEntity
  8
1
 62
     7
100
AcDbCircle
 10
57.15072377799835
 20
14.96856006496849
 30
0.0
 40
0.9600000000000116
100
AcDbArc
 50
90.0
 51
180.0
  0
ARC
  5
149
330
1B3
100
AcDbEntity
  8
1
 62
     7
100
AcDbCircle
 10
55.23072377799834
 20
14.96856006496849
 30
0.0
 40
0.9600000000000008
100
AcDbArc
 50
0.0
 51
90.0
  0
ARC
  5
14A
330
1B3
100
AcDbEntity
  8
1
 62
     7
100
AcDbCircle
 10
49.15072377799834
 20
8.888560064968494
 30
0.0
 40
0.9599999999999937
100
AcDbArc
 50
180.0
 51
270.0
  0
ARC
  5
14B
330
1B3
100
AcDbEntity
  8
1
 62
     7
100
AcDbCircle
 10
55.23072377799834
 20
8.888560064968494
 30
0.0
 40
0.9600000000000008
100
AcDbArc
 50
270.0
 51
0.0
  0
ARC
  5
14C
330
1B3
100
AcDbEntity
  8
1
 62
     7
100
AcDbCircle
 10
49.15072377799834
 20
14.96856006496849
 30
0.0
 40
0.9600000000000116
100
AcDbArc
 50
90.0
 51
180.0
  0
ARC
  5
14D
330
1B3
100
AcDbEntity
  8
1
 62
     7
100
AcDbCircle
 10
79.46169945224905
 20
11.1285600649685
 30
0.0
 40
1.30000000000001
100
AcDbArc
 50
90.0
 51
163.3984504009795
  0
ARC
  5
14E
330
1B3
100
AcDbEntity
  8
1
 62
     7
100
AcDbCircle
 10
79.46169945224905
 20
6.72856006496849
 30
0.0
 40
1.299999999999932
100
AcDbArc
 50
196.6015495990206
 51
270.0
  0
ARC
  5
14F
330
1B3
100
AcDbEntity
  8
1
 62
     7
100
AcDbCircle
 10
80.14072377799834
 20
12.1285600649685
 30
0.0
 40
0.3000000000000114
100
AcDbArc
 50
0.0
 51
90.0
  0
ARC
  5
150
330
1B3
100
AcDbEntity
  8
1
 62
     7
100
AcDbCircle
 10
80.14072377799834
 20
5.72856006496849
 30
0.0
 40
0.299999999999983
100
AcDbArc
 50
270.0
 51
0.0
  0
ARC
  5
151
330
1B3
100
AcDbEntity
  8
1
 62
     7
100
AcDbCircle
 10
-130.2845970107528
 20
64.92856006496849
 30
0.0
 40
1.0
100
AcDbArc
 50
0.0
 51
90.0
  0
ARC
  5
152
330
1B3
100
AcDbEntity
  8
1
 62
     7
100
AcDbCircle
 10
-138.2845970107528
 20
64.92856006496849
 30
0.0
 40
1.0
100
AcDbArc
 50
90.0
 51
180.0
  0
ARC
  5
153
330
1B3
100
AcDbEntity
  8
1
 62
     7
100
AcDbCircle
 10
-127.2845970107528
 20
45.44895973544694
 30
0.0
 40
1.999999999999984
100
AcDbArc
 50
180.0
 51
254.0671961847134
  0
ARC
  5
154
330
1B3
100
AcDbEntity
  8
1
 62
     7
100
AcDbCircle
 10
-141.2845970107528
 20
45.44895973544694
 30
0.0
 40
1.999999999999984
100
AcDbArc
 50
285.9328038152865
 51
0.0
  0
ARC
  5
155
330
1B3
100
AcDbEntity
  8
1
  6
DASHDOT
 62
     3
100
AcDbCircle
 10
169.4544554048543
 20
20.92856006496849
 30
0.0
 40
18.99999999999997
100
AcDbArc
 50
201.3803407796276
 51
218.6196592203721
  0
ARC
  5
156
330
1B3
100
AcDbEntity
  8
1
  6
DASHDOT
 62
     3
100
AcDbCircle
 10
169.4544554048543
 20
20.92856006496849
 30
0.0
 40
18.99999999999997
100
AcDbArc
 50
81.38034077962755
 51
98.61965922037205
  0
ARC
  5
157
330
1B3
100
AcDbEntity
  8
1
  6
DASHDOT
 62
     3
100
AcDbCircle
 10
169.4544554048543
 20
20.92856006496849
 30
0.0
 40
18.99999999999996
100
AcDbArc
 50
321.3803407796276
 51
338.6196592203722
  0
ARC
  5
158
330
1B3
100
AcDbEntity
  8
1
 62
     7
100
AcDbCircle
 10
60.19072377799834
 20
29.9285600649685
 30
0.0
 40
2.399999999999999
100
AcDbArc
 50
239.9999999999999
 51
300.0
  0
ARC
  5
159
330
1B3
100
AcDbEntity
  8
1
 62
     7
100
AcDbCircle
 10
60.19072377799834
 20
29.9285600649685
 30
0.0
 40
2.400000000000003
100
AcDbArc
 50
119.9999999999999
 51
239.9999999999999
  0
ARC
  5
15A
330
1B3
100
AcDbEntity
  8
1
 62
     7
100
AcDbCircle
 10
60.19072377799834
 20
29.9285600649685
 30
0.0
 40
2.400000000000003
100
AcDbArc
 50
300.0
 51
59.99999999999983
  0
ARC
  5
15B
330
1B3
100
AcDbEntity
  8
1
 62
     7
100
AcDbCircle
 10
60.19072377799834
 20
29.9285600649685
 30
0.0
 40
2.400000000000007
100
AcDbArc
 50
59.99999999999983
 51
119.9999999999999
  0
ARC
  5
15C
330
1B3
100
AcDbEntity
  8
1
 62
     7
100
AcDbCircle
 10
52.19072377799834
 20
29.9285600649685
 30
0.0
 40
2.399999999999999
100
AcDbArc
 50
239.9999999999999
 51
300.0
  0
ARC
  5
15D
330
1B3
100
AcDbEntity
  8
1
 62
     7
100
AcDbCircle
 10
52.19072377799834
 20
29.9285600649685
 30
0.0
 40
2.400000000000003
100
AcDbArc
 50
119.9999999999999
 51
239.9999999999999
  0
ARC
  5
15E
330
1B3
100
AcDbEntity
  8
1
 62
     7
100
AcDbCircle
 10
52.19072377799834
 20
29.9285600649685
 30
0.0
 40
2.400000000000003
100
AcDbArc
 50
300.0
 51
59.99999999999983
  0
ARC
  5
15F
330
1B3
100
AcDbEntity
  8
1
 62
     7
100
AcDbCircle
 10
52.19072377799834
 20
29.9285600649685
 30
0.0
 40
2.400000000000007
100
AcDbArc
 50
59.99999999999983
 51
119.9999999999999
  0
ARC
  5
160
330
1B3
100
AcDbEntity
  8
1
 62
     7
100
AcDbCircle
 10
169.4544554048543
 20
56.27856006496848
 30
0.0
 40
2.09999999999988
100
AcDbArc
 50
180.0
 51
270.0
  0
ARC
  5
161
330
1B3
100
AcDbEntity
  8
1
 62
     7
100
AcDbCircle
 10
169.4544554048543
 20
61.57856006496849
 30
0.0
 40
2.100000000000108
100
AcDbArc
 50
0.0
 51
90.0
  0
ARC
  5
162
330
1B3
100
AcDbEntity
  8
1
 62
     7
100
AcDbCircle
 10
169.4544554048543
 20
56.27856006496848
 30
0.0
 40
2.09999999999988
100
AcDbArc
 50
270.0
 51
0.0
  0
ARC
  5
163
330
1B3
100
AcDbEntity
  8
1
 62
     7
100
AcDbCircle
 10
169.4544554048543
 20
61.57856006496849
 30
0.0
 40
2.100000000000108
100
AcDbArc
 50
90.0
 51
180.0
  0
ARC
  5
164
330
1B3
100
AcDbEntity
  8
1
 62
     7
100
AcDbCircle
 10
188.8534244496256
 20
9.728560064968483
 30
0.0
 40
2.000000000000007
100
AcDbArc
 50
225.9447671797731
 51
60.0000000000001
  0
ARC
  5
165
330
1B3
100
AcDbEntity
  8
1
 62
     7
100
AcDbCircle
 10
188.8534244496256
 20
9.728560064968483
 30
0.0
 40
2.000000000000006
100
AcDbArc
 50
60.0000000000001
 51
74.05523282022385
  0
ARC
  5
166
330
1B3
100
AcDbEntity
  8
1
 62
     7
100
AcDbCircle
 10
169.4544554048543
 20
43.32856006496849
 30
0.0
 40
2.000000000000011
100
AcDbArc
 50
345.9447671797743
 51
180.0
  0
ARC
  5
167
330
1B3
100
AcDbEntity
  8
1
 62
     7
100
AcDbCircle
 10
169.4544554048543
 20
43.32856006496849
 30
0.0
 40
2.0
100
AcDbArc
 50
180.0
 51
194.0552328202258
  0
ARC
  5
168
330
1B3
100
AcDbEntity
  8
1
 62
     7
100
AcDbCircle
 10
150.0554863600829
 20
9.728560064968498
 30
0.0
 40
2.000000000000035
100
AcDbArc
 50
105.944767179776
 51
299.9999999999994
  0
ARC
  5
169
330
1B3
100
AcDbEntity
  8
1
 62
     7
100
AcDbCircle
 10
150.0554863600829
 20
9.728560064968498
 30
0.0
 40
2.000000000000034
100
AcDbArc
 50
299.9999999999994
 51
314.0552328202272
  0
ARC
  5
16A
330
1B3
100
AcDbEntity
  8
1
 62
     7
100
AcDbCircle
 10
60.19072377799834
 20
11.92856006496848
 30
0.0
 40
2.40000000000001
100
AcDbArc
 50
59.99999999999985
 51
119.9999999999999
  0
ARC
  5
16B
330
1B3
100
AcDbEntity
  8
1
 62
     7
100
AcDbCircle
 10
60.19072377799834
 20
11.92856006496848
 30
0.0
 40
2.400000000000007
100
AcDbArc
 50
119.9999999999999
 51
239.9999999999999
  0
ARC
  5
16C
330
1B3
100
AcDbEntity
  8
1
 62
     7
100
AcDbCircle
 10
60.19072377799834
 20
11.92856006496848
 30
0.0
 40
2.400000000000003
100
AcDbArc
 50
300.0
 51
59.99999999999985
  0
ARC
  5
16D
330
1B3
100
AcDbEntity
  8
1
 62
     7
100
AcDbCircle
 10
60.19072377799834
 20
11.92856006496848
 30
0.0
 40
2.399999999999999
100
AcDbArc
 50
239.9999999999999
 51
300.0
  0
ARC
  5
16E
330
1B3
100
AcDbEntity
  8
1
 62
     7
100
AcDbCircle
 10
52.19072377799834
 20
11.92856006496848
 30
0.0
 40
2.40000000000001
100
AcDbArc
 50
59.99999999999985
 51
119.9999999999999
  0
ARC
  5
16F
330
1B3
100
AcDbEntity
  8
1
 62
     7
100
AcDbCircle
 10
52.19072377799834
 20
11.92856006496848
 30
0.0
 40
2.400000000000007
100
AcDbArc
 50
119.9999999999999
 51
239.9999999999999
  0
ARC
  5
170
330
1B3
100
AcDbEntity
  8
1
 62
     7
100
AcDbCircle
 10
52.19072377799834
 20
11.92856006496848
 30
0.0
 40
2.400000000000003
100
AcDbArc
 50
300.0
 51
59.99999999999985
  0
ARC
  5
171
330
1B3
100
AcDbEntity
  8
1
 62
     7
100
AcDbCircle
 10
52.19072377799834
 20
11.92856006496848
 30
0.0
 40
2.399999999999999
100
AcDbArc
 50
239.9999999999999
 51
300.0
  0
ARC
  5
172
330
1B3
100
AcDbEntity
  8
1
 62
     7
100
AcDbCircle
 10
86.84072377799838
 20
8.928560064968506
 30
0.0
 40
9.000000000000053
100
AcDbArc
 50
163.3984504009799
 51
196.6015495990203
  0
ARC
  5
173
330
1B3
100
AcDbEntity
  8
1
 62
     7
100
AcDbCircle
 10
-134.2845970107528
 20
20.92856006496849
 30
0.0
 40
25.50000000000001
100
AcDbArc
 50
101.3077294341373
 51
78.69227056586265
  0
ARC
  5
174
330
1B3
100
AcDbEntity
  8
1
 62
     7
100
AcDbCircle
 10
-134.2845970107528
 20
20.92856006496849
 30
0.0
 40
25.00000000000001
100
AcDbArc
 50
101.5373403570647
 51
0.0
  0
ARC
  5
175
330
1B3
100
AcDbEntity
  8
1
 62
     7
100
AcDbCircle
 10
-134.2845970107528
 20
20.92856006496849
 30
0.0
 40
24.99999999999999
100
AcDbArc
 50
0.0
 51
78.46265964293536
  0
ARC
  5
176
330
1B3
100
AcDbEntity
  8
1
 62
     7
100
AcDbCircle
 10
-134.2845970107528
 20
61.57856006496849
 30
0.0
 40
2.099999999999985
100
AcDbArc
 50
90.0
 51
180.0
  0
ARC
  5
177
330
1B3
100
AcDbEntity
  8
1
 62
     7
100
AcDbCircle
 10
-134.2845970107528
 20
56.27856006496848
 30
0.0
 40
2.100000000000015
100
AcDbArc
 50
270.0
 51
0.0
  0
ARC
  5
178
330
1B3
100
AcDbEntity
  8
1
 62
     7
100
AcDbCircle
 10
-134.2845970107528
 20
20.92856006496849
 30
0.0
 40
23.49999999999999
100
AcDbArc
 50
0.0
 51
74.06719618471227
  0
ARC
  5
179
330
1B3
100
AcDbEntity
  8
1
 62
     7
100
AcDbCircle
 10
-134.2845970107528
 20
20.92856006496849
 30
0.0
 40
23.5
100
AcDbArc
 50
105.9328038152878
 51
0.0
  0
ARC
  5
17A
330
1B3
100
AcDbEntity
  8
1
 62
     7
100
AcDbCircle
 10
-134.2845970107528
 20
61.57856006496849
 30
0.0
 40
2.099999999999992
100
AcDbArc
 50
0.0
 51
90.0
  0
ARC
  5
17B
330
1B3
100
AcDbEntity
  8
1
 62
     7
100
AcDbCircle
 10
-134.2845970107528
 20
56.27856006496848
 30
0.0
 40
2.100000000000023
100
AcDbArc
 50
180.0
 51
270.0
  0
CIRCLE
  5
17C
330
1B3
100
AcDbEntity
  8
1
 62
     7
100
AcDbCircle
 10
152.99997273295
 20
11.42856006496851
 30
0.0
 40
1.600000000000108
  0
CIRCLE
  5
17D
330
1B3
100
AcDbEntity
  8
1
 62
     3
100
AcDbCircle
 10
152.99997273295
 20
11.42856006496851
 30
0.0
 40
2.0
  0
CIRCLE
  5
17E
330
1B3
100
AcDbEntity
  8
1
 62
     7
100
AcDbCircle
 10
169.4544554048543
 20
39.92856006496849
 30
0.0
 40
1.600000000000023
  0
CIRCLE
  5
17F
330
1B3
100
AcDbEntity
  8
1
 62
     3
100
AcDbCircle
 10
169.4544554048543
 20
39.92856006496849
 30
0.0
 40
2.0
  0
CIRCLE
  5
180
330
1B3
100
AcDbEntity
  8
1
 62
     7
100
AcDbCircle
 10
169.4544554048543
 20
20.92856006496849
 30
0.0
 40
25.65000000000001
  0
CIRCLE
  5
181
330
1B3
100
AcDbEntity
  8
1
 62
     7
100
AcDbCircle
 10
169.4544554048543
 20
20.92856006496849
 30
0.0
 40
25.0
  0
CIRCLE
  5
182
330
1B3
100
AcDbEntity
  8
1
 62
     7
100
AcDbCircle
 10
169.4544554048543
 20
20.92856006496849
 30
0.0
 40
8.5
  0
CIRCLE
  5
183
330
1B3
100
AcDbEntity
  8
1
 62
     7
100
AcDbCircle
 10
169.4544554048543
 20
20.92856006496849
 30
0.0
 40
22.0
  0
CIRCLE
  5
184
330
1B3
100
AcDbEntity
  8
1
 62
     7
100
AcDbCircle
 10
169.4544554048543
 20
20.92856006496849
 30
0.0
 40
13.0
  0
CIRCLE
  5
185
330
1B3
100
AcDbEntity
  8
1
 62
     7
100
AcDbCircle
 10
169.4544554048543
 20
20.92856006496849
 30
0.0
 40
9.5
  0
CIRCLE
  5
186
330
1B3
100
AcDbEntity
  8
1
 62
     7
100
AcDbCircle
 10
185.9089380767584
 20
11.42856006496849
 30
0.0
 40
1.599999999999994
  0
CIRCLE
  5
187
330
1B3
100
AcDbEntity
  8
1
 62
     3
100
AcDbCircle
 10
185.9089380767584
 20
11.42856006496849
 30
0.0
 40
2.0
  0
CIRCLE
  5
188
330
1B3
100
AcDbEntity
  8
1
 62
     7
100
AcDbCircle
 10
169.4544554048543
 20
20.92856006496849
 30
0.0
 40
5.0
  0
CIRCLE
  5
189
330
1B3
100
AcDbEntity
  8
1
 62
     7
100
AcDbCircle
 10
-134.2845970107528
 20
20.92856006496849
 30
0.0
 40
5.0
  0
CIRCLE
  5
18A
330
1B3
100
AcDbEntity
  8
1
 62
     7
100
AcDbCircle
 10
-134.2845970107528
 20
20.92856006496849
 30
0.0
 40
11.49999999999999
  0
TEXT
  5
18C
330
1B3
100
AcDbEntity
  8
1
 62
     7
100
AcDbText
 10
-142.1112477744714
 20
101.2843727888522
 30
0.0
 40
4.5
  1
AMC 20
 41
0.9
  7
SIMPLEX
100
AcDbText
  0
ENDSEC
  0
SECTION
  2
OBJECTS
  0
DICTIONARY
  5
19F
330
0
100
AcDbDictionary
281
     1
  3
ACAD_COLOR
350
1AE
  3
ACAD_GROUP
350
1A0
  3
ACAD_LAYOUT
350
1AC
  3
ACAD_MATERIAL
350
1AD
  3
ACAD_MLINESTYLE
350
1A9
  3
ACAD_PLOTSETTINGS
350
1AB
  3
ACAD_PLOTSTYLENAME
350
1A1
  0
DICTIONARY
  5
1AE
102
{ACAD_REACTORS
330
19F
102
}
330
19F
100
AcDbDictionary
281
     1
  0
DICTIONARY
  5
1A0
102
{ACAD_REACTORS
330
19F
102
}
330
19F
100
AcDbDictionary
281
     1
  0
DICTIONARY
  5
1AC
102
{ACAD_REACTORS
330
19F
102
}
330
19F
100
AcDbDictionary
281
     1
  3
Layout1
350
1B2
  3
Model
350
1B6
  0
DICTIONARY
  5
1AD
102
{ACAD_REACTORS
330
19F
102
}
330
19F
100
AcDbDictionary
281
     1
  0
DICTIONARY
  5
1A9
102
{ACAD_REACTORS
330
19F
102
}
330
19F
100
AcDbDictionary
281
     1
  3
Standard
350
1AA
  0
DICTIONARY
  5
1AB
102
{ACAD_REACTORS
330
19F
102
}
330
19F
100
AcDbDictionary
281
     1
  0
ACDBDICTIONARYWDFLT
  5
1A1
102
{ACAD_REACTORS
330
19F
102
}
330
19F
100
AcDbDictionary
281
     1
  3
Normal
350
1A2
100
AcDbDictionaryWithDefault
340
1A2
  0
LAYOUT
  5
1B2
102
{ACAD_REACTORS
330
1AC
102
}
330
1AC
100
AcDbPlotSettings
  1

  2
\\Ogura1\HP Color LaserJet 4600 PCL 5c
  4

  6

 40
0.0
 41
0.0
 42
0.0
 43
0.0
 44
0.0
 45
0.0
 46
0.0
 47
0.0
 48
0.0
 49
0.0
140
0.0
141
0.0
142
1.0
143
1.0
 70
   688
 72
     0
 73
     0
 74
     5
  7

 75
    16
147
1.0
 76
     0
 77
     2
 78
   300
148
0.0
149
0.0
100
AcDbLayout
  1
Layout1
 70
     1
 71
     1
 10
0.0
 20
0.0
 11
12.0
 21
9.0
 12
0.0
 22
0.0
 32
0.0
 14
1.000000000000000E+20
 24
1.000000000000000E+20
 34
1.000000000000000E+20
 15
-1.000000000000000E+20
 25
-1.000000000000000E+20
 35
-1.000000000000000E+20
146
0.0
 13
0.0
 23
0.0
 33
0.0
 16
1.0
 26
0.0
 36
0.0
 17
0.0
 27
1.0
 37
0.0
 76
     0
330
1AF
  0
LAYOUT
  5
1B6
102
{ACAD_REACTORS
330
1AC
102
}
330
1AC
100
AcDbPlotSettings
  1

  2
\\Ogura1\HP Color LaserJet 4600 PCL 5c
  4

  6

 40
0.0
 41
0.0
 42
0.0
 43
0.0
 44
0.0
 45
0.0
 46
0.0
 47
0.0
 48
0.0
 49
0.0
140
0.0
141
0.0
142
1.0
143
1.0
 70
  1712
 72
     0
 73
     0
 74
     0
  7

 75
     0
147
1.0
 76
     0
 77
     2
 78
   300
148
0.0
149
0.0
100
AcDbLayout
  1
Model
 70
     1
 71
     0
 10
0.0
 20
0.0
 11
12.0
 21
9.0
 12
0.0
 22
0.0
 32
0.0
 14
0.0
 24
0.0
 34
0.0
 15
0.0
 25
0.0
 35
0.0
146
0.0
 13
0.0
 23
0.0
 33
0.0
 16
1.0
 26
0.0
 36
0.0
 17
0.0
 27
1.0
 37
0.0
 76
     0
330
1B3
  0
MLINESTYLE
  5
1AA
102
{ACAD_REACTORS
330
1A9
102
}
330
1A9
100
AcDbMlineStyle
  2
STANDARD
 70
     0
  3

 62
   256
 51
90.0
 52
90.0
 71
     2
 49
0.5
 62
   256
  6
BYLAYER
 49
-0.5
 62
   256
  6
BYLAYER
  0
ACDBPLACEHOLDER
  5
1A2
102
{ACAD_REACTORS
330
1A1
102
}
330
1A1
  0
ENDSEC
  0
EOF
