  0
SECTION
  2
HEADER
  9
$ACADVER
  1
AC1018
  9
$ACADMAINTVER
 70
     0
  9
$DWGCODEPAGE
  3
ANSI_932
  9
$INSBASE
 10
0.0
 20
0.0
 30
0.0
  9
$EXTMIN
 10
-69.88234251606854
 20
19.8304774221169
 30
-0.0015258207003583
  9
$EXTMAX
 10
263.3799299986284
 20
129.3281161908762
 30
0.0000000349246037
  9
$LIMMIN
 10
-69.87217355521991
 20
19.83381856599516
  9
$LIMMAX
 10
263.3697594860011
 20
129.3247745371409
  9
$ORTHOMODE
 70
     0
  9
$REGENMODE
 70
     1
  9
$FILLMODE
 70
     1
  9
$QTEXTMODE
 70
     0
  9
$MIRRTEXT
 70
     1
  9
$LTSCALE
 40
1.0
  9
$ATTMODE
 70
     1
  9
$TEXTSIZE
 40
3.5
  9
$TRACEWID
 40
0.5
  9
$TEXTSTYLE
  7
STANDARD
  9
$CLAYER
  8
0
  9
$CELTYPE
  6
ByLayer
  9
$CECOLOR
 62
   256
  9
$CELTSCALE
 40
1.0
  9
$DISPSILH
 70
     0
  9
$DIMSCALE
 40
1.0
  9
$DIMASZ
 40
0.18
  9
$DIMEXO
 40
0.0625
  9
$DIMDLI
 40
0.38
  9
$DIMRND
 40
0.0
  9
$DIMDLE
 40
0.0
  9
$DIMEXE
 40
0.18
  9
$DIMTP
 40
0.0
  9
$DIMTM
 40
0.0
  9
$DIMTXT
 40
0.18
  9
$DIMCEN
 40
0.09
  9
$DIMTSZ
 40
0.0
  9
$DIMTOL
 70
     0
  9
$DIMLIM
 70
     0
  9
$DIMTIH
 70
     1
  9
$DIMTOH
 70
     1
  9
$DIMSE1
 70
     0
  9
$DIMSE2
 70
     0
  9
$DIMTAD
 70
     0
  9
$DIMZIN
 70
     0
  9
$DIMBLK
  1

  9
$DIMASO
 70
     1
  9
$DIMSHO
 70
     1
  9
$DIMPOST
  1

  9
$DIMAPOST
  1

  9
$DIMALT
 70
     0
  9
$DIMALTD
 70
     2
  9
$DIMALTF
 40
25.4
  9
$DIMLFAC
 40
1.0
  9
$DIMTOFL
 70
     0
  9
$DIMTVP
 40
0.0
  9
$DIMTIX
 70
     0
  9
$DIMSOXD
 70
     0
  9
$DIMSAH
 70
     0
  9
$DIMBLK1
  1

  9
$DIMBLK2
  1

  9
$DIMSTYLE
  2
STANDARD
  9
$DIMCLRD
 70
     0
  9
$DIMCLRE
 70
     0
  9
$DIMCLRT
 70
     0
  9
$DIMTFAC
 40
1.0
  9
$DIMGAP
 40
0.09
  9
$DIMJUST
 70
     0
  9
$DIMSD1
 70
     0
  9
$DIMSD2
 70
     0
  9
$DIMTOLJ
 70
     1
  9
$DIMTZIN
 70
     0
  9
$DIMALTZ
 70
     0
  9
$DIMALTTZ
 70
     0
  9
$DIMUPT
 70
     0
  9
$DIMDEC
 70
     4
  9
$DIMTDEC
 70
     4
  9
$DIMALTU
 70
     2
  9
$DIMALTTD
 70
     2
  9
$DIMTXSTY
  7
STANDARD
  9
$DIMAUNIT
 70
     0
  9
$DIMADEC
 70
     0
  9
$DIMALTRND
 40
0.0
  9
$DIMAZIN
 70
     0
  9
$DIMDSEP
 70
    46
  9
$DIMATFIT
 70
     3
  9
$DIMFRAC
 70
     0
  9
$DIMLDRBLK
  1

  9
$DIMLUNIT
 70
     2
  9
$DIMLWD
 70
    -2
  9
$DIMLWE
 70
    -2
  9
$DIMTMOVE
 70
     0
  9
$LUNITS
 70
     2
  9
$LUPREC
 70
     4
  9
$SKETCHINC
 40
0.1
  9
$FILLETRAD
 40
2.0
  9
$AUNITS
 70
     0
  9
$AUPREC
 70
     0
  9
$MENU
  1
ACAD
  9
$ELEVATION
 40
0.0
  9
$PELEVATION
 40
0.0
  9
$THICKNESS
 40
0.0
  9
$LIMCHECK
 70
     0
  9
$CHAMFERA
 40
0.0
  9
$CHAMFERB
 40
0.0
  9
$CHAMFERC
 40
0.0
  9
$CHAMFERD
 40
0.0
  9
$SKPOLY
 70
     0
  9
$TDCREATE
 40
2452093.881060185
  9
$TDUCREATE
 40
2452094.047726852
  9
$TDUPDATE
 40
2453209.435621030
  9
$TDUUPDATE
 40
2453209.602287697
  9
$TDINDWG
 40
0.0088813542
  9
$TDUSRTIMER
 40
0.0088813542
  9
$USRTIMER
 70
     1
  9
$ANGBASE
 50
0.0
  9
$ANGDIR
 70
     0
  9
$PDMODE
 70
     0
  9
$PDSIZE
 40
0.0
  9
$PLINEWID
 40
0.0
  9
$SPLFRAME
 70
     0
  9
$SPLINETYPE
 70
     6
  9
$SPLINESEGS
 70
     8
  9
$HANDSEED
  5
1CF
  9
$SURFTAB1
 70
     6
  9
$SURFTAB2
 70
     6
  9
$SURFTYPE
 70
     6
  9
$SURFU
 70
     6
  9
$SURFV
 70
     6
  9
$UCSBASE
  2

  9
$UCSNAME
  2

  9
$UCSORG
 10
0.0
 20
0.0
 30
0.0
  9
$UCSXDIR
 10
1.0
 20
0.0
 30
0.0
  9
$UCSYDIR
 10
0.0
 20
1.0
 30
0.0
  9
$UCSORTHOREF
  2

  9
$UCSORTHOVIEW
 70
     0
  9
$UCSORGTOP
 10
0.0
 20
0.0
 30
0.0
  9
$UCSORGBOTTOM
 10
0.0
 20
0.0
 30
0.0
  9
$UCSORGLEFT
 10
0.0
 20
0.0
 30
0.0
  9
$UCSORGRIGHT
 10
0.0
 20
0.0
 30
0.0
  9
$UCSORGFRONT
 10
0.0
 20
0.0
 30
0.0
  9
$UCSORGBACK
 10
0.0
 20
0.0
 30
0.0
  9
$PUCSBASE
  2

  9
$PUCSNAME
  2

  9
$PUCSORG
 10
0.0
 20
0.0
 30
0.0
  9
$PUCSXDIR
 10
1.0
 20
0.0
 30
0.0
  9
$PUCSYDIR
 10
0.0
 20
1.0
 30
0.0
  9
$PUCSORTHOREF
  2

  9
$PUCSORTHOVIEW
 70
     0
  9
$PUCSORGTOP
 10
0.0
 20
0.0
 30
0.0
  9
$PUCSORGBOTTOM
 10
0.0
 20
0.0
 30
0.0
  9
$PUCSORGLEFT
 10
0.0
 20
0.0
 30
0.0
  9
$PUCSORGRIGHT
 10
0.0
 20
0.0
 30
0.0
  9
$PUCSORGFRONT
 10
0.0
 20
0.0
 30
0.0
  9
$PUCSORGBACK
 10
0.0
 20
0.0
 30
0.0
  9
$USERI1
 70
     0
  9
$USERI2
 70
     0
  9
$USERI3
 70
     0
  9
$USERI4
 70
     0
  9
$USERI5
 70
     0
  9
$USERR1
 40
0.0
  9
$USERR2
 40
0.0
  9
$USERR3
 40
0.0
  9
$USERR4
 40
0.0
  9
$USERR5
 40
0.0
  9
$WORLDVIEW
 70
     1
  9
$SHADEDGE
 70
     3
  9
$SHADEDIF
 70
    70
  9
$TILEMODE
 70
     1
  9
$MAXACTVP
 70
    64
  9
$PINSBASE
 10
0.0
 20
0.0
 30
0.0
  9
$PLIMCHECK
 70
     0
  9
$PEXTMIN
 10
1.000000000000000E+20
 20
1.000000000000000E+20
 30
1.000000000000000E+20
  9
$PEXTMAX
 10
-1.000000000000000E+20
 20
-1.000000000000000E+20
 30
-1.000000000000000E+20
  9
$PLIMMIN
 10
0.0
 20
0.0
  9
$PLIMMAX
 10
12.0
 20
9.0
  9
$UNITMODE
 70
     0
  9
$VISRETAIN
 70
     1
  9
$PLINEGEN
 70
     0
  9
$PSLTSCALE
 70
     1
  9
$TREEDEPTH
 70
  3020
  9
$CMLSTYLE
  2
Standard
  9
$CMLJUST
 70
     0
  9
$CMLSCALE
 40
1.0
  9
$PROXYGRAPHICS
 70
     1
  9
$MEASUREMENT
 70
     0
  9
$CELWEIGHT
370
    -1
  9
$ENDCAPS
280
     0
  9
$JOINSTYLE
280
     0
  9
$LWDISPLAY
290
     0
  9
$INSUNITS
 70
     0
  9
$HYPERLINKBASE
  1

  9
$STYLESHEET
  1

  9
$XEDIT
290
     1
  9
$CEPSNTYPE
380
     0
  9
$PSTYLEMODE
290
     1
  9
$FINGERPRINTGUID
  2
{EE634ED6-6D85-4DD7-A8C3-2F3C57CFB6B0}
  9
$VERSIONGUID
  2
{24349437-EEAB-45E7-9CA3-0AF6047E9516}
  9
$EXTNAMES
290
     1
  9
$PSVPSCALE
 40
0.0
  9
$OLESTARTUP
290
     0
  9
$SORTENTS
280
   127
  9
$INDEXCTL
280
     0
  9
$HIDETEXT
280
     0
  9
$XCLIPFRAME
290
     0
  9
$HALOGAP
280
     0
  9
$OBSCOLOR
 70
   257
  9
$OBSLTYPE
280
     0
  9
$INTERSECTIONDISPLAY
280
     0
  9
$INTERSECTIONCOLOR
 70
   257
  9
$DIMASSOC
280
     1
  9
$PROJECTNAME
  1

  0
ENDSEC
  0
SECTION
  2
CLASSES
  0
CLASS
  1
ACDBDICTIONARYWDFLT
  2
AcDbDictionaryWithDefault
  3
ObjectDBX Classes
 90
        0
 91
        1
280
     0
281
     0
  0
ENDSEC
  0
SECTION
  2
TABLES
  0
TABLE
  2
VPORT
  5
19C
330
0
100
AcDbSymbolTable
 70
     2
  0
VPORT
  5
1CE
330
19C
100
AcDbSymbolTableRecord
100
AcDbViewportTableRecord
  2
*Active
 70
     0
 10
0.0
 20
0.0
 11
1.0
 21
1.0
 12
96.74879374127996
 22
74.57929680649653
 13
0.0
 23
0.0
 14
1.0
 24
1.0
 15
0.0
 25
0.0
 16
0.0
 26
0.0
 36
1.0
 17
0.0
 27
0.0
 37
0.0
 40
206.223174620831
 41
1.625
 42
50.0
 43
0.0
 44
0.0
 50
0.0
 51
0.0
 71
     0
 72
   100
 73
     1
 74
     1
 75
     0
 76
     0
 77
     0
 78
     0
281
     0
 65
     1
110
0.0
120
0.0
130
0.0
111
1.0
121
0.0
131
0.0
112
0.0
122
1.0
132
0.0
 79
     0
146
0.0
  0
ENDTAB
  0
TABLE
  2
LTYPE
  5
199
330
0
100
AcDbSymbolTable
 70
     9
  0
LTYPE
  5
1A7
330
199
100
AcDbSymbolTableRecord
100
AcDbLinetypeTableRecord
  2
ByBlock
 70
     0
  3

 72
    65
 73
     0
 40
0.0
  0
LTYPE
  5
1A8
330
199
100
AcDbSymbolTableRecord
100
AcDbLinetypeTableRecord
  2
ByLayer
 70
     0
  3

 72
    65
 73
     0
 40
0.0
  0
LTYPE
  5
1A9
330
199
100
AcDbSymbolTableRecord
100
AcDbLinetypeTableRecord
  2
CONTINUOUS
 70
     0
  3
Solid line
 72
    65
 73
     0
 40
0.0
  0
LTYPE
  5
1B9
330
199
100
AcDbSymbolTableRecord
100
AcDbLinetypeTableRecord
  2
BORDER
 70
     0
  3
__ __ . __ __ .
 72
    65
 73
     6
 40
15.3466679690036
 49
4.384762276858171
 74
     0
 49
-2.192381138429086
 74
     0
 49
4.384762276858171
 74
     0
 49
-2.192381138429086
 74
     0
 49
0.0
 74
     0
 49
-2.192381138429086
 74
     0
  0
LTYPE
  5
1BA
330
199
100
AcDbSymbolTableRecord
100
AcDbLinetypeTableRecord
  2
CENTER
 70
     0
  3
____ _ ____ _
 72
    65
 73
     4
 40
17.53904910743268
 49
10.96190569214542
 74
     0
 49
-2.192381138429086
 74
     0
 49
2.192381138429086
 74
     0
 49
-2.192381138429086
 74
     0
  0
LTYPE
  5
1BB
330
199
100
AcDbSymbolTableRecord
100
AcDbLinetypeTableRecord
  2
DASHDOT
 70
     0
  3
__ . __ . __ .
 72
    65
 73
     4
 40
8.769524553716342
 49
4.384762276858171
 74
     0
 49
-2.192381138429086
 74
     0
 49
0.0
 74
     0
 49
-2.192381138429086
 74
     0
  0
LTYPE
  5
1BC
330
199
100
AcDbSymbolTableRecord
100
AcDbLinetypeTableRecord
  2
DASHED
 70
     0
  3
__ __ __ __ __
 72
    65
 73
     2
 40
6.577143415287257
 49
4.384762276858171
 74
     0
 49
-2.192381138429086
 74
     0
  0
LTYPE
  5
1BD
330
199
100
AcDbSymbolTableRecord
100
AcDbLinetypeTableRecord
  2
DIVIDE
 70
     0
  3
__ . . __ . . 
 72
    65
 73
     6
 40
10.96190569214542
 49
4.384762276858171
 74
     0
 49
-2.192381138429086
 74
     0
 49
0.0
 74
     0
 49
-2.192381138429086
 74
     0
 49
0.0
 74
     0
 49
-2.192381138429086
 74
     0
  0
LTYPE
  5
1BE
330
199
100
AcDbSymbolTableRecord
100
AcDbLinetypeTableRecord
  2
DOT
 70
     0
  3
..............
 72
    65
 73
     4
 40
4.384762276858171
 49
0.0
 74
     0
 49
-2.192381138429086
 74
     0
 49
0.0
 74
     0
 49
-2.192381138429086
 74
     0
  0
LTYPE
  5
1BF
330
199
100
AcDbSymbolTableRecord
100
AcDbLinetypeTableRecord
  2
HIDDEN
 70
     0
  3
_ _ _ _ _ _ _
 72
    65
 73
     2
 40
3.288571707643627
 49
2.192381138429086
 74
     0
 49
-1.096190569214543
 74
     0
  0
LTYPE
  5
1C0
330
199
100
AcDbSymbolTableRecord
100
AcDbLinetypeTableRecord
  2
PHANTOM
 70
     0
  3
_____ _ _ _____ _ _ 
 72
    65
 73
     6
 40
21.92381138429086
 49
10.96190569214542
 74
     0
 49
-2.192381138429086
 74
     0
 49
2.192381138429086
 74
     0
 49
-2.192381138429086
 74
     0
 49
2.192381138429086
 74
     0
 49
-2.192381138429086
 74
     0
  0
ENDTAB
  0
TABLE
  2
LAYER
  5
196
330
0
100
AcDbSymbolTable
 70
     2
  0
LAYER
  5
1A4
330
196
100
AcDbSymbolTableRecord
100
AcDbLayerTableRecord
  2
0
 70
     0
 62
     7
  6
CONTINUOUS
370
    -3
390
1A3
  0
LAYER
  5
1C1
330
196
100
AcDbSymbolTableRecord
100
AcDbLayerTableRecord
  2
1
 70
     0
 62
     7
  6
CONTINUOUS
370
    -3
390
1A3
  0
ENDTAB
  0
TABLE
  2
STYLE
  5
197
330
0
100
AcDbSymbolTable
 70
     4
  0
STYLE
  5
1A5
330
197
100
AcDbSymbolTableRecord
100
AcDbTextStyleTableRecord
  2
STANDARD
 70
     0
 40
0.0
 41
1.0
 50
0.0
 71
     0
 42
3.5
  3
txt
  4

  0
STYLE
  5
1C2
330
197
100
AcDbSymbolTableRecord
100
AcDbTextStyleTableRecord
  2
SIMPLEX
 70
     0
 40
0.0
 41
1.0
 50
0.0
 71
     0
 42
3.5
  3
simplex
  4

  0
STYLE
  5
1C3
330
197
100
AcDbSymbolTableRecord
100
AcDbTextStyleTableRecord
  2
COMPLEX
 70
     0
 40
0.0
 41
1.0
 50
0.0
 71
     0
 42
3.5
  3
complex
  4

  0
STYLE
  5
1C4
330
197
100
AcDbSymbolTableRecord
100
AcDbTextStyleTableRecord
  2
ITALIC
 70
     0
 40
0.0
 41
1.0
 50
0.0
 71
     0
 42
3.5
  3
italic
  4

  0
ENDTAB
  0
TABLE
  2
VIEW
  5
19A
330
0
100
AcDbSymbolTable
 70
     0
  0
ENDTAB
  0
TABLE
  2
UCS
  5
19B
330
0
100
AcDbSymbolTable
 70
     0
  0
ENDTAB
  0
TABLE
  2
APPID
  5
19D
330
0
100
AcDbSymbolTable
 70
     1
  0
APPID
  5
1A6
330
19D
100
AcDbSymbolTableRecord
100
AcDbRegAppTableRecord
  2
ACAD
 70
     0
  0
ENDTAB
  0
TABLE
  2
DIMSTYLE
  5
19E
330
0
100
AcDbSymbolTable
 70
     1
100
AcDbDimStyleTable
 71
     0
  0
DIMSTYLE
105
1C5
330
19E
100
AcDbSymbolTableRecord
100
AcDbDimStyleTableRecord
  2
STANDARD
 70
     0
279
     2
340
1A5
  0
ENDTAB
  0
TABLE
  2
BLOCK_RECORD
  5
195
330
0
100
AcDbSymbolTable
 70
     2
  0
BLOCK_RECORD
  5
1B4
330
195
100
AcDbSymbolTableRecord
100
AcDbBlockTableRecord
  2
*Model_Space
340
1B7
  0
BLOCK_RECORD
  5
1B0
330
195
100
AcDbSymbolTableRecord
100
AcDbBlockTableRecord
  2
*Paper_Space
340
1B3
  0
BLOCK_RECORD
  5
1CA
330
195
100
AcDbSymbolTableRecord
100
AcDbBlockTableRecord
  2
$MODEL_SPACE
340
0
  0
BLOCK_RECORD
  5
1CC
330
195
100
AcDbSymbolTableRecord
100
AcDbBlockTableRecord
  2
$PAPER_SPACE
340
0
  0
ENDTAB
  0
ENDSEC
  0
SECTION
  2
BLOCKS
  0
BLOCK
  5
1B5
330
1B4
100
AcDbEntity
  8
0
100
AcDbBlockBegin
  2
*Model_Space
 70
     0
 10
0.0
 20
0.0
 30
0.0
  3
*Model_Space
  1

  0
ENDBLK
  5
1B6
330
1B4
100
AcDbEntity
  8
0
100
AcDbBlockEnd
  0
BLOCK
  5
1B1
330
1B0
100
AcDbEntity
 67
     1
  8
0
100
AcDbBlockBegin
  2
*Paper_Space
 70
     0
 10
0.0
 20
0.0
 30
0.0
  3
*Paper_Space
  1

  0
ENDBLK
  5
1B2
330
1B0
100
AcDbEntity
 67
     1
  8
0
100
AcDbBlockEnd
  0
BLOCK
  5
1CB
330
1CA
100
AcDbEntity
  8
0
100
AcDbBlockBegin
  2
$MODEL_SPACE
 70
     0
 10
0.0
 20
0.0
 30
0.0
  3
$MODEL_SPACE
  1

  0
ENDBLK
  5
20
330
1CA
100
AcDbEntity
  8
0
100
AcDbBlockEnd
  0
BLOCK
  5
1CD
330
1CC
100
AcDbEntity
  8
0
100
AcDbBlockBegin
  2
$PAPER_SPACE
 70
     0
 10
0.0
 20
0.0
 30
0.0
  3
$PAPER_SPACE
  1

  0
ENDBLK
  5
1C
330
1CC
100
AcDbEntity
  8
0
100
AcDbBlockEnd
  0
ENDSEC
  0
SECTION
  2
ENTITIES
  0
LINE
  5
33
330
1B4
100
AcDbEntity
  8
1
 62
     7
100
AcDbLine
 10
54.80081618315569
 20
49.98381856599525
 30
0.0
 11
54.5508161831557
 21
49.98381856599525
 31
0.0
  0
LINE
  5
34
330
1B4
100
AcDbEntity
  8
1
 62
     7
100
AcDbLine
 10
142.7676483941968
 20
38.98381856599524
 30
0.0
 11
165.0676483941968
 21
38.98381856599524
 31
0.0
  0
LINE
  5
35
330
1B4
100
AcDbEntity
  8
1
  6
DASHDOT
 62
     3
100
AcDbLine
 10
122.7676483941968
 20
42.98381856599524
 30
0.0
 11
126.7676483941968
 21
42.98381856599524
 31
0.0
  0
LINE
  5
36
330
1B4
100
AcDbEntity
  8
1
  6
DASHDOT
 62
     3
100
AcDbLine
 10
167.5676483941968
 20
42.98381856599524
 30
0.0
 11
171.5676483941968
 21
42.98381856599524
 31
0.0
  0
LINE
  5
37
330
1B4
100
AcDbEntity
  8
1
 62
     7
100
AcDbLine
 10
157.7676483941968
 20
20.48381856599521
 30
0.0
 11
157.4676483941968
 21
20.48381856599521
 31
0.0
  0
LINE
  5
38
330
1B4
100
AcDbEntity
  8
1
 62
     7
100
AcDbLine
 10
157.7676483941968
 20
20.48381856599521
 30
0.0
 11
157.7676483941968
 21
31.23381856599523
 31
0.0
  0
LINE
  5
39
330
1B4
100
AcDbEntity
  8
1
 62
     7
100
AcDbLine
 10
157.7676483941968
 20
65.48381856599522
 30
0.0
 11
157.7676483941968
 21
64.53381856599522
 31
0.0
  0
LINE
  5
3A
330
1B4
100
AcDbEntity
  8
1
 62
     7
100
AcDbLine
 10
157.4676483941968
 20
65.48381856599522
 30
0.0
 11
157.7676483941968
 21
65.48381856599522
 31
0.0
  0
LINE
  5
3B
330
1B4
100
AcDbEntity
  8
1
 62
     7
100
AcDbLine
 10
158.5676483941968
 20
65.23381856599522
 30
0.0
 11
158.5676483941968
 21
61.23381856599522
 31
0.0
  0
LINE
  5
3C
330
1B4
100
AcDbEntity
  8
1
 62
     7
100
AcDbLine
 10
157.7676483941968
 20
65.23381856599525
 30
0.0
 11
158.5676483941968
 21
65.23381856599522
 31
0.0
  0
LINE
  5
3D
330
1B4
100
AcDbEntity
  8
1
 62
     7
100
AcDbLine
 10
157.7676483941968
 20
61.23381856599522
 30
0.0
 11
158.5676483941968
 21
61.23381856599522
 31
0.0
  0
LINE
  5
3E
330
1B4
100
AcDbEntity
  8
1
 62
     7
100
AcDbLine
 10
157.4676483941968
 20
61.93381856599521
 30
0.0
 11
157.7676483941968
 21
61.93381856599526
 31
0.0
  0
LINE
  5
3F
330
1B4
100
AcDbEntity
  8
1
 62
     7
100
AcDbLine
 10
157.4676483941968
 20
64.53381856599522
 30
0.0
 11
157.7676483941968
 21
64.53381856599522
 31
0.0
  0
LINE
  5
40
330
1B4
100
AcDbEntity
  8
1
 62
     7
100
AcDbLine
 10
155.8176483941968
 20
61.73381856599521
 30
0.0
 11
155.0176483941968
 21
61.73381856599521
 31
0.0
  0
LINE
  5
41
330
1B4
100
AcDbEntity
  8
1
 62
     7
100
AcDbLine
 10
155.8176483941968
 20
64.73381856599522
 30
0.0
 11
155.8176483941968
 21
61.73381856599521
 31
0.0
  0
LINE
  5
42
330
1B4
100
AcDbEntity
  8
1
 62
     7
100
AcDbLine
 10
155.0176483941968
 20
64.73381856599522
 30
0.0
 11
155.8176483941968
 21
64.73381856599522
 31
0.0
  0
LINE
  5
43
330
1B4
100
AcDbEntity
  8
1
 62
     7
100
AcDbLine
 10
157.4676483941968
 20
61.93381856599521
 30
0.0
 11
157.4676483941968
 21
49.98381856599524
 31
0.0
  0
LINE
  5
44
330
1B4
100
AcDbEntity
  8
1
 62
     7
100
AcDbLine
 10
155.0176483941968
 20
53.23381856599521
 30
0.0
 11
157.4676483941968
 21
53.23381856599521
 31
0.0
  0
LINE
  5
45
330
1B4
100
AcDbEntity
  8
1
 62
     7
100
AcDbLine
 10
155.0176483941968
 20
29.43381856599521
 30
0.0
 11
157.4676483941968
 21
29.43381856599521
 31
0.0
  0
LINE
  5
46
330
1B4
100
AcDbEntity
  8
1
 62
     7
100
AcDbLine
 10
155.0176483941968
 20
19.8338185659952
 30
0.0
 11
155.0176483941968
 21
35.98381856599524
 31
0.0
  0
LINE
  5
47
330
1B4
100
AcDbEntity
  8
1
 62
     7
100
AcDbLine
 10
157.4676483941968
 20
19.8338185659952
 30
0.0
 11
155.0176483941968
 21
19.8338185659952
 31
0.0
  0
LINE
  5
48
330
1B4
100
AcDbEntity
  8
1
 62
     7
100
AcDbLine
 10
157.4676483941968
 20
66.13381856599524
 30
0.0
 11
157.4676483941968
 21
64.53381856599522
 31
0.0
  0
LINE
  5
49
330
1B4
100
AcDbEntity
  8
1
 62
     7
100
AcDbLine
 10
155.0176483941968
 20
66.13381856599521
 30
0.0
 11
157.4676483941968
 21
66.13381856599524
 31
0.0
  0
LINE
  5
4A
330
1B4
100
AcDbEntity
  8
1
 62
     7
100
AcDbLine
 10
167.5676483941968
 20
53.9838185659952
 30
0.0
 11
165.0676483941968
 21
53.9838185659952
 31
0.0
  0
LINE
  5
4B
330
1B4
100
AcDbEntity
  8
1
 62
     7
100
AcDbLine
 10
165.0676483941968
 20
31.98381856599521
 30
0.0
 11
167.5676483941968
 21
31.98381856599521
 31
0.0
  0
LINE
  5
4C
330
1B4
100
AcDbEntity
  8
1
 62
     7
100
AcDbLine
 10
157.7676483941968
 20
50.48381856599521
 30
0.0
 11
164.0676483941968
 21
50.48381856599521
 31
0.0
  0
LINE
  5
4D
330
1B4
100
AcDbEntity
  8
1
 62
     7
100
AcDbLine
 10
157.7676483941968
 20
35.48381856599521
 30
0.0
 11
164.0676483941968
 21
35.48381856599521
 31
0.0
  0
LINE
  5
4E
330
1B4
100
AcDbEntity
  8
1
 62
     7
100
AcDbLine
 10
165.0676483941968
 20
51.4838185659952
 30
0.0
 11
164.0676483941968
 21
50.48381856599521
 31
0.0
  0
LINE
  5
4F
330
1B4
100
AcDbEntity
  8
1
 62
     7
100
AcDbLine
 10
164.0676483941968
 20
35.48381856599521
 30
0.0
 11
165.0676483941968
 21
34.48381856599521
 31
0.0
  0
LINE
  5
50
330
1B4
100
AcDbEntity
  8
1
 62
     7
100
AcDbLine
 10
164.0676483941968
 20
50.48381856599521
 30
0.0
 11
164.0676483941968
 21
49.98381856599524
 31
0.0
  0
LINE
  5
51
330
1B4
100
AcDbEntity
  8
1
 62
     7
100
AcDbLine
 10
157.7676483941968
 20
25.48381856599521
 30
0.0
 11
167.5676483941968
 21
25.48381856599523
 31
0.0
  0
LINE
  5
52
330
1B4
100
AcDbEntity
  8
1
 62
     7
100
AcDbLine
 10
157.7676483941968
 20
61.93381856599526
 30
0.0
 11
157.7676483941968
 21
49.98381856599524
 31
0.0
  0
LINE
  5
53
330
1B4
100
AcDbEntity
  8
1
 62
     7
100
AcDbLine
 10
156.7285282525723
 20
35.48381856599521
 30
0.0
 11
157.1676483941968
 21
35.48381856599521
 31
0.0
  0
LINE
  5
54
330
1B4
100
AcDbEntity
  8
1
 62
     7
100
AcDbLine
 10
156.7285282525723
 20
29.98381856599523
 30
0.0
 11
157.1676483941968
 21
29.98381856599523
 31
0.0
  0
LINE
  5
55
330
1B4
100
AcDbEntity
  8
1
 62
     7
100
AcDbLine
 10
160.0176483941968
 20
34.23381856599521
 30
0.0
 11
160.4676483941968
 21
33.78381856599523
 31
0.0
  0
LINE
  5
56
330
1B4
100
AcDbEntity
  8
1
 62
     7
100
AcDbLine
 10
160.4676483941968
 20
33.78381856599523
 30
0.0
 11
160.4676483941968
 21
31.68381856599521
 31
0.0
  0
LINE
  5
57
330
1B4
100
AcDbEntity
  8
1
 62
     7
100
AcDbLine
 10
160.4676483941968
 20
31.68381856599521
 30
0.0
 11
160.0176483941968
 21
31.23381856599523
 31
0.0
  0
LINE
  5
58
330
1B4
100
AcDbEntity
  8
1
 62
     7
100
AcDbLine
 10
160.0176483941968
 20
34.23381856599521
 30
0.0
 11
160.0176483941968
 21
31.23381856599523
 31
0.0
  0
LINE
  5
59
330
1B4
100
AcDbEntity
  8
1
 62
     7
100
AcDbLine
 10
158.7470712576028
 20
34.23381856599521
 30
0.0
 11
158.7470712576028
 21
31.23381856599523
 31
0.0
  0
LINE
  5
5A
330
1B4
100
AcDbEntity
  8
1
 62
     3
100
AcDbLine
 10
160.4676483941968
 20
33.78381856599523
 30
0.0
 11
158.7470712576028
 21
33.78381856599523
 31
0.0
  0
LINE
  5
5B
330
1B4
100
AcDbEntity
  8
1
 62
     3
100
AcDbLine
 10
158.7470712576028
 20
33.78381856599523
 30
0.0
 11
157.9676483941968
 21
34.23381856599521
 31
0.0
  0
LINE
  5
5C
330
1B4
100
AcDbEntity
  8
1
 62
     3
100
AcDbLine
 10
160.4676483941968
 20
31.68381856599521
 30
0.0
 11
158.7470712576028
 21
31.68381856599521
 31
0.0
  0
LINE
  5
5D
330
1B4
100
AcDbEntity
  8
1
 62
     3
100
AcDbLine
 10
158.7470712576028
 20
31.68381856599521
 30
0.0
 11
157.9676483941968
 21
31.23381856599523
 31
0.0
  0
LINE
  5
5E
330
1B4
100
AcDbEntity
  8
1
 62
     7
100
AcDbLine
 10
157.4676483941968
 20
34.23381856599521
 30
0.0
 11
160.0176483941968
 21
34.23381856599521
 31
0.0
  0
LINE
  5
5F
330
1B4
100
AcDbEntity
  8
1
 62
     7
100
AcDbLine
 10
160.0176483941968
 20
31.23381856599523
 30
0.0
 11
157.4676483941968
 21
31.23381856599523
 31
0.0
  0
LINE
  5
60
330
1B4
100
AcDbEntity
  8
1
 62
     7
100
AcDbLine
 10
160.4676483941968
 20
33.78381856599523
 30
0.0
 11
162.0542509345752
 21
33.78381856599523
 31
0.0
  0
LINE
  5
61
330
1B4
100
AcDbEntity
  8
1
 62
     7
100
AcDbLine
 10
162.0542509345752
 20
33.78381856599523
 30
0.0
 11
162.6604687172242
 21
32.73381856599522
 31
0.0
  0
LINE
  5
62
330
1B4
100
AcDbEntity
  8
1
 62
     7
100
AcDbLine
 10
162.6604687172242
 20
32.73381856599522
 30
0.0
 11
162.0542509345752
 21
31.68381856599521
 31
0.0
  0
LINE
  5
63
330
1B4
100
AcDbEntity
  8
1
 62
     7
100
AcDbLine
 10
162.0542509345752
 20
31.68381856599521
 30
0.0
 11
160.4676483941968
 21
31.68381856599521
 31
0.0
  0
LINE
  5
64
330
1B4
100
AcDbEntity
  8
1
 62
     7
100
AcDbLine
 10
162.0542509345752
 20
33.78381856599523
 30
0.0
 11
162.0542509345752
 21
31.68381856599521
 31
0.0
  0
LINE
  5
65
330
1B4
100
AcDbEntity
  8
1
 62
     3
100
AcDbLine
 10
157.7676483941968
 20
56.4838185659952
 30
0.0
 11
167.5676483941968
 21
56.4838185659952
 31
0.0
  0
LINE
  5
66
330
1B4
100
AcDbEntity
  8
1
 62
     3
100
AcDbLine
 10
157.7676483941968
 20
59.48381856599521
 30
0.0
 11
167.5676483941968
 21
59.48381856599521
 31
0.0
  0
LINE
  5
67
330
1B4
100
AcDbEntity
  8
1
  6
CENTER
 62
     3
100
AcDbLine
 10
155.8176483941968
 20
57.98381856599521
 30
0.0
 11
169.5176483941968
 21
57.98381856599521
 31
0.0
  0
LINE
  5
68
330
1B4
100
AcDbEntity
  8
1
 62
     7
100
AcDbLine
 10
157.7676483941968
 20
56.78381856599521
 30
0.0
 11
167.5676483941968
 21
56.78381856599521
 31
0.0
  0
LINE
  5
69
330
1B4
100
AcDbEntity
  8
1
 62
     7
100
AcDbLine
 10
157.7676483941968
 20
59.18381856599521
 30
0.0
 11
167.5676483941968
 21
59.18381856599521
 31
0.0
  0
LINE
  5
6A
330
1B4
100
AcDbEntity
  8
1
 62
     7
100
AcDbLine
 10
167.5676483941968
 20
60.48381856599521
 30
0.0
 11
157.7676483941968
 21
60.48381856599521
 31
0.0
  0
LINE
  5
6B
330
1B4
100
AcDbEntity
  8
1
 62
     7
100
AcDbLine
 10
167.5676483941968
 20
60.48381856599521
 30
0.0
 11
167.5676483941968
 21
53.9838185659952
 31
0.0
  0
LINE
  5
6C
330
1B4
100
AcDbEntity
  8
1
 62
     7
100
AcDbLine
 10
155.0176483941968
 20
49.98381856599524
 30
0.0
 11
155.0176483941968
 21
66.13381856599521
 31
0.0
  0
LINE
  5
6D
330
1B4
100
AcDbEntity
  8
1
 62
     7
100
AcDbLine
 10
165.0676483941968
 20
31.98381856599521
 30
0.0
 11
165.0676483941968
 21
38.98381856599524
 31
0.0
  0
LINE
  5
6E
330
1B4
100
AcDbEntity
  8
1
 62
     7
100
AcDbLine
 10
157.4676483941968
 20
35.98381856599524
 30
0.0
 11
157.4676483941968
 21
19.8338185659952
 31
0.0
  0
LINE
  5
6F
330
1B4
100
AcDbEntity
  8
1
 62
     7
100
AcDbLine
 10
157.7676483941968
 20
35.98381856599524
 30
0.0
 11
157.7676483941968
 21
34.23381856599521
 31
0.0
  0
LINE
  5
70
330
1B4
100
AcDbEntity
  8
1
 62
     7
100
AcDbLine
 10
164.0676483941968
 20
35.98381856599524
 30
0.0
 11
164.0676483941968
 21
35.48381856599521
 31
0.0
  0
LINE
  5
71
330
1B4
100
AcDbEntity
  8
1
 62
     7
100
AcDbLine
 10
128.2676483941967
 20
20.98381856599524
 30
0.0
 11
128.2676483941967
 21
33.98381856599522
 31
0.0
  0
LINE
  5
72
330
1B4
100
AcDbEntity
  8
1
 62
     7
100
AcDbLine
 10
128.2676483941967
 20
22.98381856599525
 30
0.0
 11
126.7676483941968
 21
22.98381856599525
 31
0.0
  0
LINE
  5
73
330
1B4
100
AcDbEntity
  8
1
 62
     7
100
AcDbLine
 10
126.7676483941968
 20
22.98381856599525
 30
0.0
 11
126.7676483941968
 21
33.98381856599522
 31
0.0
  0
LINE
  5
74
330
1B4
100
AcDbEntity
  8
1
 62
     7
100
AcDbLine
 10
151.2676483941968
 20
21.73381856599524
 30
0.0
 11
151.2676483941968
 21
19.98381856599522
 31
0.0
  0
LINE
  5
75
330
1B4
100
AcDbEntity
  8
1
 62
     7
100
AcDbLine
 10
148.7676483941968
 20
32.53381856599524
 30
0.0
 11
148.7676483941968
 21
21.18381856599524
 31
0.0
  0
LINE
  5
76
330
1B4
100
AcDbEntity
  8
1
 62
     7
100
AcDbLine
 10
151.2676483941968
 20
21.18381856599524
 30
0.0
 11
148.7676483941968
 21
21.18381856599524
 31
0.0
  0
LINE
  5
77
330
1B4
100
AcDbEntity
  8
1
 62
     7
100
AcDbLine
 10
129.2676483941967
 20
19.98381856599522
 30
0.0
 11
128.2676483941967
 21
20.98381856599524
 31
0.0
  0
LINE
  5
78
330
1B4
100
AcDbEntity
  8
1
 62
     7
100
AcDbLine
 10
128.813603745596
 20
31.98381856599524
 30
0.0
 11
128.2676483941967
 21
30.48381856599524
 31
0.0
  0
LINE
  5
79
330
1B4
100
AcDbEntity
  8
1
 62
     7
100
AcDbLine
 10
148.7676483941968
 20
31.98381856599524
 30
0.0
 11
143.7676483941968
 21
31.98381856599524
 31
0.0
  0
LINE
  5
7A
330
1B4
100
AcDbEntity
  8
1
 62
     7
100
AcDbLine
 10
142.6176483941968
 20
32.34475698331511
 30
0.0
 11
142.6176483941968
 21
31.48381856599524
 31
0.0
  0
LINE
  5
7B
330
1B4
100
AcDbEntity
  8
1
 62
     7
100
AcDbLine
 10
143.7676483941968
 20
36.98381856599525
 30
0.0
 11
143.7676483941968
 21
31.48381856599524
 31
0.0
  0
LINE
  5
7C
330
1B4
100
AcDbEntity
  8
1
 62
     7
100
AcDbLine
 10
143.7676483941968
 20
33.6338185659952
 30
0.0
 11
142.7676483941968
 21
33.6338185659952
 31
0.0
  0
LINE
  5
7D
330
1B4
100
AcDbEntity
  8
1
 62
     7
100
AcDbLine
 10
128.813603745596
 20
32.54978737063861
 30
0.0
 11
128.813603745596
 21
31.98381856599524
 31
0.0
  0
LINE
  5
7E
330
1B4
100
AcDbEntity
  8
1
 62
     7
100
AcDbLine
 10
126.7676483941968
 20
33.98381856599522
 30
0.0
 11
128.7676483941967
 21
33.98381856599522
 31
0.0
  0
LINE
  5
7F
330
1B4
100
AcDbEntity
  8
1
 62
     7
100
AcDbLine
 10
134.9276483941968
 20
38.98381856599524
 30
0.0
 11
129.6076483941967
 21
38.98381856599524
 31
0.0
  0
LINE
  5
80
330
1B4
100
AcDbEntity
  8
1
 62
     7
100
AcDbLine
 10
128.7676483941967
 20
33.66516521804793
 30
0.0
 11
131.2176483941968
 21
33.66516521804792
 31
0.0
  0
LINE
  5
81
330
1B4
100
AcDbEntity
  8
1
 62
     7
100
AcDbLine
 10
128.7676483941967
 20
37.30247191394254
 30
0.0
 11
131.2176483941968
 21
37.30247191394254
 31
0.0
  0
LINE
  5
82
330
1B4
100
AcDbEntity
  8
1
 62
     7
100
AcDbLine
 10
141.9276483941968
 20
38.98381856599524
 30
0.0
 11
136.6076483941967
 21
38.98381856599524
 31
0.0
  0
LINE
  5
83
330
1B4
100
AcDbEntity
  8
1
 62
     7
100
AcDbLine
 10
135.7676483941967
 20
32.82381856599524
 30
0.0
 11
135.7676483941967
 21
38.14381856599522
 31
0.0
  0
LINE
  5
84
330
1B4
100
AcDbEntity
  8
1
 62
     7
100
AcDbLine
 10
142.7676483941968
 20
33.66516521804793
 30
0.0
 11
140.3176483941968
 21
33.66516521804792
 31
0.0
  0
LINE
  5
85
330
1B4
100
AcDbEntity
  8
1
 62
     7
100
AcDbLine
 10
138.2176483941968
 20
33.66516521804792
 30
0.0
 11
133.3176483941967
 21
33.66516521804792
 31
0.0
  0
LINE
  5
86
330
1B4
100
AcDbEntity
  8
1
 62
     7
100
AcDbLine
 10
138.2176483941968
 20
37.30247191394254
 30
0.0
 11
133.3176483941967
 21
37.30247191394254
 31
0.0
  0
LINE
  5
87
330
1B4
100
AcDbEntity
  8
1
 62
     7
100
AcDbLine
 10
142.7676483941968
 20
37.30247191394254
 30
0.0
 11
140.3176483941968
 21
37.30247191394254
 31
0.0
  0
LINE
  5
88
330
1B4
100
AcDbEntity
  8
1
 62
     7
100
AcDbLine
 10
141.9276483941968
 20
31.98381856599524
 30
0.0
 11
128.813603745596
 21
31.98381856599524
 31
0.0
  0
LINE
  5
89
330
1B4
100
AcDbEntity
  8
1
 62
     7
100
AcDbLine
 10
128.2676483941967
 20
31.98381856599524
 30
0.0
 11
128.7676483941967
 21
31.98381856599524
 31
0.0
  0
LINE
  5
8A
330
1B4
100
AcDbEntity
  8
1
 62
     7
100
AcDbLine
 10
128.7676483941967
 20
31.98381856599524
 30
0.0
 11
128.7676483941967
 21
38.14381856599522
 31
0.0
  0
LINE
  5
8B
330
1B4
100
AcDbEntity
  8
1
 62
     7
100
AcDbLine
 10
142.7676483941968
 20
31.48381856599524
 30
0.0
 11
142.7676483941968
 21
38.98381856599524
 31
0.0
  0
LINE
  5
8C
330
1B4
100
AcDbEntity
  8
1
 62
     7
100
AcDbLine
 10
142.6176483941968
 20
31.48381856599524
 30
0.0
 11
143.7676483941968
 21
31.48381856599524
 31
0.0
  0
LINE
  5
8D
330
1B4
100
AcDbEntity
  8
1
 62
     7
100
AcDbLine
 10
154.2676483941968
 20
35.98381856599524
 30
0.0
 11
165.0676483941968
 21
35.98381856599524
 31
0.0
  0
LINE
  5
8E
330
1B4
100
AcDbEntity
  8
1
 62
     7
100
AcDbLine
 10
152.7780113652786
 20
19.98381856599522
 30
0.0
 11
154.7676483941968
 21
19.98381856599522
 31
0.0
  0
LINE
  5
8F
330
1B4
100
AcDbEntity
  8
1
 62
     7
100
AcDbLine
 10
149.7676483941968
 20
21.73381856599524
 30
0.0
 11
151.7676483941968
 21
21.73381856599524
 31
0.0
  0
LINE
  5
90
330
1B4
100
AcDbEntity
  8
1
 62
     7
100
AcDbLine
 10
149.7676483941968
 20
32.53381856599524
 30
0.0
 11
149.7676483941968
 21
21.73381856599524
 31
0.0
  0
LINE
  5
91
330
1B4
100
AcDbEntity
  8
1
 62
     7
100
AcDbLine
 10
144.7676483941968
 20
32.53381856599524
 30
0.0
 11
149.7676483941968
 21
32.53381856599524
 31
0.0
  0
LINE
  5
92
330
1B4
100
AcDbEntity
  8
1
 62
     7
100
AcDbLine
 10
144.7676483941968
 20
36.98381856599525
 30
0.0
 11
144.7676483941968
 21
32.53381856599524
 31
0.0
  0
LINE
  5
93
330
1B4
100
AcDbEntity
  8
1
 62
     7
100
AcDbLine
 10
142.7676483941968
 20
36.98381856599525
 30
0.0
 11
144.7676483941968
 21
36.98381856599525
 31
0.0
  0
LINE
  5
94
330
1B4
100
AcDbEntity
  8
1
 62
     7
100
AcDbLine
 10
154.7676483941968
 20
19.98381856599522
 30
0.0
 11
154.7676483941968
 21
35.98381856599524
 31
0.0
  0
LINE
  5
95
330
1B4
100
AcDbEntity
  8
1
 62
     7
100
AcDbLine
 10
152.7780113652786
 20
19.98381856599522
 30
0.0
 11
151.7676483941968
 21
21.73381856599524
 31
0.0
  0
LINE
  5
96
330
1B4
100
AcDbEntity
  8
1
 62
     7
100
AcDbLine
 10
153.7676483941968
 20
29.18381856599523
 30
0.0
 11
154.7676483941968
 21
28.18381856599524
 31
0.0
  0
LINE
  5
97
330
1B4
100
AcDbEntity
  8
1
 62
     7
100
AcDbLine
 10
153.7676483941968
 20
35.48381856599525
 30
0.0
 11
153.7676483941968
 21
29.18381856599523
 31
0.0
  0
LINE
  5
98
330
1B4
100
AcDbEntity
  8
1
 62
     7
100
AcDbLine
 10
151.2676483941968
 20
19.98381856599522
 30
0.0
 11
129.2676483941967
 21
19.98381856599522
 31
0.0
  0
LINE
  5
99
330
1B4
100
AcDbEntity
  8
1
  6
CENTER
 62
     3
100
AcDbLine
 10
225.2808212707194
 20
34.35881856599522
 30
0.0
 11
229.1779355877495
 21
36.60881856599517
 31
0.0
  0
LINE
  5
9A
330
1B4
100
AcDbEntity
  8
1
  6
CENTER
 62
     3
100
AcDbLine
 10
240.2197594860011
 20
60.23381856599527
 30
0.0
 11
240.2197594860011
 21
55.73381856599529
 31
0.0
  0
LINE
  5
9B
330
1B4
100
AcDbEntity
  8
1
  6
DASHDOT
 62
     3
100
AcDbLine
 10
240.2197594860011
 20
40.76387281101438
 30
0.0
 11
240.2197594860011
 21
45.20376432097609
 31
0.0
  0
LINE
  5
9C
330
1B4
100
AcDbEntity
  8
1
  6
DASHDOT
 62
     3
100
AcDbLine
 10
242.4397052409819
 20
42.98381856599524
 30
0.0
 11
237.9998137310201
 21
42.98381856599524
 31
0.0
  0
LINE
  5
9D
330
1B4
100
AcDbEntity
  8
1
 62
     7
100
AcDbLine
 10
133.8476483941967
 20
91.26545250281749
 30
0.0
 11
135.6876483941967
 21
91.26545250281749
 31
0.0
  0
LINE
  5
9E
330
1B4
100
AcDbEntity
  8
1
 62
     7
100
AcDbLine
 10
135.6876483941967
 20
91.26545250281749
 30
0.0
 11
135.6876483941967
 21
66.98381856599525
 31
0.0
  0
LINE
  5
9F
330
1B4
100
AcDbEntity
  8
1
 62
     7
100
AcDbLine
 10
133.8476483941967
 20
91.26545250281749
 30
0.0
 11
133.8476483941967
 21
66.98381856599525
 31
0.0
  0
LINE
  5
A0
330
1B4
100
AcDbEntity
  8
1
 62
     7
100
AcDbLine
 10
132.2676483941967
 20
66.98381856599525
 30
0.0
 11
137.2676483941967
 21
66.98381856599525
 31
0.0
  0
LINE
  5
A1
330
1B4
100
AcDbEntity
  8
1
 62
     7
100
AcDbLine
 10
137.7676483941967
 20
66.48381856599525
 30
0.0
 11
137.2676483941967
 21
66.98381856599525
 31
0.0
  0
LINE
  5
A2
330
1B4
100
AcDbEntity
  8
1
 62
     7
100
AcDbLine
 10
137.7676483941967
 20
65.98381856599525
 30
0.0
 11
137.7676483941967
 21
66.48381856599525
 31
0.0
  0
LINE
  5
A3
330
1B4
100
AcDbEntity
  8
1
 62
     7
100
AcDbLine
 10
131.7676483941967
 20
66.48381856599525
 30
0.0
 11
131.7676483941967
 21
65.98381856599525
 31
0.0
  0
LINE
  5
A4
330
1B4
100
AcDbEntity
  8
1
 62
     7
100
AcDbLine
 10
132.2676483941967
 20
66.98381856599525
 30
0.0
 11
131.7676483941967
 21
66.48381856599525
 31
0.0
  0
LINE
  5
A5
330
1B4
100
AcDbEntity
  8
1
 62
     3
100
AcDbLine
 10
134.3776483941967
 20
91.26545250281749
 30
0.0
 11
134.3776483941967
 21
94.22625764745527
 31
0.0
  0
LINE
  5
A6
330
1B4
100
AcDbEntity
  8
1
 62
     3
100
AcDbLine
 10
135.1576483941967
 20
94.22625764745527
 30
0.0
 11
135.1576483941967
 21
91.26545250281749
 31
0.0
  0
LINE
  5
A7
330
1B4
100
AcDbEntity
  8
1
 62
     7
100
AcDbLine
 10
126.7676483941968
 20
74.73381856599525
 30
0.0
 11
128.2676483941967
 21
74.73381856599525
 31
0.0
  0
LINE
  5
A8
330
1B4
100
AcDbEntity
  8
1
 62
     7
100
AcDbLine
 10
126.7676483941968
 20
83.23381856599523
 30
0.0
 11
128.2676483941967
 21
83.23381856599523
 31
0.0
  0
LINE
  5
A9
330
1B4
100
AcDbEntity
  8
1
 62
     7
100
AcDbLine
 10
126.7676483941968
 20
85.98381856599523
 30
0.0
 11
128.2676483941967
 21
85.98381856599523
 31
0.0
  0
LINE
  5
AA
330
1B4
100
AcDbEntity
  8
1
 62
     7
100
AcDbLine
 10
151.2676483941968
 20
65.98381856599525
 30
0.0
 11
151.2676483941968
 21
64.23381856599525
 31
0.0
  0
LINE
  5
AB
330
1B4
100
AcDbEntity
  8
1
 62
     7
100
AcDbLine
 10
148.7676483941968
 20
64.78381856599522
 30
0.0
 11
148.7676483941968
 21
53.43381856599525
 31
0.0
  0
LINE
  5
AC
330
1B4
100
AcDbEntity
  8
1
 62
     7
100
AcDbLine
 10
148.7676483941968
 20
64.78381856599522
 30
0.0
 11
151.2676483941968
 21
64.78381856599522
 31
0.0
  0
LINE
  5
AD
330
1B4
100
AcDbEntity
  8
1
 62
     7
100
AcDbLine
 10
128.2676483941967
 20
64.98381856599525
 30
0.0
 11
129.2676483941967
 21
65.98381856599525
 31
0.0
  0
LINE
  5
AE
330
1B4
100
AcDbEntity
  8
1
 62
     7
100
AcDbLine
 10
128.2676483941967
 20
55.48381856599524
 30
0.0
 11
128.813603745596
 21
53.98381856599524
 31
0.0
  0
LINE
  5
AF
330
1B4
100
AcDbEntity
  8
1
 62
     7
100
AcDbLine
 10
143.7676483941968
 20
53.98381856599524
 30
0.0
 11
148.7676483941968
 21
53.98381856599524
 31
0.0
  0
LINE
  5
B0
330
1B4
100
AcDbEntity
  8
1
 62
     7
100
AcDbLine
 10
142.6176483941968
 20
54.48381856599525
 30
0.0
 11
142.6176483941968
 21
53.62288014867536
 31
0.0
  0
LINE
  5
B1
330
1B4
100
AcDbEntity
  8
1
 62
     7
100
AcDbLine
 10
143.7676483941968
 20
54.48381856599525
 30
0.0
 11
143.7676483941968
 21
48.98381856599524
 31
0.0
  0
LINE
  5
B2
330
1B4
100
AcDbEntity
  8
1
 62
     7
100
AcDbLine
 10
142.7676483941968
 20
52.33381856599527
 30
0.0
 11
143.7676483941968
 21
52.33381856599527
 31
0.0
  0
LINE
  5
B3
330
1B4
100
AcDbEntity
  8
1
 62
     7
100
AcDbLine
 10
143.7676483941968
 20
54.48381856599525
 30
0.0
 11
142.7676483941968
 21
54.48381856599525
 31
0.0
  0
LINE
  5
B4
330
1B4
100
AcDbEntity
  8
1
 62
     7
100
AcDbLine
 10
128.813603745596
 20
53.98381856599524
 30
0.0
 11
128.813603745596
 21
53.41784976135185
 31
0.0
  0
LINE
  5
B5
330
1B4
100
AcDbEntity
  8
1
 62
     7
100
AcDbLine
 10
128.7676483941967
 20
51.98381856599525
 30
0.0
 11
126.7676483941968
 21
51.98381856599525
 31
0.0
  0
LINE
  5
B6
330
1B4
100
AcDbEntity
  8
1
 62
     7
100
AcDbLine
 10
129.6076483941967
 20
46.98381856599524
 30
0.0
 11
134.9276483941968
 21
46.98381856599524
 31
0.0
  0
LINE
  5
B7
330
1B4
100
AcDbEntity
  8
1
 62
     7
100
AcDbLine
 10
133.3176483941967
 20
52.30247191394255
 30
0.0
 11
138.2176483941968
 21
52.30247191394255
 31
0.0
  0
LINE
  5
B8
330
1B4
100
AcDbEntity
  8
1
 62
     7
100
AcDbLine
 10
131.2176483941968
 20
52.30247191394255
 30
0.0
 11
128.7676483941967
 21
52.30247191394254
 31
0.0
  0
LINE
  5
B9
330
1B4
100
AcDbEntity
  8
1
 62
     7
100
AcDbLine
 10
131.2176483941968
 20
48.66516521804792
 30
0.0
 11
128.7676483941967
 21
48.66516521804792
 31
0.0
  0
LINE
  5
BA
330
1B4
100
AcDbEntity
  8
1
 62
     7
100
AcDbLine
 10
136.6076483941967
 20
46.98381856599524
 30
0.0
 11
141.9276483941968
 21
46.98381856599524
 31
0.0
  0
LINE
  5
BB
330
1B4
100
AcDbEntity
  8
1
 62
     7
100
AcDbLine
 10
140.3176483941968
 20
52.30247191394255
 30
0.0
 11
142.7676483941968
 21
52.30247191394254
 31
0.0
  0
LINE
  5
BC
330
1B4
100
AcDbEntity
  8
1
 62
     7
100
AcDbLine
 10
138.2176483941968
 20
48.66516521804792
 30
0.0
 11
133.3176483941967
 21
48.66516521804792
 31
0.0
  0
LINE
  5
BD
330
1B4
100
AcDbEntity
  8
1
 62
     7
100
AcDbLine
 10
140.3176483941968
 20
48.66516521804792
 30
0.0
 11
142.7676483941968
 21
48.66516521804792
 31
0.0
  0
LINE
  5
BE
330
1B4
100
AcDbEntity
  8
1
 62
     7
100
AcDbLine
 10
128.813603745596
 20
53.98381856599524
 30
0.0
 11
141.9276483941968
 21
53.98381856599524
 31
0.0
  0
LINE
  5
BF
330
1B4
100
AcDbEntity
  8
1
 62
     7
100
AcDbLine
 10
128.7676483941967
 20
53.98381856599524
 30
0.0
 11
128.2676483941967
 21
53.98381856599524
 31
0.0
  0
LINE
  5
C0
330
1B4
100
AcDbEntity
  8
1
 62
     7
100
AcDbLine
 10
142.7676483941968
 20
54.48381856599525
 30
0.0
 11
142.6176483941968
 21
54.48381856599525
 31
0.0
  0
LINE
  5
C1
330
1B4
100
AcDbEntity
  8
1
 62
     7
100
AcDbLine
 10
165.0676483941968
 20
49.98381856599524
 30
0.0
 11
154.2676483941968
 21
49.98381856599524
 31
0.0
  0
LINE
  5
C2
330
1B4
100
AcDbEntity
  8
1
 62
     7
100
AcDbLine
 10
154.7676483941968
 20
65.98381856599525
 30
0.0
 11
152.7780113652786
 21
65.98381856599525
 31
0.0
  0
LINE
  5
C3
330
1B4
100
AcDbEntity
  8
1
 62
     7
100
AcDbLine
 10
151.7676483941968
 20
64.23381856599525
 30
0.0
 11
149.7676483941968
 21
64.23381856599525
 31
0.0
  0
LINE
  5
C4
330
1B4
100
AcDbEntity
  8
1
 62
     7
100
AcDbLine
 10
149.7676483941968
 20
64.23381856599525
 30
0.0
 11
149.7676483941968
 21
53.43381856599525
 31
0.0
  0
LINE
  5
C5
330
1B4
100
AcDbEntity
  8
1
 62
     7
100
AcDbLine
 10
149.7676483941968
 20
53.43381856599525
 30
0.0
 11
144.7676483941968
 21
53.43381856599525
 31
0.0
  0
LINE
  5
C6
330
1B4
100
AcDbEntity
  8
1
 62
     7
100
AcDbLine
 10
144.7676483941968
 20
53.43381856599525
 30
0.0
 11
144.7676483941968
 21
48.98381856599524
 31
0.0
  0
LINE
  5
C7
330
1B4
100
AcDbEntity
  8
1
 62
     7
100
AcDbLine
 10
144.7676483941968
 20
48.98381856599524
 30
0.0
 11
142.7676483941968
 21
48.98381856599524
 31
0.0
  0
LINE
  5
C8
330
1B4
100
AcDbEntity
  8
1
 62
     7
100
AcDbLine
 10
154.7676483941968
 20
49.98381856599524
 30
0.0
 11
154.7676483941968
 21
65.98381856599525
 31
0.0
  0
LINE
  5
C9
330
1B4
100
AcDbEntity
  8
1
 62
     7
100
AcDbLine
 10
151.7676483941968
 20
64.23381856599525
 30
0.0
 11
152.7780113652786
 21
65.98381856599525
 31
0.0
  0
LINE
  5
CA
330
1B4
100
AcDbEntity
  8
1
 62
     7
100
AcDbLine
 10
142.7676483941968
 20
46.78348960438789
 30
0.0
 11
165.0676483941968
 21
46.78348960438789
 31
0.0
  0
LINE
  5
CB
330
1B4
100
AcDbEntity
  8
1
 62
     7
100
AcDbLine
 10
142.7676483941968
 20
47.88381856599521
 30
0.0
 11
165.0676483941968
 21
47.88381856599521
 31
0.0
  0
LINE
  5
CC
330
1B4
100
AcDbEntity
  8
1
 62
     7
100
AcDbLine
 10
154.7676483941968
 20
57.78381856599523
 30
0.0
 11
153.7676483941968
 21
56.78381856599521
 31
0.0
  0
LINE
  5
CD
330
1B4
100
AcDbEntity
  8
1
 62
     7
100
AcDbLine
 10
153.7676483941968
 20
56.78381856599521
 30
0.0
 11
153.7676483941968
 21
50.48381856599524
 31
0.0
  0
LINE
  5
CE
330
1B4
100
AcDbEntity
  8
1
  6
CENTER
 62
     3
100
AcDbLine
 10
255.1586977012826
 20
34.35881856599522
 30
0.0
 11
251.2615833842527
 21
36.60881856599522
 31
0.0
  0
LINE
  5
CF
330
1B4
100
AcDbEntity
  8
1
 62
     7
100
AcDbLine
 10
238.119759486001
 20
81.63381856599524
 30
0.0
 11
238.119759486001
 21
76.3338185659952
 31
0.0
  0
LINE
  5
D0
330
1B4
100
AcDbEntity
  8
1
 62
     7
100
AcDbLine
 10
242.3197594860011
 20
81.63381856599524
 30
0.0
 11
242.3197594860011
 21
76.3338185659952
 31
0.0
  0
LINE
  5
D1
330
1B4
100
AcDbEntity
  8
1
 62
     7
100
AcDbLine
 10
245.219759486001
 20
84.98381856599523
 30
0.0
 11
245.219759486001
 21
68.75328668532695
 31
0.0
  0
LINE
  5
D2
330
1B4
100
AcDbEntity
  8
1
 62
     7
100
AcDbLine
 10
244.2197594860011
 20
85.98381856599523
 30
0.0
 11
236.2197594860011
 21
85.98381856599523
 31
0.0
  0
LINE
  5
D3
330
1B4
100
AcDbEntity
  8
1
 62
     7
100
AcDbLine
 10
235.219759486001
 20
84.98381856599523
 30
0.0
 11
235.219759486001
 21
65.58741341283322
 31
0.0
  0
LINE
  5
D4
330
1B4
100
AcDbEntity
  8
1
 62
     7
100
AcDbLine
 10
238.969759486001
 20
46.78348960438789
 30
0.0
 11
238.969759486001
 21
47.88381856599521
 31
0.0
  0
LINE
  5
D5
330
1B4
100
AcDbEntity
  8
1
 62
     7
100
AcDbLine
 10
238.969759486001
 20
47.88381856599521
 30
0.0
 11
241.469759486001
 21
47.88381856599521
 31
0.0
  0
LINE
  5
D6
330
1B4
100
AcDbEntity
  8
1
 62
     7
100
AcDbLine
 10
241.469759486001
 20
47.88381856599521
 30
0.0
 11
241.469759486001
 21
46.78348960438789
 31
0.0
  0
LINE
  5
D7
330
1B4
100
AcDbEntity
  8
1
 62
     7
100
AcDbLine
 10
129.2676483941967
 20
65.98381856599525
 30
0.0
 11
151.2676483941968
 21
65.98381856599525
 31
0.0
  0
LINE
  5
D8
330
1B4
100
AcDbEntity
  8
1
  6
DASHDOT
 62
     3
100
AcDbLine
 10
67.35081618315579
 20
42.98381856599525
 30
0.0
 11
71.3508161831558
 21
42.98381856599525
 31
0.0
  0
LINE
  5
D9
330
1B4
100
AcDbEntity
  8
1
  6
DASHDOT
 62
     3
100
AcDbLine
 10
22.55081618315581
 20
42.98381856599525
 30
0.0
 11
26.5508161831558
 21
42.98381856599525
 31
0.0
  0
LINE
  5
DA
330
1B4
100
AcDbEntity
  8
1
 62
     7
100
AcDbLine
 10
28.05081618315581
 20
85.98381856599518
 30
0.0
 11
28.0508161831557
 21
20.98381856599516
 31
0.0
  0
LINE
  5
DB
330
1B4
100
AcDbEntity
  8
1
 62
     7
100
AcDbLine
 10
67.35081618315579
 20
25.48381856599515
 30
0.0
 11
67.35081618315579
 21
60.48381856599526
 31
0.0
  0
LINE
  5
DC
330
1B4
100
AcDbEntity
  8
1
 62
     7
100
AcDbLine
 10
26.5508161831558
 20
22.98381856599525
 30
0.0
 11
26.5508161831558
 21
85.98381856599518
 31
0.0
  0
LINE
  5
DD
330
1B4
100
AcDbEntity
  8
1
 62
     7
100
AcDbLine
 10
29.0508161831557
 20
65.98381856599516
 30
0.0
 11
51.05081618315569
 21
65.98381856599516
 31
0.0
  0
LINE
  5
DE
330
1B4
100
AcDbEntity
  8
1
  6
DASHDOT
 62
     3
100
AcDbLine
 10
56.18465052370249
 20
32.85881856599525
 30
0.0
 11
59.37676588305312
 21
32.85881856599525
 31
0.0
  0
LINE
  5
DF
330
1B4
100
AcDbEntity
  8
1
 62
     7
100
AcDbLine
 10
57.55081618315569
 20
34.85881856599525
 30
0.0
 11
58.35081618315578
 21
34.85881856599525
 31
0.0
  0
LINE
  5
E0
330
1B4
100
AcDbEntity
  8
1
 62
     7
100
AcDbLine
 10
58.35081618315578
 20
34.85881856599525
 30
0.0
 11
58.35081618315578
 21
30.85881856599515
 31
0.0
  0
LINE
  5
E1
330
1B4
100
AcDbEntity
  8
1
 62
     7
100
AcDbLine
 10
57.55081618315569
 20
30.85881856599515
 30
0.0
 11
58.35081618315578
 21
30.85881856599515
 31
0.0
  0
LINE
  5
E2
330
1B4
100
AcDbEntity
  8
1
 62
     7
100
AcDbLine
 10
58.35081618315578
 20
34.85881856599525
 30
0.0
 11
58.35081618315578
 21
30.85881856599515
 31
0.0
  0
LINE
  5
E3
330
1B4
100
AcDbEntity
  8
1
 62
     7
100
AcDbLine
 10
58.35081618315578
 20
34.85881856599525
 30
0.0
 11
58.35081618315578
 21
30.85881856599515
 31
0.0
  0
LINE
  5
E4
330
1B4
100
AcDbEntity
  8
1
 62
     7
100
AcDbLine
 10
51.05081618315569
 20
19.98381856599515
 30
0.0
 11
51.05081618315569
 21
64.23381856599516
 31
0.0
  0
LINE
  5
E5
330
1B4
100
AcDbEntity
  8
1
 62
     7
100
AcDbLine
 10
57.55081618315569
 20
20.48381856599515
 30
0.0
 11
57.2508161831557
 21
20.48381856599515
 31
0.0
  0
LINE
  5
E6
330
1B4
100
AcDbEntity
  8
1
 62
     7
100
AcDbLine
 10
57.55081618315569
 20
65.48381856599516
 30
0.0
 11
57.55081618315569
 21
20.48381856599515
 31
0.0
  0
LINE
  5
E7
330
1B4
100
AcDbEntity
  8
1
 62
     7
100
AcDbLine
 10
57.2508161831557
 20
65.48381856599516
 30
0.0
 11
57.55081618315569
 21
65.48381856599516
 31
0.0
  0
LINE
  5
E8
330
1B4
100
AcDbEntity
  8
1
 62
     7
100
AcDbLine
 10
58.35081618315578
 20
65.23381856599517
 30
0.0
 11
58.35081618315578
 21
61.23381856599525
 31
0.0
  0
LINE
  5
E9
330
1B4
100
AcDbEntity
  8
1
 62
     7
100
AcDbLine
 10
57.55081618315569
 20
65.23381856599517
 30
0.0
 11
58.35081618315578
 21
65.23381856599517
 31
0.0
  0
LINE
  5
EA
330
1B4
100
AcDbEntity
  8
1
 62
     7
100
AcDbLine
 10
57.55081618315569
 20
61.23381856599525
 30
0.0
 11
58.35081618315578
 21
61.23381856599525
 31
0.0
  0
LINE
  5
EB
330
1B4
100
AcDbEntity
  8
1
 62
     7
100
AcDbLine
 10
57.2508161831557
 20
19.83381856599516
 30
0.0
 11
54.80081618315569
 21
19.83381856599516
 31
0.0
  0
LINE
  5
EC
330
1B4
100
AcDbEntity
  8
1
 62
     7
100
AcDbLine
 10
57.2508161831557
 20
66.13381856599525
 30
0.0
 11
57.2508161831557
 21
19.83381856599516
 31
0.0
  0
LINE
  5
ED
330
1B4
100
AcDbEntity
  8
1
 62
     7
100
AcDbLine
 10
54.80081618315569
 20
66.13381856599525
 30
0.0
 11
57.2508161831557
 21
66.13381856599525
 31
0.0
  0
LINE
  5
EE
330
1B4
100
AcDbEntity
  8
1
 62
     7
100
AcDbLine
 10
57.60081618315578
 20
25.48381856599515
 30
0.0
 11
67.35081618315579
 21
25.48381856599515
 31
0.0
  0
LINE
  5
EF
330
1B4
100
AcDbEntity
  8
1
 62
     7
100
AcDbLine
 10
67.35081618315579
 20
60.48381856599526
 30
0.0
 11
57.55081618315569
 21
60.48381856599526
 31
0.0
  0
LINE
  5
F0
330
1B4
100
AcDbEntity
  8
1
 62
     7
100
AcDbLine
 10
54.80081618315569
 20
66.13381856599525
 30
0.0
 11
54.80081618315569
 21
19.83381856599516
 31
0.0
  0
LINE
  5
F1
330
1B4
100
AcDbEntity
  8
1
 62
     7
100
AcDbLine
 10
52.56117915423761
 20
19.98381856599525
 30
0.0
 11
54.5508161831557
 21
19.98381856599525
 31
0.0
  0
LINE
  5
F2
330
1B4
100
AcDbEntity
  8
1
 62
     7
100
AcDbLine
 10
52.56117915423761
 20
19.98381856599525
 30
0.0
 11
51.5508161831557
 21
21.73381856599525
 31
0.0
  0
LINE
  5
F3
330
1B4
100
AcDbEntity
  8
1
 62
     7
100
AcDbLine
 10
51.5508161831557
 20
64.23381856599516
 30
0.0
 11
52.56117915423761
 21
65.98381856599516
 31
0.0
  0
LINE
  5
F4
330
1B4
100
AcDbEntity
  8
1
 62
     7
100
AcDbLine
 10
54.5508161831557
 20
65.98381856599516
 30
0.0
 11
54.5508161831557
 21
19.98381856599525
 31
0.0
  0
LINE
  5
F5
330
1B4
100
AcDbEntity
  8
1
 62
     7
100
AcDbLine
 10
51.5508161831557
 20
64.23381856599516
 30
0.0
 11
51.05081618315569
 21
64.23381856599516
 31
0.0
  0
LINE
  5
F6
330
1B4
100
AcDbEntity
  8
1
 62
     7
100
AcDbLine
 10
54.5508161831557
 20
65.98381856599516
 30
0.0
 11
52.56117915423761
 21
65.98381856599516
 31
0.0
  0
LINE
  5
F7
330
1B4
100
AcDbEntity
  8
1
 62
     7
100
AcDbLine
 10
51.5508161831557
 20
21.73381856599525
 30
0.0
 11
51.5508161831557
 21
64.23381856599516
 31
0.0
  0
LINE
  5
F8
330
1B4
100
AcDbEntity
  8
1
 62
     7
100
AcDbLine
 10
52.56117915423761
 20
19.98381856599525
 30
0.0
 11
52.56117915423761
 21
65.98381856599516
 31
0.0
  0
LINE
  5
F9
330
1B4
100
AcDbEntity
  8
1
 62
     7
100
AcDbLine
 10
51.05081618315569
 20
21.73381856599525
 30
0.0
 11
51.5508161831557
 21
21.73381856599525
 31
0.0
  0
LINE
  5
FA
330
1B4
100
AcDbEntity
  8
1
 62
     7
100
AcDbLine
 10
54.5508161831557
 20
35.98381856599525
 30
0.0
 11
54.80081618315569
 21
35.98381856599525
 31
0.0
  0
LINE
  5
FB
330
1B4
100
AcDbEntity
  8
1
 62
     7
100
AcDbLine
 10
29.0508161831557
 20
19.98381856599515
 30
0.0
 11
51.05081618315569
 21
19.98381856599515
 31
0.0
  0
LINE
  5
FC
330
1B4
100
AcDbEntity
  8
1
 62
     7
100
AcDbLine
 10
29.0508161831557
 20
19.98381856599515
 30
0.0
 11
28.0508161831557
 21
20.98381856599516
 31
0.0
  0
LINE
  5
FD
330
1B4
100
AcDbEntity
  8
1
 62
     7
100
AcDbLine
 10
28.0508161831557
 20
64.98381856599516
 30
0.0
 11
29.0508161831557
 21
65.98381856599516
 31
0.0
  0
LINE
  5
FE
330
1B4
100
AcDbEntity
  8
1
 62
     7
100
AcDbLine
 10
51.05081618315569
 20
65.98381856599516
 30
0.0
 11
51.05081618315569
 21
64.23381856599516
 31
0.0
  0
LINE
  5
FF
330
1B4
100
AcDbEntity
  8
1
 62
     7
100
AcDbLine
 10
26.5508161831558
 20
85.98381856599518
 30
0.0
 11
28.05081618315581
 21
85.98381856599518
 31
0.0
  0
LINE
  5
100
330
1B4
100
AcDbEntity
  8
1
 62
     7
100
AcDbLine
 10
28.05081618315581
 20
22.98381856599525
 30
0.0
 11
26.5508161831558
 21
22.98381856599525
 31
0.0
  0
LINE
  5
101
330
1B4
100
AcDbEntity
  8
1
 62
     7
100
AcDbLine
 10
32.05081618315569
 20
66.98381856599517
 30
0.0
 11
31.5508161831557
 21
66.48381856599517
 31
0.0
  0
LINE
  5
102
330
1B4
100
AcDbEntity
  8
1
 62
     7
100
AcDbLine
 10
31.5508161831557
 20
66.48381856599517
 30
0.0
 11
31.5508161831557
 21
65.98381856599516
 31
0.0
  0
LINE
  5
103
330
1B4
100
AcDbEntity
  8
1
 62
     7
100
AcDbLine
 10
37.5508161831557
 20
65.98381856599516
 30
0.0
 11
37.5508161831557
 21
66.48381856599517
 31
0.0
  0
LINE
  5
104
330
1B4
100
AcDbEntity
  8
1
 62
     7
100
AcDbLine
 10
37.5508161831557
 20
66.48381856599517
 30
0.0
 11
37.0508161831557
 21
66.98381856599517
 31
0.0
  0
LINE
  5
105
330
1B4
100
AcDbEntity
  8
1
 62
     7
100
AcDbLine
 10
32.05081618315569
 20
66.98381856599517
 30
0.0
 11
37.0508161831557
 21
66.98381856599517
 31
0.0
  0
LINE
  5
106
330
1B4
100
AcDbEntity
  8
1
 62
     7
100
AcDbLine
 10
33.63081618315572
 20
91.26545250281749
 30
0.0
 11
33.63081618315572
 21
66.98381856599517
 31
0.0
  0
LINE
  5
107
330
1B4
100
AcDbEntity
  8
1
 62
     7
100
AcDbLine
 10
35.47081618315572
 20
91.26545250281749
 30
0.0
 11
35.47081618315572
 21
66.98381856599517
 31
0.0
  0
LINE
  5
108
330
1B4
100
AcDbEntity
  8
1
 62
     7
100
AcDbLine
 10
29.0508161831557
 20
19.98381856599515
 30
0.0
 11
29.0508161831557
 21
65.98381856599516
 31
0.0
  0
LINE
  5
109
330
1B4
100
AcDbEntity
  8
1
  6
DASHDOT
 62
     3
100
AcDbLine
 10
-46.87217355521999
 20
45.20376432097609
 30
0.0
 11
-46.87217355521999
 21
40.76387281101438
 31
0.0
  0
LINE
  5
10A
330
1B4
100
AcDbEntity
  8
1
  6
DASHDOT
 62
     3
100
AcDbLine
 10
-44.65222780023906
 20
42.98381856599524
 30
0.0
 11
-49.09211931020074
 21
42.98381856599524
 31
0.0
  0
LINE
  5
10B
330
1B4
100
AcDbEntity
  8
1
 62
     7
100
AcDbLine
 10
249.1997845247776
 20
64.90661834848079
 30
0.0
 11
249.0586744474719
 21
64.37998837051606
 31
0.0
  0
LINE
  5
10C
330
1B4
100
AcDbEntity
  8
1
 62
     7
100
AcDbLine
 10
251.2747015049948
 20
91.35063793709484
 30
0.0
 11
244.6541130480898
 21
66.64226543992153
 31
0.0
  0
LINE
  5
10D
330
1B4
100
AcDbEntity
  8
1
 62
     7
100
AcDbLine
 10
253.0520050253665
 20
90.87441089410623
 30
0.0
 11
246.4314165684616
 21
66.16603839693289
 31
0.0
  0
LINE
  5
10E
330
1B4
100
AcDbEntity
  8
1
 62
     7
100
AcDbLine
 10
254.8293085457384
 20
90.39818385111756
 30
0.0
 11
248.2087200888335
 21
65.68981135394428
 31
0.0
  0
LINE
  5
10F
330
1B4
100
AcDbEntity
  8
1
 62
     7
100
AcDbLine
 10
244.016602002739
 20
66.81308600968918
 30
0.0
 11
248.8462311341843
 21
65.51899078417659
 31
0.0
  0
LINE
  5
110
330
1B4
100
AcDbEntity
  8
1
 62
     7
100
AcDbLine
 10
249.1997845247776
 20
64.90661834848079
 30
0.0
 11
248.8462311341843
 21
65.51899078417659
 31
0.0
  0
LINE
  5
111
330
1B4
100
AcDbEntity
  8
1
 62
     7
100
AcDbLine
 10
243.2631194897374
 20
65.93290264113118
 30
0.0
 11
243.4042295670431
 21
66.45953261909591
 31
0.0
  0
LINE
  5
112
330
1B4
100
AcDbEntity
  8
1
 62
     7
100
AcDbLine
 10
244.016602002739
 20
66.81308600968918
 30
0.0
 11
243.4042295670431
 21
66.45953261909591
 31
0.0
  0
LINE
  5
113
330
1B4
100
AcDbEntity
  8
1
 62
     7
100
AcDbLine
 10
-55.85219859399646
 20
64.90661834848079
 30
0.0
 11
-55.67193332955753
 21
64.23385922275511
 31
0.0
  0
LINE
  5
114
330
1B4
100
AcDbEntity
  8
1
 62
     7
100
AcDbLine
 10
-53.08383063768046
 20
66.16603839693289
 30
0.0
 11
-59.70441909458545
 21
90.87441089410623
 31
0.0
  0
LINE
  5
115
330
1B4
100
AcDbEntity
  8
1
 62
     7
100
AcDbLine
 10
-54.86113415805236
 20
65.68981135394428
 30
0.0
 11
-61.48172261495737
 21
90.39818385111756
 31
0.0
  0
LINE
  5
116
330
1B4
100
AcDbEntity
  8
1
 62
     7
100
AcDbLine
 10
-55.49864520340314
 20
65.51899078417659
 30
0.0
 11
-51.87217355521999
 21
66.49070093368163
 31
0.0
  0
LINE
  5
117
330
1B4
100
AcDbEntity
  8
1
 62
     7
100
AcDbLine
 10
-55.49864520340314
 20
65.51899078417659
 30
0.0
 11
-55.85219859399646
 21
64.90661834848079
 31
0.0
  0
LINE
  5
118
330
1B4
100
AcDbEntity
  8
1
 62
     7
100
AcDbLine
 10
-51.87217355521999
 20
68.75328668532695
 30
0.0
 11
-57.92711557421357
 21
91.35063793709484
 31
0.0
  0
LINE
  5
119
330
1B4
100
AcDbEntity
  8
1
 62
     7
100
AcDbLine
 10
-48.97217355521997
 20
81.63381856599526
 30
0.0
 11
-48.97217355521997
 21
76.33381856599523
 31
0.0
  0
LINE
  5
11A
330
1B4
100
AcDbEntity
  8
1
 62
     7
100
AcDbLine
 10
-44.77217355521999
 20
81.63381856599526
 30
0.0
 11
-44.77217355521999
 21
76.33381856599523
 31
0.0
  0
LINE
  5
11B
330
1B4
100
AcDbEntity
  8
1
 62
     7
100
AcDbLine
 10
-41.87217355521999
 20
84.98381856599525
 30
0.0
 11
-41.87217355521999
 21
63.84047218060945
 31
0.0
  0
LINE
  5
11C
330
1B4
100
AcDbEntity
  8
1
 62
     7
100
AcDbLine
 10
-42.87217355521999
 20
85.98381856599525
 30
0.0
 11
-50.87217355522
 21
85.98381856599525
 31
0.0
  0
LINE
  5
11D
330
1B4
100
AcDbEntity
  8
1
 62
     7
100
AcDbLine
 10
-51.87217355521999
 20
84.98381856599525
 30
0.0
 11
-51.87217355521999
 21
63.84047218060945
 31
0.0
  0
LINE
  5
11E
330
1B4
100
AcDbEntity
  8
1
 62
     3
100
AcDbLine
 10
134.7676483941967
 20
91.26545250281749
 30
0.0
 11
134.7676483941967
 21
94.22625764745527
 31
0.0
  0
LINE
  5
11F
330
1B4
100
AcDbEntity
  8
1
 62
     7
100
AcDbLine
 10
33.63081618315572
 20
91.26545250281749
 30
0.0
 11
35.47081618315572
 21
91.26545250281749
 31
0.0
  0
LINE
  5
120
330
1B4
100
AcDbEntity
  8
1
 62
     3
100
AcDbLine
 10
34.16081618315569
 20
91.26545250281749
 30
0.0
 11
34.16081618315561
 21
94.22625764745523
 31
0.0
  0
LINE
  5
121
330
1B4
100
AcDbEntity
  8
1
 62
     3
100
AcDbLine
 10
34.94081618315579
 20
94.22625764745527
 30
0.0
 11
34.94081618315579
 21
91.26545250281749
 31
0.0
  0
LINE
  5
122
330
1B4
100
AcDbEntity
  8
1
 62
     3
100
AcDbLine
 10
34.55081618315575
 20
91.26545250281749
 30
0.0
 11
34.55081618315575
 21
94.22625764745527
 31
0.0
  0
LINE
  5
123
330
1B4
100
AcDbEntity
  8
1
 62
     3
100
AcDbLine
 10
-60.96978192702419
 20
90.53535794502192
 30
0.0
 11
-61.73609468729406
 21
93.39527610083704
 31
0.0
  0
LINE
  5
124
330
1B4
100
AcDbEntity
  8
1
 62
     3
100
AcDbLine
 10
-60.98267254278841
 20
93.5971549560171
 30
0.0
 11
-60.21635978251865
 21
90.73723680020192
 31
0.0
  0
LINE
  5
125
330
1B4
100
AcDbEntity
  8
1
 62
     3
100
AcDbLine
 10
-60.5930708547714
 20
90.63629737261193
 30
0.0
 11
-61.35938361504119
 21
93.49621552842709
 31
0.0
  0
LINE
  5
126
330
1B4
100
AcDbEntity
  8
1
 62
     7
100
AcDbLine
 10
-57.92711557421357
 20
91.35063793709484
 30
0.0
 11
-61.48172261495737
 21
90.39818385111756
 31
0.0
  0
LINE
  5
127
330
1B4
100
AcDbEntity
  8
1
 62
     3
100
AcDbLine
 10
-59.19247840665229
 20
91.01158498801058
 30
0.0
 11
-59.95879116692218
 21
93.87150314382571
 31
0.0
  0
LINE
  5
128
330
1B4
100
AcDbEntity
  8
1
 62
     3
100
AcDbLine
 10
-59.20536902241654
 20
94.07338199900566
 30
0.0
 11
-58.43905626214674
 21
91.21346384319055
 31
0.0
  0
LINE
  5
129
330
1B4
100
AcDbEntity
  8
1
 62
     3
100
AcDbLine
 10
-58.81576733439951
 20
91.11252441560059
 30
0.0
 11
-59.58208009466929
 21
93.9724425714157
 31
0.0
  0
LINE
  5
12A
330
1B4
100
AcDbEntity
  8
1
 62
     3
100
AcDbLine
 10
255.0836806180751
 20
93.39527610083704
 30
0.0
 11
254.3173678578053
 21
90.53535794502192
 31
0.0
  0
LINE
  5
12B
330
1B4
100
AcDbEntity
  8
1
 62
     3
100
AcDbLine
 10
253.5639457132996
 20
90.73723680020192
 30
0.0
 11
254.3302584735695
 21
93.5971549560171
 31
0.0
  0
LINE
  5
12C
330
1B4
100
AcDbEntity
  8
1
 62
     3
100
AcDbLine
 10
254.7069695458223
 20
93.49621552842709
 30
0.0
 11
253.9406567855524
 21
90.63629737261193
 31
0.0
  0
LINE
  5
12D
330
1B4
100
AcDbEntity
  8
1
 62
     7
100
AcDbLine
 10
254.8293085457384
 20
90.39818385111756
 30
0.0
 11
251.2747015049948
 21
91.35063793709484
 31
0.0
  0
LINE
  5
12E
330
1B4
100
AcDbEntity
  8
1
 62
     3
100
AcDbLine
 10
253.3063770977033
 20
93.87150314382571
 30
0.0
 11
252.5400643374334
 21
91.01158498801058
 31
0.0
  0
LINE
  5
12F
330
1B4
100
AcDbEntity
  8
1
 62
     3
100
AcDbLine
 10
251.7866421929277
 20
91.21346384319055
 30
0.0
 11
252.5529549531976
 21
94.07338199900566
 31
0.0
  0
LINE
  5
130
330
1B4
100
AcDbEntity
  8
1
 62
     3
100
AcDbLine
 10
252.9296660254503
 20
93.9724425714157
 30
0.0
 11
252.1633532651804
 21
91.11252441560059
 31
0.0
  0
LINE
  5
131
330
1B4
100
AcDbEntity
  8
1
 62
     7
100
AcDbLine
 10
126.7676483941968
 20
51.98381856599525
 30
0.0
 11
126.7676483941968
 21
85.98381856599523
 31
0.0
  0
LINE
  5
132
330
1B4
100
AcDbEntity
  8
1
 62
     7
100
AcDbLine
 10
126.7676483941968
 20
33.98381856599522
 30
0.0
 11
126.7676483941968
 21
51.98381856599525
 31
0.0
  0
LINE
  5
133
330
1B4
100
AcDbEntity
  8
1
 62
     7
100
AcDbLine
 10
128.7676483941967
 20
47.82381856599524
 30
0.0
 11
128.7676483941967
 21
53.98381856599524
 31
0.0
  0
LINE
  5
134
330
1B4
100
AcDbEntity
  8
1
 62
     7
100
AcDbLine
 10
128.7676483941967
 20
38.14381856599522
 30
0.0
 11
128.7676483941967
 21
47.82381856599524
 31
0.0
  0
LINE
  5
135
330
1B4
100
AcDbEntity
  8
1
 62
     7
100
AcDbLine
 10
128.2676483941967
 20
51.98381856599525
 30
0.0
 11
128.2676483941967
 21
85.98381856599523
 31
0.0
  0
LINE
  5
136
330
1B4
100
AcDbEntity
  8
1
 62
     7
100
AcDbLine
 10
128.2676483941967
 20
33.98381856599522
 30
0.0
 11
128.2676483941967
 21
51.98381856599525
 31
0.0
  0
LINE
  5
137
330
1B4
100
AcDbEntity
  8
1
 62
     7
100
AcDbLine
 10
135.7676483941967
 20
47.82381856599524
 30
0.0
 11
135.7676483941967
 21
53.14381856599522
 31
0.0
  0
LINE
  5
138
330
1B4
100
AcDbEntity
  8
1
 62
     7
100
AcDbLine
 10
135.7676483941967
 20
38.14381856599522
 30
0.0
 11
135.7676483941967
 21
47.82381856599524
 31
0.0
  0
LINE
  5
139
330
1B4
100
AcDbEntity
  8
1
 62
     7
100
AcDbLine
 10
142.7676483941968
 20
46.78348960438789
 30
0.0
 11
142.7676483941968
 21
54.48381856599525
 31
0.0
  0
LINE
  5
13A
330
1B4
100
AcDbEntity
  8
1
 62
     7
100
AcDbLine
 10
142.7676483941968
 20
38.98381856599524
 30
0.0
 11
142.7676483941968
 21
46.78348960438789
 31
0.0
  0
LINE
  5
13B
330
1B4
100
AcDbEntity
  8
1
 62
     7
100
AcDbLine
 10
165.0676483941968
 20
46.78348960438789
 30
0.0
 11
165.0676483941968
 21
53.9838185659952
 31
0.0
  0
LINE
  5
13C
330
1B4
100
AcDbEntity
  8
1
 62
     7
100
AcDbLine
 10
165.0676483941968
 20
38.98381856599524
 30
0.0
 11
165.0676483941968
 21
46.78348960438789
 31
0.0
  0
LINE
  5
13D
330
1B4
100
AcDbEntity
  8
1
 62
     7
100
AcDbLine
 10
167.5676483941968
 20
53.9838185659952
 30
0.0
 11
167.5676483941968
 21
31.98381856599521
 31
0.0
  0
LINE
  5
13E
330
1B4
100
AcDbEntity
  8
1
 62
     7
100
AcDbLine
 10
167.5676483941968
 20
31.98381856599521
 30
0.0
 11
167.5676483941968
 21
25.48381856599523
 31
0.0
  0
ARC
  5
13F
330
1B4
100
AcDbEntity
  8
1
 62
     7
100
AcDbCircle
 10
156.7285282525723
 20
34.48381856599521
 30
0.0
 40
1.0
100
AcDbArc
 50
90.0
 51
163.0422366999964
  0
ARC
  5
140
330
1B4
100
AcDbEntity
  8
1
 62
     7
100
AcDbCircle
 10
156.7285282525723
 20
30.98381856599521
 30
0.0
 40
1.000000000000011
100
AcDbArc
 50
196.957763300003
 51
270.0
  0
ARC
  5
141
330
1B4
100
AcDbEntity
  8
1
 62
     7
100
AcDbCircle
 10
157.1676483941968
 20
35.18381856599521
 30
0.0
 40
0.3000000000000114
100
AcDbArc
 50
0.0
 51
90.0
  0
ARC
  5
142
330
1B4
100
AcDbEntity
  8
1
 62
     7
100
AcDbCircle
 10
157.1676483941968
 20
30.28381856599523
 30
0.0
 40
0.3000000000000078
100
AcDbArc
 50
270.0
 51
0.0
  0
ARC
  5
143
330
1B4
100
AcDbEntity
  8
1
 62
     7
100
AcDbCircle
 10
129.6076483941967
 20
38.14381856599522
 30
0.0
 40
0.8400000000000105
100
AcDbArc
 50
90.0
 51
180.0
  0
ARC
  5
144
330
1B4
100
AcDbEntity
  8
1
 62
     7
100
AcDbCircle
 10
134.9276483941968
 20
32.82381856599524
 30
0.0
 40
0.8399999999999996
100
AcDbArc
 50
270.0
 51
0.0
  0
ARC
  5
145
330
1B4
100
AcDbEntity
  8
1
 62
     7
100
AcDbCircle
 10
129.6076483941967
 20
32.82381856599524
 30
0.0
 40
0.8399999999999748
100
AcDbArc
 50
180.0
 51
270.0
  0
ARC
  5
146
330
1B4
100
AcDbEntity
  8
1
 62
     7
100
AcDbCircle
 10
134.9276483941968
 20
38.14381856599522
 30
0.0
 40
0.8400000000000034
100
AcDbArc
 50
0.0
 51
90.0
  0
ARC
  5
147
330
1B4
100
AcDbEntity
  8
1
 62
     7
100
AcDbCircle
 10
136.6076483941967
 20
38.14381856599522
 30
0.0
 40
0.8400000000000105
100
AcDbArc
 50
90.0
 51
180.0
  0
ARC
  5
148
330
1B4
100
AcDbEntity
  8
1
 62
     7
100
AcDbCircle
 10
141.9276483941968
 20
32.82381856599524
 30
0.0
 40
0.8399999999999996
100
AcDbArc
 50
270.0
 51
0.0
  0
ARC
  5
149
330
1B4
100
AcDbEntity
  8
1
 62
     7
100
AcDbCircle
 10
136.6076483941967
 20
32.82381856599524
 30
0.0
 40
0.8399999999999748
100
AcDbArc
 50
180.0
 51
270.0
  0
ARC
  5
14A
330
1B4
100
AcDbEntity
  8
1
 62
     7
100
AcDbCircle
 10
141.9276483941968
 20
38.14381856599522
 30
0.0
 40
0.8400000000000034
100
AcDbArc
 50
0.0
 51
90.0
  0
ARC
  5
14B
330
1B4
100
AcDbEntity
  8
1
 62
     7
100
AcDbCircle
 10
154.2676483941968
 20
35.48381856599525
 30
0.0
 40
0.5
100
AcDbArc
 50
90.0
 51
180.0
  0
ARC
  5
14C
330
1B4
100
AcDbEntity
  8
1
 62
     7
100
AcDbCircle
 10
129.6076483941967
 20
47.82381856599524
 30
0.0
 40
0.8399999999999748
100
AcDbArc
 50
180.0
 51
270.0
  0
ARC
  5
14D
330
1B4
100
AcDbEntity
  8
1
 62
     7
100
AcDbCircle
 10
134.9276483941968
 20
53.14381856599522
 30
0.0
 40
0.8400000000000034
100
AcDbArc
 50
0.0
 51
90.0
  0
ARC
  5
14E
330
1B4
100
AcDbEntity
  8
1
 62
     7
100
AcDbCircle
 10
129.6076483941967
 20
53.14381856599522
 30
0.0
 40
0.8400000000000105
100
AcDbArc
 50
90.0
 51
180.0
  0
ARC
  5
14F
330
1B4
100
AcDbEntity
  8
1
 62
     7
100
AcDbCircle
 10
134.9276483941968
 20
47.82381856599524
 30
0.0
 40
0.8399999999999963
100
AcDbArc
 50
270.0
 51
0.0
  0
ARC
  5
150
330
1B4
100
AcDbEntity
  8
1
 62
     7
100
AcDbCircle
 10
136.6076483941967
 20
47.82381856599524
 30
0.0
 40
0.8399999999999748
100
AcDbArc
 50
180.0
 51
270.0
  0
ARC
  5
151
330
1B4
100
AcDbEntity
  8
1
 62
     7
100
AcDbCircle
 10
141.9276483941968
 20
53.14381856599522
 30
0.0
 40
0.8400000000000034
100
AcDbArc
 50
0.0
 51
90.0
  0
ARC
  5
152
330
1B4
100
AcDbEntity
  8
1
 62
     7
100
AcDbCircle
 10
136.6076483941967
 20
53.14381856599522
 30
0.0
 40
0.8400000000000105
100
AcDbArc
 50
90.0
 51
180.0
  0
ARC
  5
153
330
1B4
100
AcDbEntity
  8
1
 62
     7
100
AcDbCircle
 10
141.9276483941968
 20
47.82381856599524
 30
0.0
 40
0.8399999999999963
100
AcDbArc
 50
270.0
 51
0.0
  0
ARC
  5
154
330
1B4
100
AcDbEntity
  8
1
 62
     7
100
AcDbCircle
 10
154.2676483941968
 20
50.48381856599524
 30
0.0
 40
0.5
100
AcDbArc
 50
180.0
 51
270.0
  0
ARC
  5
155
330
1B4
100
AcDbEntity
  8
1
 62
     7
100
AcDbCircle
 10
236.2197594860011
 20
84.98381856599523
 30
0.0
 40
1.0
100
AcDbArc
 50
90.0
 51
180.0
  0
ARC
  5
156
330
1B4
100
AcDbEntity
  8
1
 62
     7
100
AcDbCircle
 10
244.2197594860011
 20
84.98381856599523
 30
0.0
 40
1.0
100
AcDbArc
 50
0.0
 51
90.0
  0
ARC
  5
157
330
1B4
100
AcDbEntity
  8
1
 62
     7
100
AcDbCircle
 10
-53.87217355521999
 20
63.84047218060945
 30
0.0
 40
1.99999999999999
100
AcDbArc
 50
288.5530045350202
 51
0.0
  0
ARC
  5
158
330
1B4
100
AcDbEntity
  8
1
 62
     7
100
AcDbCircle
 10
-39.87217355522
 20
63.84047218060945
 30
0.0
 40
2.0
100
AcDbArc
 50
180.0
 51
251.4469954649795
  0
ARC
  5
159
330
1B4
100
AcDbEntity
  8
1
 62
     7
100
AcDbCircle
 10
-50.87217355522
 20
84.98381856599525
 30
0.0
 40
1.0
100
AcDbArc
 50
90.0
 51
180.0
  0
ARC
  5
15A
330
1B4
100
AcDbEntity
  8
1
 62
     7
100
AcDbCircle
 10
-42.87217355521999
 20
84.98381856599525
 30
0.0
 40
1.0
100
AcDbArc
 50
0.0
 51
90.0
  0
ARC
  5
15B
330
1B4
100
AcDbEntity
  8
1
 62
     7
100
AcDbCircle
 10
162.4676483941968
 20
32.73381856599522
 30
0.0
 40
7.000000000000023
100
AcDbArc
 50
163.0422366999959
 51
196.957763300004
  0
ARC
  5
15C
330
1B4
100
AcDbEntity
  8
1
 62
     7
100
AcDbCircle
 10
132.2676483941967
 20
35.48381856599525
 30
0.0
 40
2.100000000000008
100
AcDbArc
 50
239.9999999999998
 51
299.9999999999996
  0
ARC
  5
15D
330
1B4
100
AcDbEntity
  8
1
 62
     7
100
AcDbCircle
 10
132.2676483941967
 20
35.48381856599525
 30
0.0
 40
2.099999999999995
100
AcDbArc
 50
299.9999999999996
 51
60.00000000000018
  0
ARC
  5
15E
330
1B4
100
AcDbEntity
  8
1
 62
     7
100
AcDbCircle
 10
132.2676483941967
 20
35.48381856599525
 30
0.0
 40
2.099999999999991
100
AcDbArc
 50
120.0000000000005
 51
239.9999999999998
  0
ARC
  5
15F
330
1B4
100
AcDbEntity
  8
1
 62
     7
100
AcDbCircle
 10
132.2676483941967
 20
35.48381856599525
 30
0.0
 40
2.099999999999976
100
AcDbArc
 50
60.00000000000018
 51
120.0000000000005
  0
ARC
  5
160
330
1B4
100
AcDbEntity
  8
1
 62
     7
100
AcDbCircle
 10
139.2676483941967
 20
35.48381856599525
 30
0.0
 40
2.100000000000008
100
AcDbArc
 50
239.9999999999998
 51
299.9999999999996
  0
ARC
  5
161
330
1B4
100
AcDbEntity
  8
1
 62
     7
100
AcDbCircle
 10
139.2676483941967
 20
35.48381856599525
 30
0.0
 40
2.099999999999995
100
AcDbArc
 50
299.9999999999996
 51
60.00000000000018
  0
ARC
  5
162
330
1B4
100
AcDbEntity
  8
1
 62
     7
100
AcDbCircle
 10
139.2676483941967
 20
35.48381856599525
 30
0.0
 40
2.099999999999991
100
AcDbArc
 50
120.0000000000005
 51
239.9999999999998
  0
ARC
  5
163
330
1B4
100
AcDbEntity
  8
1
 62
     7
100
AcDbCircle
 10
139.2676483941967
 20
35.48381856599525
 30
0.0
 40
2.099999999999976
100
AcDbArc
 50
60.00000000000018
 51
120.0000000000005
  0
ARC
  5
164
330
1B4
100
AcDbEntity
  8
1
  6
CENTER
 62
     3
100
AcDbCircle
 10
240.2197594860011
 20
42.98381856599524
 30
0.0
 40
15.00000000000003
100
AcDbArc
 50
201.3975553906594
 51
218.602444609341
  0
ARC
  5
165
330
1B4
100
AcDbEntity
  8
1
  6
CENTER
 62
     3
100
AcDbCircle
 10
240.2197594860011
 20
42.98381856599524
 30
0.0
 40
14.99999999999998
100
AcDbArc
 50
81.39755539065946
 51
98.60244460934087
  0
ARC
  5
166
330
1B4
100
AcDbEntity
  8
1
  6
CENTER
 62
     3
100
AcDbCircle
 10
240.2197594860011
 20
42.98381856599524
 30
0.0
 40
14.99999999999998
100
AcDbArc
 50
321.3975553906593
 51
338.6024446093405
  0
ARC
  5
167
330
1B4
100
AcDbEntity
  8
1
 62
     7
100
AcDbCircle
 10
132.2676483941967
 20
50.48381856599524
 30
0.0
 40
2.099999999999976
100
AcDbArc
 50
60.00000000000018
 51
120.0000000000005
  0
ARC
  5
168
330
1B4
100
AcDbEntity
  8
1
 62
     7
100
AcDbCircle
 10
132.2676483941967
 20
50.48381856599524
 30
0.0
 40
2.099999999999995
100
AcDbArc
 50
299.9999999999996
 51
60.00000000000018
  0
ARC
  5
169
330
1B4
100
AcDbEntity
  8
1
 62
     7
100
AcDbCircle
 10
132.2676483941967
 20
50.48381856599524
 30
0.0
 40
2.099999999999991
100
AcDbArc
 50
120.0000000000005
 51
239.9999999999998
  0
ARC
  5
16A
330
1B4
100
AcDbEntity
  8
1
 62
     7
100
AcDbCircle
 10
132.2676483941967
 20
50.48381856599524
 30
0.0
 40
2.100000000000008
100
AcDbArc
 50
239.9999999999998
 51
299.9999999999996
  0
ARC
  5
16B
330
1B4
100
AcDbEntity
  8
1
 62
     7
100
AcDbCircle
 10
139.2676483941967
 20
50.48381856599524
 30
0.0
 40
2.099999999999976
100
AcDbArc
 50
60.00000000000018
 51
120.0000000000005
  0
ARC
  5
16C
330
1B4
100
AcDbEntity
  8
1
 62
     7
100
AcDbCircle
 10
139.2676483941967
 20
50.48381856599524
 30
0.0
 40
2.099999999999995
100
AcDbArc
 50
299.9999999999996
 51
60.00000000000018
  0
ARC
  5
16D
330
1B4
100
AcDbEntity
  8
1
 62
     7
100
AcDbCircle
 10
139.2676483941967
 20
50.48381856599524
 30
0.0
 40
2.099999999999991
100
AcDbArc
 50
120.0000000000005
 51
239.9999999999998
  0
ARC
  5
16E
330
1B4
100
AcDbEntity
  8
1
 62
     7
100
AcDbCircle
 10
139.2676483941967
 20
50.48381856599524
 30
0.0
 40
2.100000000000008
100
AcDbArc
 50
239.9999999999998
 51
299.9999999999996
  0
ARC
  5
16F
330
1B4
100
AcDbEntity
  8
1
 62
     7
100
AcDbCircle
 10
240.2197594860011
 20
76.3338185659952
 30
0.0
 40
2.100000000000108
100
AcDbArc
 50
180.0
 51
270.0
  0
ARC
  5
170
330
1B4
100
AcDbEntity
  8
1
 62
     7
100
AcDbCircle
 10
240.2197594860011
 20
81.63381856599524
 30
0.0
 40
2.099999999999992
100
AcDbArc
 50
0.0
 51
90.0
  0
ARC
  5
171
330
1B4
100
AcDbEntity
  8
1
 62
     7
100
AcDbCircle
 10
240.2197594860011
 20
76.3338185659952
 30
0.0
 40
2.100000000000108
100
AcDbArc
 50
270.0
 51
0.0
  0
ARC
  5
172
330
1B4
100
AcDbEntity
  8
1
 62
     7
100
AcDbCircle
 10
240.2197594860011
 20
81.63381856599524
 30
0.0
 40
2.099999999999992
100
AcDbArc
 50
90.0
 51
180.0
  0
ARC
  5
173
330
1B4
100
AcDbEntity
  8
1
 62
     7
100
AcDbCircle
 10
-46.87217355521999
 20
42.98381856599524
 30
0.0
 40
22.99999999999993
100
AcDbArc
 50
102.555857798586
 51
77.44414220141401
  0
ARC
  5
174
330
1B4
100
AcDbEntity
  8
1
 62
     7
100
AcDbCircle
 10
-46.87217355521999
 20
76.33381856599523
 30
0.0
 40
2.099999999999992
100
AcDbArc
 50
180.0
 51
270.0
  0
ARC
  5
175
330
1B4
100
AcDbEntity
  8
1
 62
     7
100
AcDbCircle
 10
-46.87217355521999
 20
81.63381856599526
 30
0.0
 40
2.099999999999992
100
AcDbArc
 50
0.0
 51
90.0
  0
ARC
  5
176
330
1B4
100
AcDbEntity
  8
1
 62
     7
100
AcDbCircle
 10
-46.87217355521999
 20
42.98381856599524
 30
0.0
 40
20.00000000000001
100
AcDbArc
 50
108.5530045350207
 51
0.0
  0
ARC
  5
177
330
1B4
100
AcDbEntity
  8
1
 62
     7
100
AcDbCircle
 10
-46.87217355521999
 20
42.98381856599524
 30
0.0
 40
20.00000000000001
100
AcDbArc
 50
0.0
 51
71.44699546497931
  0
ARC
  5
178
330
1B4
100
AcDbEntity
  8
1
 62
     7
100
AcDbCircle
 10
-46.87217355521999
 20
76.33381856599523
 30
0.0
 40
2.099999999999992
100
AcDbArc
 50
270.0
 51
0.0
  0
ARC
  5
179
330
1B4
100
AcDbEntity
  8
1
 62
     7
100
AcDbCircle
 10
-46.87217355521999
 20
81.63381856599526
 30
0.0
 40
2.099999999999992
100
AcDbArc
 50
90.0
 51
180.0
  0
CIRCLE
  5
17A
330
1B4
100
AcDbEntity
  8
1
 62
     7
100
AcDbCircle
 10
240.2197594860011
 20
42.98381856599524
 30
0.0
 40
22.50000000000003
  0
CIRCLE
  5
17B
330
1B4
100
AcDbEntity
  8
1
 62
     7
100
AcDbCircle
 10
240.2197594860011
 20
42.98381856599524
 30
0.0
 40
23.15
  0
CIRCLE
  5
17C
330
1B4
100
AcDbEntity
  8
1
 62
     7
100
AcDbCircle
 10
240.2197594860011
 20
42.98381856599524
 30
0.0
 40
17.50000000000001
  0
CIRCLE
  5
17D
330
1B4
100
AcDbEntity
  8
1
 62
     7
100
AcDbCircle
 10
240.2197594860011
 20
42.98381856599524
 30
0.0
 40
7.5
  0
CIRCLE
  5
17E
330
1B4
100
AcDbEntity
  8
1
 62
     7
100
AcDbCircle
 10
240.2197594860011
 20
42.98381856599524
 30
0.0
 40
8.5
  0
CIRCLE
  5
17F
330
1B4
100
AcDbEntity
  8
1
 62
     7
100
AcDbCircle
 10
240.2197594860011
 20
42.98381856599524
 30
0.0
 40
11.0
  0
CIRCLE
  5
180
330
1B4
100
AcDbEntity
  8
1
 62
     3
100
AcDbCircle
 10
240.2197594860011
 20
57.98381856599524
 30
0.0
 40
1.5
  0
CIRCLE
  5
181
330
1B4
100
AcDbEntity
  8
1
 62
     7
100
AcDbCircle
 10
240.2197594860011
 20
57.98381856599524
 30
0.0
 40
1.200000000000017
  0
CIRCLE
  5
182
330
1B4
100
AcDbEntity
  8
1
 62
     7
100
AcDbCircle
 10
227.2293784292345
 20
35.48381856599525
 30
0.0
 40
1.200000000000017
  0
CIRCLE
  5
183
330
1B4
100
AcDbEntity
  8
1
 62
     3
100
AcDbCircle
 10
227.2293784292345
 20
35.48381856599525
 30
0.0
 40
1.5
  0
CIRCLE
  5
184
330
1B4
100
AcDbEntity
  8
1
 62
     7
100
AcDbCircle
 10
253.2101405427676
 20
35.48381856599521
 30
0.0
 40
1.199999999999989
  0
CIRCLE
  5
185
330
1B4
100
AcDbEntity
  8
1
 62
     3
100
AcDbCircle
 10
253.2101405427676
 20
35.48381856599521
 30
0.0
 40
1.5
  0
CIRCLE
  5
186
330
1B4
100
AcDbEntity
  8
1
 62
     7
100
AcDbCircle
 10
240.2197594860011
 20
63.23381856599525
 30
0.0
 40
2.0
  0
CIRCLE
  5
187
330
1B4
100
AcDbEntity
  8
1
 62
     7
100
AcDbCircle
 10
222.6827450593663
 20
32.85881856599524
 30
0.0
 40
2.0
  0
CIRCLE
  5
188
330
1B4
100
AcDbEntity
  8
1
 62
     7
100
AcDbCircle
 10
257.7567739126359
 20
32.85881856599522
 30
0.0
 40
2.0
  0
CIRCLE
  5
189
330
1B4
100
AcDbEntity
  8
1
 62
     7
100
AcDbCircle
 10
240.2197594860011
 20
42.98381856599524
 30
0.0
 40
4.0
  0
CIRCLE
  5
18A
330
1B4
100
AcDbEntity
  8
1
 62
     7
100
AcDbCircle
 10
-46.87217355521999
 20
42.98381856599524
 30
0.0
 40
4.0
  0
CIRCLE
  5
18B
330
1B4
100
AcDbEntity
  8
1
 62
     7
100
AcDbCircle
 10
-46.87217355521999
 20
42.98381856599524
 30
0.0
 40
9.0
  0
TEXT
  5
18D
330
1B4
100
AcDbEntity
  8
1
 62
     7
100
AcDbText
 10
-54.55578074258669
 20
125.3247745371409
 30
0.0
 40
4.0
  1
AMC 10
 41
0.9
  7
SIMPLEX
100
AcDbText
  0
ENDSEC
  0
SECTION
  2
OBJECTS
  0
DICTIONARY
  5
1A0
330
0
100
AcDbDictionary
281
     1
  3
ACAD_COLOR
350
1AF
  3
ACAD_GROUP
350
1A1
  3
ACAD_LAYOUT
350
1AD
  3
ACAD_MATERIAL
350
1AE
  3
ACAD_MLINESTYLE
350
1AA
  3
ACAD_PLOTSETTINGS
350
1AC
  3
ACAD_PLOTSTYLENAME
350
1A2
  0
DICTIONARY
  5
1AF
102
{ACAD_REACTORS
330
1A0
102
}
330
1A0
100
AcDbDictionary
281
     1
  0
DICTIONARY
  5
1A1
102
{ACAD_REACTORS
330
1A0
102
}
330
1A0
100
AcDbDictionary
281
     1
  0
DICTIONARY
  5
1AD
102
{ACAD_REACTORS
330
1A0
102
}
330
1A0
100
AcDbDictionary
281
     1
  3
Layout1
350
1B3
  3
Model
350
1B7
  0
DICTIONARY
  5
1AE
102
{ACAD_REACTORS
330
1A0
102
}
330
1A0
100
AcDbDictionary
281
     1
  0
DICTIONARY
  5
1AA
102
{ACAD_REACTORS
330
1A0
102
}
330
1A0
100
AcDbDictionary
281
     1
  3
Standard
350
1AB
  0
DICTIONARY
  5
1AC
102
{ACAD_REACTORS
330
1A0
102
}
330
1A0
100
AcDbDictionary
281
     1
  0
ACDBDICTIONARYWDFLT
  5
1A2
102
{ACAD_REACTORS
330
1A0
102
}
330
1A0
100
AcDbDictionary
281
     1
  3
Normal
350
1A3
100
AcDbDictionaryWithDefault
340
1A3
  0
LAYOUT
  5
1B3
102
{ACAD_REACTORS
330
1AD
102
}
330
1AD
100
AcDbPlotSettings
  1

  2
Microsoft Office Document Image Writer
  4

  6

 40
0.0
 41
0.0
 42
0.0
 43
0.0
 44
0.0
 45
0.0
 46
0.0
 47
0.0
 48
0.0
 49
0.0
140
0.0
141
0.0
142
1.0
143
1.0
 70
   688
 72
     0
 73
     0
 74
     5
  7

 75
    16
147
1.0
 76
     0
 77
     2
 78
   300
148
0.0
149
0.0
100
AcDbLayout
  1
Layout1
 70
     1
 71
     1
 10
0.0
 20
0.0
 11
12.0
 21
9.0
 12
0.0
 22
0.0
 32
0.0
 14
1.000000000000000E+20
 24
1.000000000000000E+20
 34
1.000000000000000E+20
 15
-1.000000000000000E+20
 25
-1.000000000000000E+20
 35
-1.000000000000000E+20
146
0.0
 13
0.0
 23
0.0
 33
0.0
 16
1.0
 26
0.0
 36
0.0
 17
0.0
 27
1.0
 37
0.0
 76
     0
330
1B0
  0
LAYOUT
  5
1B7
102
{ACAD_REACTORS
330
1AD
102
}
330
1AD
100
AcDbPlotSettings
  1

  2
Microsoft Office Document Image Writer
  4

  6

 40
0.0
 41
0.0
 42
0.0
 43
0.0
 44
0.0
 45
0.0
 46
0.0
 47
0.0
 48
0.0
 49
0.0
140
0.0
141
0.0
142
1.0
143
1.0
 70
  1712
 72
     0
 73
     0
 74
     0
  7

 75
     0
147
1.0
 76
     0
 77
     2
 78
   300
148
0.0
149
0.0
100
AcDbLayout
  1
Model
 70
     1
 71
     0
 10
0.0
 20
0.0
 11
12.0
 21
9.0
 12
0.0
 22
0.0
 32
0.0
 14
0.0
 24
0.0
 34
0.0
 15
0.0
 25
0.0
 35
0.0
146
0.0
 13
0.0
 23
0.0
 33
0.0
 16
1.0
 26
0.0
 36
0.0
 17
0.0
 27
1.0
 37
0.0
 76
     0
330
1B4
  0
MLINESTYLE
  5
1AB
102
{ACAD_REACTORS
330
1AA
102
}
330
1AA
100
AcDbMlineStyle
  2
STANDARD
 70
     0
  3

 62
   256
 51
90.0
 52
90.0
 71
     2
 49
0.5
 62
   256
  6
BYLAYER
 49
-0.5
 62
   256
  6
BYLAYER
  0
ACDBPLACEHOLDER
  5
1A3
102
{ACAD_REACTORS
330
1A2
102
}
330
1A2
  0
ENDSEC
  0
EOF
