  0
SECTION
  2
HEADER
  9
$ACADVER
  1
AC1018
  9
$ACADMAINTVER
 70
     0
  9
$DWGCODEPAGE
  3
ANSI_932
  9
$INSBASE
 10
0.0
 20
0.0
 30
0.0
  9
$EXTMIN
 10
-86.91191404477308
 20
23.03791341250613
 30
-0.0015258207003583
  9
$EXTMAX
 10
257.5052109446308
 20
155.6303348122008
 30
0.0000000349246037
  9
$LIMMIN
 10
-86.90140471158873
 20
23.04195925643521
  9
$LIMMAX
 10
257.4947000077272
 20
155.6262883508779
  9
$ORTHOMODE
 70
     0
  9
$REGENMODE
 70
     1
  9
$FILLMODE
 70
     1
  9
$QTEXTMODE
 70
     0
  9
$MIRRTEXT
 70
     1
  9
$LTSCALE
 40
1.0
  9
$ATTMODE
 70
     1
  9
$TEXTSIZE
 40
3.5
  9
$TRACEWID
 40
0.5
  9
$TEXTSTYLE
  7
STANDARD
  9
$CLAYER
  8
0
  9
$CELTYPE
  6
ByLayer
  9
$CECOLOR
 62
   256
  9
$CELTSCALE
 40
1.0
  9
$DISPSILH
 70
     0
  9
$DIMSCALE
 40
1.0
  9
$DIMASZ
 40
0.18
  9
$DIMEXO
 40
0.0625
  9
$DIMDLI
 40
0.38
  9
$DIMRND
 40
0.0
  9
$DIMDLE
 40
0.0
  9
$DIMEXE
 40
0.18
  9
$DIMTP
 40
0.0
  9
$DIMTM
 40
0.0
  9
$DIMTXT
 40
0.18
  9
$DIMCEN
 40
0.09
  9
$DIMTSZ
 40
0.0
  9
$DIMTOL
 70
     0
  9
$DIMLIM
 70
     0
  9
$DIMTIH
 70
     1
  9
$DIMTOH
 70
     1
  9
$DIMSE1
 70
     0
  9
$DIMSE2
 70
     0
  9
$DIMTAD
 70
     0
  9
$DIMZIN
 70
     0
  9
$DIMBLK
  1

  9
$DIMASO
 70
     1
  9
$DIMSHO
 70
     1
  9
$DIMPOST
  1

  9
$DIMAPOST
  1

  9
$DIMALT
 70
     0
  9
$DIMALTD
 70
     2
  9
$DIMALTF
 40
25.4
  9
$DIMLFAC
 40
1.0
  9
$DIMTOFL
 70
     0
  9
$DIMTVP
 40
0.0
  9
$DIMTIX
 70
     0
  9
$DIMSOXD
 70
     0
  9
$DIMSAH
 70
     0
  9
$DIMBLK1
  1

  9
$DIMBLK2
  1

  9
$DIMSTYLE
  2
STANDARD
  9
$DIMCLRD
 70
     0
  9
$DIMCLRE
 70
     0
  9
$DIMCLRT
 70
     0
  9
$DIMTFAC
 40
1.0
  9
$DIMGAP
 40
0.09
  9
$DIMJUST
 70
     0
  9
$DIMSD1
 70
     0
  9
$DIMSD2
 70
     0
  9
$DIMTOLJ
 70
     1
  9
$DIMTZIN
 70
     0
  9
$DIMALTZ
 70
     0
  9
$DIMALTTZ
 70
     0
  9
$DIMUPT
 70
     0
  9
$DIMDEC
 70
     4
  9
$DIMTDEC
 70
     4
  9
$DIMALTU
 70
     2
  9
$DIMALTTD
 70
     2
  9
$DIMTXSTY
  7
STANDARD
  9
$DIMAUNIT
 70
     0
  9
$DIMADEC
 70
     0
  9
$DIMALTRND
 40
0.0
  9
$DIMAZIN
 70
     0
  9
$DIMDSEP
 70
    46
  9
$DIMATFIT
 70
     3
  9
$DIMFRAC
 70
     0
  9
$DIMLDRBLK
  1

  9
$DIMLUNIT
 70
     2
  9
$DIMLWD
 70
    -2
  9
$DIMLWE
 70
    -2
  9
$DIMTMOVE
 70
     0
  9
$LUNITS
 70
     2
  9
$LUPREC
 70
     4
  9
$SKETCHINC
 40
0.1
  9
$FILLETRAD
 40
2.0
  9
$AUNITS
 70
     0
  9
$AUPREC
 70
     0
  9
$MENU
  1
ACAD
  9
$ELEVATION
 40
0.0
  9
$PELEVATION
 40
0.0
  9
$THICKNESS
 40
0.0
  9
$LIMCHECK
 70
     0
  9
$CHAMFERA
 40
0.0
  9
$CHAMFERB
 40
0.0
  9
$CHAMFERC
 40
0.0
  9
$CHAMFERD
 40
0.0
  9
$SKPOLY
 70
     0
  9
$TDCREATE
 40
2452093.899854977
  9
$TDUCREATE
 40
2452094.066521644
  9
$TDUPDATE
 40
2453209.433406389
  9
$TDUUPDATE
 40
2453209.600073055
  9
$TDINDWG
 40
0.0005524074
  9
$TDUSRTIMER
 40
0.0005522222
  9
$USRTIMER
 70
     1
  9
$ANGBASE
 50
0.0
  9
$ANGDIR
 70
     0
  9
$PDMODE
 70
     0
  9
$PDSIZE
 40
0.0
  9
$PLINEWID
 40
0.0
  9
$SPLFRAME
 70
     0
  9
$SPLINETYPE
 70
     6
  9
$SPLINESEGS
 70
     8
  9
$HANDSEED
  5
166
  9
$SURFTAB1
 70
     6
  9
$SURFTAB2
 70
     6
  9
$SURFTYPE
 70
     6
  9
$SURFU
 70
     6
  9
$SURFV
 70
     6
  9
$UCSBASE
  2

  9
$UCSNAME
  2

  9
$UCSORG
 10
0.0
 20
0.0
 30
0.0
  9
$UCSXDIR
 10
1.0
 20
0.0
 30
0.0
  9
$UCSYDIR
 10
0.0
 20
1.0
 30
0.0
  9
$UCSORTHOREF
  2

  9
$UCSORTHOVIEW
 70
     0
  9
$UCSORGTOP
 10
0.0
 20
0.0
 30
0.0
  9
$UCSORGBOTTOM
 10
0.0
 20
0.0
 30
0.0
  9
$UCSORGLEFT
 10
0.0
 20
0.0
 30
0.0
  9
$UCSORGRIGHT
 10
0.0
 20
0.0
 30
0.0
  9
$UCSORGFRONT
 10
0.0
 20
0.0
 30
0.0
  9
$UCSORGBACK
 10
0.0
 20
0.0
 30
0.0
  9
$PUCSBASE
  2

  9
$PUCSNAME
  2

  9
$PUCSORG
 10
0.0
 20
0.0
 30
0.0
  9
$PUCSXDIR
 10
1.0
 20
0.0
 30
0.0
  9
$PUCSYDIR
 10
0.0
 20
1.0
 30
0.0
  9
$PUCSORTHOREF
  2

  9
$PUCSORTHOVIEW
 70
     0
  9
$PUCSORGTOP
 10
0.0
 20
0.0
 30
0.0
  9
$PUCSORGBOTTOM
 10
0.0
 20
0.0
 30
0.0
  9
$PUCSORGLEFT
 10
0.0
 20
0.0
 30
0.0
  9
$PUCSORGRIGHT
 10
0.0
 20
0.0
 30
0.0
  9
$PUCSORGFRONT
 10
0.0
 20
0.0
 30
0.0
  9
$PUCSORGBACK
 10
0.0
 20
0.0
 30
0.0
  9
$USERI1
 70
     0
  9
$USERI2
 70
     0
  9
$USERI3
 70
     0
  9
$USERI4
 70
     0
  9
$USERI5
 70
     0
  9
$USERR1
 40
0.0
  9
$USERR2
 40
0.0
  9
$USERR3
 40
0.0
  9
$USERR4
 40
0.0
  9
$USERR5
 40
0.0
  9
$WORLDVIEW
 70
     1
  9
$SHADEDGE
 70
     3
  9
$SHADEDIF
 70
    70
  9
$TILEMODE
 70
     1
  9
$MAXACTVP
 70
    64
  9
$PINSBASE
 10
0.0
 20
0.0
 30
0.0
  9
$PLIMCHECK
 70
     0
  9
$PEXTMIN
 10
1.000000000000000E+20
 20
1.000000000000000E+20
 30
1.000000000000000E+20
  9
$PEXTMAX
 10
-1.000000000000000E+20
 20
-1.000000000000000E+20
 30
-1.000000000000000E+20
  9
$PLIMMIN
 10
0.0
 20
0.0
  9
$PLIMMAX
 10
12.0
 20
9.0
  9
$UNITMODE
 70
     0
  9
$VISRETAIN
 70
     1
  9
$PLINEGEN
 70
     0
  9
$PSLTSCALE
 70
     1
  9
$TREEDEPTH
 70
  3020
  9
$CMLSTYLE
  2
Standard
  9
$CMLJUST
 70
     0
  9
$CMLSCALE
 40
1.0
  9
$PROXYGRAPHICS
 70
     1
  9
$MEASUREMENT
 70
     0
  9
$CELWEIGHT
370
    -1
  9
$ENDCAPS
280
     0
  9
$JOINSTYLE
280
     0
  9
$LWDISPLAY
290
     0
  9
$INSUNITS
 70
     0
  9
$HYPERLINKBASE
  1

  9
$STYLESHEET
  1

  9
$XEDIT
290
     1
  9
$CEPSNTYPE
380
     0
  9
$PSTYLEMODE
290
     1
  9
$FINGERPRINTGUID
  2
{464C49EB-FFDB-47E6-8DC0-E7AEB6279732}
  9
$VERSIONGUID
  2
{4B268F43-91A2-42ED-9287-0A4586D3199E}
  9
$EXTNAMES
290
     1
  9
$PSVPSCALE
 40
0.0
  9
$OLESTARTUP
290
     0
  9
$SORTENTS
280
   127
  9
$INDEXCTL
280
     0
  9
$HIDETEXT
280
     0
  9
$XCLIPFRAME
290
     0
  9
$HALOGAP
280
     0
  9
$OBSCOLOR
 70
   257
  9
$OBSLTYPE
280
     0
  9
$INTERSECTIONDISPLAY
280
     0
  9
$INTERSECTIONCOLOR
 70
   257
  9
$DIMASSOC
280
     1
  9
$PROJECTNAME
  1

  0
ENDSEC
  0
SECTION
  2
CLASSES
  0
CLASS
  1
ACDBDICTIONARYWDFLT
  2
AcDbDictionaryWithDefault
  3
ObjectDBX Classes
 90
        0
 91
        1
280
     0
281
     0
  0
ENDSEC
  0
SECTION
  2
TABLES
  0
TABLE
  2
VPORT
  5
133
330
0
100
AcDbSymbolTable
 70
     2
  0
VPORT
  5
165
330
133
100
AcDbSymbolTableRecord
100
AcDbViewportTableRecord
  2
*Active
 70
     0
 10
0.0
 20
0.0
 11
1.0
 21
1.0
 12
85.29664844992884
 22
89.3341241123535
 13
0.0
 23
0.0
 14
1.0
 24
1.0
 15
0.0
 25
0.0
 16
0.0
 26
0.0
 36
1.0
 17
0.0
 27
0.0
 37
0.0
 40
213.1258134116039
 41
1.625
 42
50.0
 43
0.0
 44
0.0
 50
0.0
 51
0.0
 71
     0
 72
   100
 73
     1
 74
     1
 75
     0
 76
     0
 77
     0
 78
     0
281
     0
 65
     1
110
0.0
120
0.0
130
0.0
111
1.0
121
0.0
131
0.0
112
0.0
122
1.0
132
0.0
 79
     0
146
0.0
  0
ENDTAB
  0
TABLE
  2
LTYPE
  5
130
330
0
100
AcDbSymbolTable
 70
     9
  0
LTYPE
  5
13E
330
130
100
AcDbSymbolTableRecord
100
AcDbLinetypeTableRecord
  2
ByBlock
 70
     0
  3

 72
    65
 73
     0
 40
0.0
  0
LTYPE
  5
13F
330
130
100
AcDbSymbolTableRecord
100
AcDbLinetypeTableRecord
  2
ByLayer
 70
     0
  3

 72
    65
 73
     0
 40
0.0
  0
LTYPE
  5
140
330
130
100
AcDbSymbolTableRecord
100
AcDbLinetypeTableRecord
  2
CONTINUOUS
 70
     0
  3
Solid line
 72
    65
 73
     0
 40
0.0
  0
LTYPE
  5
150
330
130
100
AcDbSymbolTableRecord
100
AcDbLinetypeTableRecord
  2
BORDER
 70
     0
  3
__ __ . __ __ .
 72
    65
 73
     6
 40
15.86034692786323
 49
4.531527693675207
 74
     0
 49
-2.265763846837604
 74
     0
 49
4.531527693675207
 74
     0
 49
-2.265763846837604
 74
     0
 49
0.0
 74
     0
 49
-2.265763846837604
 74
     0
  0
LTYPE
  5
151
330
130
100
AcDbSymbolTableRecord
100
AcDbLinetypeTableRecord
  2
CENTER
 70
     0
  3
____ _ ____ _
 72
    65
 73
     4
 40
18.12611077470084
 49
11.32881923418801
 74
     0
 49
-2.265763846837604
 74
     0
 49
2.265763846837604
 74
     0
 49
-2.265763846837604
 74
     0
  0
LTYPE
  5
152
330
130
100
AcDbSymbolTableRecord
100
AcDbLinetypeTableRecord
  2
DASHDOT
 70
     0
  3
__ . __ . __ .
 72
    65
 73
     4
 40
9.063055387350418
 49
4.531527693675207
 74
     0
 49
-2.265763846837604
 74
     0
 49
0.0
 74
     0
 49
-2.265763846837604
 74
     0
  0
LTYPE
  5
153
330
130
100
AcDbSymbolTableRecord
100
AcDbLinetypeTableRecord
  2
DASHED
 70
     0
  3
__ __ __ __ __
 72
    65
 73
     2
 40
6.797291540512816
 49
4.531527693675207
 74
     0
 49
-2.265763846837604
 74
     0
  0
LTYPE
  5
154
330
130
100
AcDbSymbolTableRecord
100
AcDbLinetypeTableRecord
  2
DIVIDE
 70
     0
  3
__ . . __ . . 
 72
    65
 73
     6
 40
11.32881923418801
 49
4.531527693675207
 74
     0
 49
-2.265763846837604
 74
     0
 49
0.0
 74
     0
 49
-2.265763846837604
 74
     0
 49
0.0
 74
     0
 49
-2.265763846837604
 74
     0
  0
LTYPE
  5
155
330
130
100
AcDbSymbolTableRecord
100
AcDbLinetypeTableRecord
  2
DOT
 70
     0
  3
..............
 72
    65
 73
     4
 40
4.531527693675207
 49
0.0
 74
     0
 49
-2.265763846837604
 74
     0
 49
0.0
 74
     0
 49
-2.265763846837604
 74
     0
  0
LTYPE
  5
156
330
130
100
AcDbSymbolTableRecord
100
AcDbLinetypeTableRecord
  2
HIDDEN
 70
     0
  3
_ _ _ _ _ _ _
 72
    65
 73
     2
 40
3.398645770256405
 49
2.265763846837604
 74
     0
 49
-1.132881923418801
 74
     0
  0
LTYPE
  5
157
330
130
100
AcDbSymbolTableRecord
100
AcDbLinetypeTableRecord
  2
PHANTOM
 70
     0
  3
_____ _ _ _____ _ _ 
 72
    65
 73
     6
 40
22.65763846837605
 49
11.32881923418801
 74
     0
 49
-2.265763846837604
 74
     0
 49
2.265763846837604
 74
     0
 49
-2.265763846837604
 74
     0
 49
2.265763846837604
 74
     0
 49
-2.265763846837604
 74
     0
  0
ENDTAB
  0
TABLE
  2
LAYER
  5
12D
330
0
100
AcDbSymbolTable
 70
     2
  0
LAYER
  5
13B
330
12D
100
AcDbSymbolTableRecord
100
AcDbLayerTableRecord
  2
0
 70
     0
 62
     7
  6
CONTINUOUS
370
    -3
390
13A
  0
LAYER
  5
158
330
12D
100
AcDbSymbolTableRecord
100
AcDbLayerTableRecord
  2
1
 70
     0
 62
     7
  6
CONTINUOUS
370
    -3
390
13A
  0
ENDTAB
  0
TABLE
  2
STYLE
  5
12E
330
0
100
AcDbSymbolTable
 70
     4
  0
STYLE
  5
13C
330
12E
100
AcDbSymbolTableRecord
100
AcDbTextStyleTableRecord
  2
STANDARD
 70
     0
 40
0.0
 41
1.0
 50
0.0
 71
     0
 42
3.5
  3
txt
  4

  0
STYLE
  5
159
330
12E
100
AcDbSymbolTableRecord
100
AcDbTextStyleTableRecord
  2
SIMPLEX
 70
     0
 40
0.0
 41
1.0
 50
0.0
 71
     0
 42
3.5
  3
simplex
  4

  0
STYLE
  5
15A
330
12E
100
AcDbSymbolTableRecord
100
AcDbTextStyleTableRecord
  2
COMPLEX
 70
     0
 40
0.0
 41
1.0
 50
0.0
 71
     0
 42
3.5
  3
complex
  4

  0
STYLE
  5
15B
330
12E
100
AcDbSymbolTableRecord
100
AcDbTextStyleTableRecord
  2
ITALIC
 70
     0
 40
0.0
 41
1.0
 50
0.0
 71
     0
 42
3.5
  3
italic
  4

  0
ENDTAB
  0
TABLE
  2
VIEW
  5
131
330
0
100
AcDbSymbolTable
 70
     0
  0
ENDTAB
  0
TABLE
  2
UCS
  5
132
330
0
100
AcDbSymbolTable
 70
     0
  0
ENDTAB
  0
TABLE
  2
APPID
  5
134
330
0
100
AcDbSymbolTable
 70
     1
  0
APPID
  5
13D
330
134
100
AcDbSymbolTableRecord
100
AcDbRegAppTableRecord
  2
ACAD
 70
     0
  0
ENDTAB
  0
TABLE
  2
DIMSTYLE
  5
135
330
0
100
AcDbSymbolTable
 70
     1
100
AcDbDimStyleTable
 71
     0
  0
DIMSTYLE
105
15C
330
135
100
AcDbSymbolTableRecord
100
AcDbDimStyleTableRecord
  2
STANDARD
 70
     0
279
     2
340
13C
  0
ENDTAB
  0
TABLE
  2
BLOCK_RECORD
  5
12C
330
0
100
AcDbSymbolTable
 70
     2
  0
BLOCK_RECORD
  5
14B
330
12C
100
AcDbSymbolTableRecord
100
AcDbBlockTableRecord
  2
*Model_Space
340
14E
  0
BLOCK_RECORD
  5
147
330
12C
100
AcDbSymbolTableRecord
100
AcDbBlockTableRecord
  2
*Paper_Space
340
14A
  0
BLOCK_RECORD
  5
161
330
12C
100
AcDbSymbolTableRecord
100
AcDbBlockTableRecord
  2
$MODEL_SPACE
340
0
  0
BLOCK_RECORD
  5
163
330
12C
100
AcDbSymbolTableRecord
100
AcDbBlockTableRecord
  2
$PAPER_SPACE
340
0
  0
ENDTAB
  0
ENDSEC
  0
SECTION
  2
BLOCKS
  0
BLOCK
  5
14C
330
14B
100
AcDbEntity
  8
0
100
AcDbBlockBegin
  2
*Model_Space
 70
     0
 10
0.0
 20
0.0
 30
0.0
  3
*Model_Space
  1

  0
ENDBLK
  5
14D
330
14B
100
AcDbEntity
  8
0
100
AcDbBlockEnd
  0
BLOCK
  5
148
330
147
100
AcDbEntity
 67
     1
  8
0
100
AcDbBlockBegin
  2
*Paper_Space
 70
     0
 10
0.0
 20
0.0
 30
0.0
  3
*Paper_Space
  1

  0
ENDBLK
  5
149
330
147
100
AcDbEntity
 67
     1
  8
0
100
AcDbBlockEnd
  0
BLOCK
  5
162
330
161
100
AcDbEntity
  8
0
100
AcDbBlockBegin
  2
$MODEL_SPACE
 70
     0
 10
0.0
 20
0.0
 30
0.0
  3
$MODEL_SPACE
  1

  0
ENDBLK
  5
20
330
161
100
AcDbEntity
  8
0
100
AcDbBlockEnd
  0
BLOCK
  5
164
330
163
100
AcDbEntity
  8
0
100
AcDbBlockBegin
  2
$PAPER_SPACE
 70
     0
 10
0.0
 20
0.0
 30
0.0
  3
$PAPER_SPACE
  1

  0
ENDBLK
  5
1C
330
163
100
AcDbEntity
  8
0
100
AcDbBlockEnd
  0
ENDSEC
  0
SECTION
  2
ENTITIES
  0
POINT
  5
33
330
14B
100
AcDbEntity
  8
1
  6
DOT
 62
     7
100
AcDbPoint
 10
215.144700007727
 20
70.47283486989909
 30
0.0
  0
POINT
  5
34
330
14B
100
AcDbEntity
  8
1
  6
DOT
 62
     7
100
AcDbPoint
 10
229.544700007727
 20
51.27283486989909
 30
0.0
  0
POINT
  5
35
330
14B
100
AcDbEntity
  8
1
  6
DOT
 62
     7
100
AcDbPoint
 10
216.9781368617273
 20
50.1397085779001
 30
0.0
  0
POINT
  5
36
330
14B
100
AcDbEntity
  8
1
  6
DOT
 62
     7
100
AcDbPoint
 10
227.7112631537264
 20
71.60596116189807
 30
0.0
  0
POINT
  5
37
330
14B
100
AcDbEntity
  8
1
  6
DOT
 62
     7
100
AcDbPoint
 10
222.344700007727
 20
53.37283486989909
 30
0.0
  0
POINT
  5
38
330
14B
100
AcDbEntity
  8
1
  6
DOT
 62
     7
100
AcDbPoint
 10
204.1012121197538
 20
23.04195925643521
 30
0.0
  0
LINE
  5
39
330
14B
100
AcDbEntity
  8
1
 62
     7
100
AcDbLine
 10
61.10466825793935
 20
76.87283486989909
 30
0.0
 11
84.00466825793923
 21
76.87283486989912
 31
0.0
  0
LINE
  5
3A
330
14B
100
AcDbEntity
  8
1
 62
     7
100
AcDbLine
 10
56.90466825793932
 20
76.87283486989909
 30
0.0
 11
59.75466825793933
 21
76.87283486989909
 31
0.0
  0
LINE
  5
3B
330
14B
100
AcDbEntity
  8
1
 62
     7
100
AcDbLine
 10
61.10466825793935
 20
77.72283486989909
 30
0.0
 11
61.10466825793935
 21
76.87283486989909
 31
0.0
  0
LINE
  5
3C
330
14B
100
AcDbEntity
  8
1
 62
     7
100
AcDbLine
 10
59.75466825793933
 20
77.72283486989909
 30
0.0
 11
61.10466825793935
 21
77.72283486989909
 31
0.0
  0
LINE
  5
3D
330
14B
100
AcDbEntity
  8
1
 62
     7
100
AcDbLine
 10
56.90466825793932
 20
95.9728348698991
 30
0.0
 11
56.90466825793932
 21
76.87283486989909
 31
0.0
  0
LINE
  5
3E
330
14B
100
AcDbEntity
  8
1
 62
     7
100
AcDbLine
 10
58.80466825793932
 20
95.9728348698991
 30
0.0
 11
56.90466825793932
 21
95.9728348698991
 31
0.0
  0
LINE
  5
3F
330
14B
100
AcDbEntity
  8
1
 62
     7
100
AcDbLine
 10
59.80466825793932
 20
95.87283486989912
 30
0.0
 11
58.80466825793932
 21
94.87283486989912
 31
0.0
  0
LINE
  5
40
330
14B
100
AcDbEntity
  8
1
 62
     7
100
AcDbLine
 10
84.00466825793923
 20
94.07283486989912
 30
0.0
 11
84.00466825793923
 21
76.37283486989912
 31
0.0
  0
LINE
  5
41
330
14B
100
AcDbEntity
  8
1
 62
     7
100
AcDbLine
 10
92.40466825793932
 20
94.07283486989912
 30
0.0
 11
84.00466825793923
 21
94.07283486989912
 31
0.0
  0
LINE
  5
42
330
14B
100
AcDbEntity
  8
1
 62
     7
100
AcDbLine
 10
59.75466825793933
 20
77.72283486989909
 30
0.0
 11
59.75466825793933
 21
76.87283486989909
 31
0.0
  0
LINE
  5
43
330
14B
100
AcDbEntity
  8
1
 62
     7
100
AcDbLine
 10
63.80466825793932
 20
96.27283486989909
 30
0.0
 11
68.80466825793928
 21
96.27283486989911
 31
0.0
  0
LINE
  5
44
330
14B
100
AcDbEntity
  8
1
 62
     7
100
AcDbLine
 10
68.80466825793928
 20
96.27283486989911
 30
0.0
 11
68.80466825793928
 21
95.87283486989912
 31
0.0
  0
LINE
  5
45
330
14B
100
AcDbEntity
  8
1
 62
     7
100
AcDbLine
 10
59.80466825793932
 20
95.87283486989912
 30
0.0
 11
92.4046682579393
 21
95.87283486989912
 31
0.0
  0
LINE
  5
46
330
14B
100
AcDbEntity
  8
1
 62
     7
100
AcDbLine
 10
84.00466825793923
 20
85.87283486989912
 30
0.0
 11
84.40466825793931
 21
85.87283486989912
 31
0.0
  0
LINE
  5
47
330
14B
100
AcDbEntity
  8
1
 62
     7
100
AcDbLine
 10
84.40466825793931
 20
76.87283486989912
 30
0.0
 11
84.00466825793923
 21
76.87283486989912
 31
0.0
  0
LINE
  5
48
330
14B
100
AcDbEntity
  8
1
 62
     7
100
AcDbLine
 10
84.40466825793931
 20
76.37283486989912
 30
0.0
 11
82.10466825793929
 21
76.37283486989912
 31
0.0
  0
LINE
  5
49
330
14B
100
AcDbEntity
  8
1
 62
     7
100
AcDbLine
 10
82.10466825793929
 20
76.37283486989912
 30
0.0
 11
82.10466825793929
 21
74.87283486989912
 31
0.0
  0
LINE
  5
4A
330
14B
100
AcDbEntity
  8
1
 62
     7
100
AcDbLine
 10
82.10466825793929
 20
74.87283486989912
 30
0.0
 11
91.50466825793932
 21
74.87283486989912
 31
0.0
  0
LINE
  5
4B
330
14B
100
AcDbEntity
  8
1
 62
     7
100
AcDbLine
 10
91.50466825793932
 20
81.6228348698991
 30
0.0
 11
91.50466825793932
 21
74.87283486989912
 31
0.0
  0
LINE
  5
4C
330
14B
100
AcDbEntity
  8
1
 62
     7
100
AcDbLine
 10
84.40466825793931
 20
84.87283486989912
 30
0.0
 11
92.40466825793932
 21
84.87283486989912
 31
0.0
  0
LINE
  5
4D
330
14B
100
AcDbEntity
  8
1
 62
     7
100
AcDbLine
 10
84.40466825793931
 20
94.07283486989912
 30
0.0
 11
84.40466825793931
 21
76.37283486989912
 31
0.0
  0
LINE
  5
4E
330
14B
100
AcDbEntity
  8
1
 62
     7
100
AcDbLine
 10
90.50466825793929
 20
84.87283486989912
 30
0.0
 11
90.50466825793929
 21
94.07283486989912
 31
0.0
  0
LINE
  5
4F
330
14B
100
AcDbEntity
  8
1
 62
     7
100
AcDbLine
 10
92.4046682579393
 20
95.87283486989912
 30
0.0
 11
92.4046682579393
 21
74.87283486989912
 31
0.0
  0
LINE
  5
50
330
14B
100
AcDbEntity
  8
1
 62
     7
100
AcDbLine
 10
92.40466825793932
 20
82.52283486989906
 30
0.0
 11
91.50466825793932
 21
81.6228348698991
 31
0.0
  0
LINE
  5
51
330
14B
100
AcDbEntity
  8
1
 62
     7
100
AcDbLine
 10
63.80466825793928
 20
95.87283486989912
 30
0.0
 11
63.80466825793932
 21
96.27283486989909
 31
0.0
  0
LINE
  5
52
330
14B
100
AcDbEntity
  8
1
 62
     7
100
AcDbLine
 10
58.80466825793932
 20
95.9728348698991
 30
0.0
 11
58.80466825793932
 21
76.87283486989909
 31
0.0
  0
LINE
  5
53
330
14B
100
AcDbEntity
  8
1
 62
     7
100
AcDbLine
 10
84.00466825793923
 20
44.87283486989911
 30
0.0
 11
61.1046682579393
 21
44.87283486989911
 31
0.0
  0
LINE
  5
54
330
14B
100
AcDbEntity
  8
1
 62
     7
100
AcDbLine
 10
59.75466825793927
 20
44.87283486989911
 30
0.0
 11
56.90466825793931
 21
44.87283486989911
 31
0.0
  0
LINE
  5
55
330
14B
100
AcDbEntity
  8
1
 62
     7
100
AcDbLine
 10
61.1046682579393
 20
44.02283486989911
 30
0.0
 11
59.75466825793927
 21
44.02283486989911
 31
0.0
  0
LINE
  5
56
330
14B
100
AcDbEntity
  8
1
 62
     7
100
AcDbLine
 10
56.90466825793932
 20
25.7728348698991
 30
0.0
 11
58.80466825793928
 21
25.7728348698991
 31
0.0
  0
LINE
  5
57
330
14B
100
AcDbEntity
  8
1
 62
     7
100
AcDbLine
 10
58.80466825793928
 20
26.8728348698991
 30
0.0
 11
59.80466825793929
 21
25.8728348698991
 31
0.0
  0
LINE
  5
58
330
14B
100
AcDbEntity
  8
1
 62
     7
100
AcDbLine
 10
84.00466825793923
 20
45.37283486989911
 30
0.0
 11
84.00466825793923
 21
27.67283486989909
 31
0.0
  0
LINE
  5
59
330
14B
100
AcDbEntity
  8
1
 62
     7
100
AcDbLine
 10
84.00466825793923
 20
27.67283486989909
 30
0.0
 11
92.40466825793932
 21
27.67283486989909
 31
0.0
  0
LINE
  5
5A
330
14B
100
AcDbEntity
  8
1
 62
     7
100
AcDbLine
 10
92.4046682579393
 20
25.87283486989909
 30
0.0
 11
59.80466825793929
 21
25.8728348698991
 31
0.0
  0
LINE
  5
5B
330
14B
100
AcDbEntity
  8
1
 62
     7
100
AcDbLine
 10
84.40466825793931
 20
35.8728348698991
 30
0.0
 11
84.00466825793923
 21
35.8728348698991
 31
0.0
  0
LINE
  5
5C
330
14B
100
AcDbEntity
  8
1
 62
     7
100
AcDbLine
 10
84.00466825793923
 20
44.87283486989911
 30
0.0
 11
84.40466825793931
 21
44.87283486989911
 31
0.0
  0
LINE
  5
5D
330
14B
100
AcDbEntity
  8
1
 62
     7
100
AcDbLine
 10
82.10466825793929
 20
45.37283486989911
 30
0.0
 11
84.40466825793931
 21
45.37283486989911
 31
0.0
  0
LINE
  5
5E
330
14B
100
AcDbEntity
  8
1
 62
     7
100
AcDbLine
 10
91.50466825793932
 20
46.87283486989911
 30
0.0
 11
82.10466825793929
 21
46.87283486989911
 31
0.0
  0
LINE
  5
5F
330
14B
100
AcDbEntity
  8
1
 62
     7
100
AcDbLine
 10
92.40466825793932
 20
36.8728348698991
 30
0.0
 11
84.40466825793931
 21
36.8728348698991
 31
0.0
  0
LINE
  5
60
330
14B
100
AcDbEntity
  8
1
 62
     7
100
AcDbLine
 10
84.40466825793931
 20
45.37283486989911
 30
0.0
 11
84.40466825793931
 21
27.67283486989909
 31
0.0
  0
LINE
  5
61
330
14B
100
AcDbEntity
  8
1
 62
     7
100
AcDbLine
 10
90.50466825793929
 20
27.67283486989909
 30
0.0
 11
90.50466825793929
 21
36.8728348698991
 31
0.0
  0
LINE
  5
62
330
14B
100
AcDbEntity
  8
1
 62
     7
100
AcDbLine
 10
91.50466825793932
 20
40.1228348698991
 30
0.0
 11
92.40466825793932
 21
39.22283486989911
 31
0.0
  0
LINE
  5
63
330
14B
100
AcDbEntity
  8
1
  6
DASHDOT
 62
     3
100
AcDbLine
 10
56.90466825793931
 20
60.87283486989912
 30
0.0
 11
51.90466825793931
 21
60.87283486989912
 31
0.0
  0
LINE
  5
64
330
14B
100
AcDbEntity
  8
1
 62
     7
100
AcDbLine
 10
98.30466825793928
 20
79.37283486989912
 30
0.0
 11
98.30466825793928
 21
95.3728348698991
 31
0.0
  0
LINE
  5
65
330
14B
100
AcDbEntity
  8
1
 62
     7
100
AcDbLine
 10
103.7046682579393
 20
75.97283486989908
 30
0.0
 11
110.4046682579392
 21
75.97283486989908
 31
0.0
  0
LINE
  5
66
330
14B
100
AcDbEntity
  8
1
 62
     7
100
AcDbLine
 10
103.7046682579393
 20
78.77283486989909
 30
0.0
 11
110.4046682579392
 21
78.77283486989909
 31
0.0
  0
LINE
  5
67
330
14B
100
AcDbEntity
  8
1
 62
     3
100
AcDbLine
 10
103.1046682579392
 20
75.37283486989912
 30
0.0
 11
110.4046682579392
 21
75.37283486989912
 31
0.0
  0
LINE
  5
68
330
14B
100
AcDbEntity
  8
1
 62
     3
100
AcDbLine
 10
103.1046682579392
 20
79.37283486989912
 30
0.0
 11
110.4046682579392
 21
79.37283486989912
 31
0.0
  0
LINE
  5
69
330
14B
100
AcDbEntity
  8
1
 62
     3
100
AcDbLine
 10
99.2438987424806
 20
78.77283486989909
 30
0.0
 11
98.20466825793928
 21
79.37283486989912
 31
0.0
  0
LINE
  5
6A
330
14B
100
AcDbEntity
  8
1
 62
     3
100
AcDbLine
 10
103.7046682579393
 20
78.77283486989909
 30
0.0
 11
99.2438987424806
 21
78.77283486989909
 31
0.0
  0
LINE
  5
6B
330
14B
100
AcDbEntity
  8
1
 62
     3
100
AcDbLine
 10
99.2438987424806
 20
75.97283486989908
 30
0.0
 11
98.20466825793928
 21
75.37283486989912
 31
0.0
  0
LINE
  5
6C
330
14B
100
AcDbEntity
  8
1
 62
     3
100
AcDbLine
 10
103.7046682579393
 20
75.97283486989908
 30
0.0
 11
99.2438987424806
 21
75.97283486989908
 31
0.0
  0
LINE
  5
6D
330
14B
100
AcDbEntity
  8
1
 62
     7
100
AcDbLine
 10
99.2438987424806
 20
75.37283486989912
 30
0.0
 11
99.2438987424806
 21
79.37283486989912
 31
0.0
  0
LINE
  5
6E
330
14B
100
AcDbEntity
  8
1
 62
     7
100
AcDbLine
 10
103.1046682579392
 20
75.37283486989912
 30
0.0
 11
103.1046682579392
 21
79.37283486989912
 31
0.0
  0
LINE
  5
6F
330
14B
100
AcDbEntity
  8
1
 62
     7
100
AcDbLine
 10
103.1046682579392
 20
79.37283486989912
 30
0.0
 11
97.70466825793926
 21
79.37283486989912
 31
0.0
  0
LINE
  5
70
330
14B
100
AcDbEntity
  8
1
 62
     7
100
AcDbLine
 10
103.7046682579393
 20
78.77283486989909
 30
0.0
 11
103.1046682579392
 21
79.37283486989912
 31
0.0
  0
LINE
  5
71
330
14B
100
AcDbEntity
  8
1
 62
     7
100
AcDbLine
 10
103.7046682579393
 20
75.97283486989908
 30
0.0
 11
103.7046682579393
 21
78.77283486989909
 31
0.0
  0
LINE
  5
72
330
14B
100
AcDbEntity
  8
1
 62
     7
100
AcDbLine
 10
103.1046682579392
 20
75.37283486989912
 30
0.0
 11
103.7046682579393
 21
75.97283486989908
 31
0.0
  0
LINE
  5
73
330
14B
100
AcDbEntity
  8
1
 62
     7
100
AcDbLine
 10
97.70466825793926
 20
75.37283486989912
 30
0.0
 11
103.1046682579392
 21
75.37283486989912
 31
0.0
  0
LINE
  5
74
330
14B
100
AcDbEntity
  8
1
 62
     7
100
AcDbLine
 10
94.00466825793929
 20
73.87283486989912
 30
0.0
 11
94.00466825793929
 21
80.87283486989912
 31
0.0
  0
LINE
  5
75
330
14B
100
AcDbEntity
  8
1
 62
     7
100
AcDbLine
 10
94.00466825793929
 20
80.87283486989912
 30
0.0
 11
97.70466825793926
 21
80.87283486989912
 31
0.0
  0
LINE
  5
76
330
14B
100
AcDbEntity
  8
1
 62
     7
100
AcDbLine
 10
93.70466825793926
 20
80.35321962762845
 30
0.0
 11
94.00466825793929
 21
80.87283486989912
 31
0.0
  0
LINE
  5
77
330
14B
100
AcDbEntity
  8
1
 62
     7
100
AcDbLine
 10
93.70466825793926
 20
74.39245011216979
 30
0.0
 11
93.70466825793926
 21
80.35321962762845
 31
0.0
  0
LINE
  5
78
330
14B
100
AcDbEntity
  8
1
 62
     7
100
AcDbLine
 10
94.00466825793929
 20
73.87283486989912
 30
0.0
 11
93.70466825793926
 21
74.39245011216979
 31
0.0
  0
LINE
  5
79
330
14B
100
AcDbEntity
  8
1
 62
     7
100
AcDbLine
 10
97.70466825793926
 20
73.87283486989912
 30
0.0
 11
94.00466825793929
 21
73.87283486989912
 31
0.0
  0
LINE
  5
7A
330
14B
100
AcDbEntity
  8
1
 62
     7
100
AcDbLine
 10
93.90466825793925
 20
27.37283486989912
 30
0.0
 11
93.90466825793925
 21
32.37283486989912
 31
0.0
  0
LINE
  5
7B
330
14B
100
AcDbEntity
  8
1
 62
     7
100
AcDbLine
 10
98.30466825793928
 20
26.37283486989911
 30
0.0
 11
97.70466825793926
 21
26.37283486989911
 31
0.0
  0
LINE
  5
7C
330
14B
100
AcDbEntity
  8
1
 62
     7
100
AcDbLine
 10
97.70466825793926
 20
95.3728348698991
 30
0.0
 11
98.30466825793928
 21
95.3728348698991
 31
0.0
  0
LINE
  5
7D
330
14B
100
AcDbEntity
  8
1
 62
     7
100
AcDbLine
 10
92.70466825793926
 20
96.02283486989911
 30
0.0
 11
97.70466825793926
 21
96.02283486989911
 31
0.0
  0
LINE
  5
7E
330
14B
100
AcDbEntity
  8
1
 62
     7
100
AcDbLine
 10
97.70466825793926
 20
96.02283486989911
 30
0.0
 11
97.70466825793926
 21
73.87283486989912
 31
0.0
  0
LINE
  5
7F
330
14B
100
AcDbEntity
  8
1
 62
     7
100
AcDbLine
 10
97.70466825793926
 20
25.72283486989915
 30
0.0
 11
92.70466825793926
 21
25.72283486989915
 31
0.0
  0
LINE
  5
80
330
14B
100
AcDbEntity
  8
1
 62
     7
100
AcDbLine
 10
92.70466825793926
 20
25.72283486989915
 30
0.0
 11
92.70466825793926
 21
46.87283486989911
 31
0.0
  0
LINE
  5
81
330
14B
100
AcDbEntity
  8
1
 62
     7
100
AcDbLine
 10
97.70466825793926
 20
81.87283486989912
 30
0.0
 11
92.70466825793926
 21
81.87283486989912
 31
0.0
  0
LINE
  5
82
330
14B
100
AcDbEntity
  8
1
 62
     7
100
AcDbLine
 10
95.20466825793926
 20
26.27283486989909
 30
0.0
 11
92.70466825793926
 21
26.27283486989909
 31
0.0
  0
LINE
  5
83
330
14B
100
AcDbEntity
  8
1
 62
     7
100
AcDbLine
 10
95.20466825793926
 20
33.47283486989915
 30
0.0
 11
95.20466825793926
 21
26.27283486989909
 31
0.0
  0
LINE
  5
84
330
14B
100
AcDbEntity
  8
1
 62
     7
100
AcDbLine
 10
92.70466825793926
 20
33.47283486989915
 30
0.0
 11
95.20466825793926
 21
33.47283486989915
 31
0.0
  0
LINE
  5
85
330
14B
100
AcDbEntity
  8
1
 62
     7
100
AcDbLine
 10
98.30466825793928
 20
27.7728348698991
 30
0.0
 11
95.20466825793926
 21
27.7728348698991
 31
0.0
  0
LINE
  5
86
330
14B
100
AcDbEntity
  8
1
 62
     7
100
AcDbLine
 10
98.30466825793928
 20
31.97283486989915
 30
0.0
 11
95.20466825793926
 21
31.97283486989915
 31
0.0
  0
LINE
  5
87
330
14B
100
AcDbEntity
  8
1
 62
     7
100
AcDbLine
 10
97.70466825793926
 20
44.37283486989912
 30
0.0
 11
92.70466825793926
 21
44.37283486989912
 31
0.0
  0
LINE
  5
88
330
14B
100
AcDbEntity
  8
1
 62
     7
100
AcDbLine
 10
97.70466825793926
 20
27.7728348698991
 30
0.0
 11
97.70466825793926
 21
25.72283486989915
 31
0.0
  0
LINE
  5
89
330
14B
100
AcDbEntity
  8
1
 62
     7
100
AcDbLine
 10
98.30466825793928
 20
73.87283486989912
 30
0.0
 11
92.80466825793928
 21
73.87283486989912
 31
0.0
  0
LINE
  5
8A
330
14B
100
AcDbEntity
  8
1
 62
     7
100
AcDbLine
 10
92.80466825793928
 20
47.87283486989912
 30
0.0
 11
98.30466825793928
 21
47.87283486989912
 31
0.0
  0
LINE
  5
8B
330
14B
100
AcDbEntity
  8
1
 62
     7
100
AcDbLine
 10
92.80466825793928
 20
67.9439026817646
 30
0.0
 11
110.4046682579393
 21
67.9439026817646
 31
0.0
  0
LINE
  5
8C
330
14B
100
AcDbEntity
  8
1
 62
     7
100
AcDbLine
 10
92.80466825793928
 20
70.37283486989912
 30
0.0
 11
110.4046682579392
 21
70.37283486989912
 31
0.0
  0
LINE
  5
8D
330
14B
100
AcDbEntity
  8
1
 62
     7
100
AcDbLine
 10
92.80466825793928
 20
53.37283486989912
 30
0.0
 11
110.4046682579392
 21
53.37283486989912
 31
0.0
  0
LINE
  5
8E
330
14B
100
AcDbEntity
  8
1
 62
     7
100
AcDbLine
 10
110.4046682579392
 20
40.8728348698991
 30
0.0
 11
98.30466825793928
 21
40.8728348698991
 31
0.0
  0
LINE
  5
8F
330
14B
100
AcDbEntity
  8
1
 62
     7
100
AcDbLine
 10
110.4046682579392
 20
80.87283486989912
 30
0.0
 11
110.4046682579393
 21
67.9439026817646
 31
0.0
  0
LINE
  5
90
330
14B
100
AcDbEntity
  8
1
 62
     7
100
AcDbLine
 10
98.30466825793928
 20
80.87283486989912
 30
0.0
 11
110.4046682579392
 21
80.87283486989912
 31
0.0
  0
LINE
  5
91
330
14B
100
AcDbEntity
  8
1
 62
     7
100
AcDbLine
 10
92.80466825793928
 20
73.87283486989912
 30
0.0
 11
92.80466825793928
 21
67.9439026817646
 31
0.0
  0
LINE
  5
92
330
14B
100
AcDbEntity
  8
1
 62
     3
100
AcDbLine
 10
107.9046682579392
 20
40.8728348698991
 30
0.0
 11
107.9046682579392
 21
53.37283486989912
 31
0.0
  0
LINE
  5
93
330
14B
100
AcDbEntity
  8
1
 62
     3
100
AcDbLine
 10
102.9046682579392
 20
40.8728348698991
 30
0.0
 11
102.9046682579392
 21
53.37283486989912
 31
0.0
  0
LINE
  5
94
330
14B
100
AcDbEntity
  8
1
 62
     7
100
AcDbLine
 10
107.1546682579392
 20
40.8728348698991
 30
0.0
 11
107.1546682579392
 21
53.37283486989912
 31
0.0
  0
LINE
  5
95
330
14B
100
AcDbEntity
  8
1
 62
     7
100
AcDbLine
 10
103.6546682579392
 20
40.8728348698991
 30
0.0
 11
103.6546682579392
 21
53.37283486989912
 31
0.0
  0
LINE
  5
96
330
14B
100
AcDbEntity
  8
1
 62
     7
100
AcDbLine
 10
98.30466825793928
 20
26.37283486989911
 30
0.0
 11
98.30466825793928
 21
47.87283486989912
 31
0.0
  0
LINE
  5
97
330
14B
100
AcDbEntity
  8
1
 62
     7
100
AcDbLine
 10
97.70466825793926
 20
47.87283486989912
 30
0.0
 11
97.70466825793926
 21
31.97283486989915
 31
0.0
  0
LINE
  5
98
330
14B
100
AcDbEntity
  8
1
 62
     7
100
AcDbLine
 10
98.30466825793928
 20
73.87283486989912
 30
0.0
 11
98.30466825793928
 21
75.37283486989912
 31
0.0
  0
LINE
  5
99
330
14B
100
AcDbEntity
  8
1
  6
DASHDOT
 62
     3
100
AcDbLine
 10
101.4046682579392
 20
60.87283486989912
 30
0.0
 11
109.4046682579392
 21
60.87283486989912
 31
0.0
  0
LINE
  5
9A
330
14B
100
AcDbEntity
  8
1
  6
DASHDOT
 62
     3
100
AcDbLine
 10
105.4046682579392
 20
56.87283486989912
 30
0.0
 11
105.4046682579392
 21
64.87283486989912
 31
0.0
  0
LINE
  5
9B
330
14B
100
AcDbEntity
  8
1
  6
DASHDOT
 62
     3
100
AcDbLine
 10
110.4046682579392
 20
60.87283486989912
 30
0.0
 11
115.4046682579392
 21
60.87283486989912
 31
0.0
  0
LINE
  5
9C
330
14B
100
AcDbEntity
  8
1
  6
DASHDOT
 62
     3
100
AcDbLine
 10
105.4046682579392
 20
55.23967587101109
 30
0.0
 11
105.4046682579392
 21
39.00599386878713
 31
0.0
  0
LINE
  5
9D
330
14B
100
AcDbEntity
  8
1
  6
DASHDOT
 62
     3
100
AcDbLine
 10
-28.40140471158875
 20
60.8728348698991
 30
0.0
 11
-23.40140471158874
 21
60.8728348698991
 31
0.0
  0
LINE
  5
9E
330
14B
100
AcDbEntity
  8
1
  6
DASHDOT
 62
     3
100
AcDbLine
 10
-81.90140471158875
 20
60.8728348698991
 30
0.0
 11
-86.90140471158873
 21
60.8728348698991
 31
0.0
  0
LINE
  5
9F
330
14B
100
AcDbEntity
  8
1
 62
     7
100
AcDbLine
 10
-81.90140471158875
 20
25.7728348698991
 30
0.0
 11
-81.90140471158875
 21
95.9728348698991
 31
0.0
  0
LINE
  5
A0
330
14B
100
AcDbEntity
  8
1
 62
     7
100
AcDbLine
 10
-28.40140471158875
 20
40.87283486989909
 30
0.0
 11
-28.40140471158875
 21
80.87283486989909
 31
0.0
  0
LINE
  5
A1
330
14B
100
AcDbEntity
  8
1
 62
     7
100
AcDbLine
 10
-75.00140471158871
 20
95.87283486989912
 30
0.0
 11
-75.00140471158871
 21
96.27283486989909
 31
0.0
  0
LINE
  5
A2
330
14B
100
AcDbEntity
  8
1
 62
     7
100
AcDbLine
 10
-46.40140471158875
 20
95.87283486989912
 30
0.0
 11
-46.40140471158875
 21
25.87283486989909
 31
0.0
  0
LINE
  5
A3
330
14B
100
AcDbEntity
  8
1
 62
     7
100
AcDbLine
 10
-79.00140471158872
 20
95.87283486989912
 30
0.0
 11
-46.40140471158875
 21
95.87283486989912
 31
0.0
  0
LINE
  5
A4
330
14B
100
AcDbEntity
  8
1
 62
     7
100
AcDbLine
 10
-71.58140471158876
 20
120.4228989370134
 30
0.0
 11
-71.58140471158876
 21
96.27283486989909
 31
0.0
  0
LINE
  5
A5
330
14B
100
AcDbEntity
  8
1
 62
     7
100
AcDbLine
 10
-73.42140471158877
 20
120.4228989370134
 30
0.0
 11
-73.42140471158877
 21
96.27283486989909
 31
0.0
  0
LINE
  5
A6
330
14B
100
AcDbEntity
  8
1
 62
     7
100
AcDbLine
 10
-70.00140471158871
 20
96.27283486989909
 30
0.0
 11
-70.00140471158871
 21
95.87283486989912
 31
0.0
  0
LINE
  5
A7
330
14B
100
AcDbEntity
  8
1
 62
     7
100
AcDbLine
 10
-75.00140471158871
 20
96.27283486989909
 30
0.0
 11
-70.00140471158871
 21
96.27283486989909
 31
0.0
  0
LINE
  5
A8
330
14B
100
AcDbEntity
  8
1
 62
     7
100
AcDbLine
 10
-79.00140471158872
 20
25.8728348698991
 30
0.0
 11
-79.00140471158872
 21
95.87283486989912
 31
0.0
  0
LINE
  5
A9
330
14B
100
AcDbEntity
  8
1
 62
     7
100
AcDbLine
 10
-80.0014047115887
 20
25.7728348698991
 30
0.0
 11
-80.0014047115887
 21
95.9728348698991
 31
0.0
  0
LINE
  5
AA
330
14B
100
AcDbEntity
  8
1
 62
     7
100
AcDbLine
 10
-79.00140471158872
 20
95.87283486989912
 30
0.0
 11
-80.0014047115887
 21
94.87283486989912
 31
0.0
  0
LINE
  5
AB
330
14B
100
AcDbEntity
  8
1
 62
     7
100
AcDbLine
 10
-80.0014047115887
 20
26.8728348698991
 30
0.0
 11
-79.00140471158872
 21
25.8728348698991
 31
0.0
  0
LINE
  5
AC
330
14B
100
AcDbEntity
  8
1
 62
     7
100
AcDbLine
 10
-79.00140471158872
 20
25.8728348698991
 30
0.0
 11
-46.40140471158875
 21
25.87283486989909
 31
0.0
  0
LINE
  5
AD
330
14B
100
AcDbEntity
  8
1
 62
     7
100
AcDbLine
 10
-80.0014047115887
 20
95.9728348698991
 30
0.0
 11
-81.90140471158875
 21
95.9728348698991
 31
0.0
  0
LINE
  5
AE
330
14B
100
AcDbEntity
  8
1
 62
     7
100
AcDbLine
 10
-81.90140471158875
 20
25.7728348698991
 30
0.0
 11
-80.0014047115887
 21
25.7728348698991
 31
0.0
  0
LINE
  5
AF
330
14B
100
AcDbEntity
  8
1
 62
     7
100
AcDbLine
 10
-40.50140471158874
 20
80.87283486989909
 30
0.0
 11
-28.40140471158875
 21
80.87283486989909
 31
0.0
  0
LINE
  5
B0
330
14B
100
AcDbEntity
  8
1
 62
     7
100
AcDbLine
 10
-28.40140471158875
 20
40.87283486989909
 30
0.0
 11
-40.50140471158874
 21
40.87283486989909
 31
0.0
  0
LINE
  5
B1
330
14B
100
AcDbEntity
  8
1
 62
     7
100
AcDbLine
 10
-46.10140471158874
 20
25.72283486989909
 30
0.0
 11
-46.10140471158874
 21
96.02283486989911
 31
0.0
  0
LINE
  5
B2
330
14B
100
AcDbEntity
  8
1
 62
     7
100
AcDbLine
 10
-41.10140471158874
 20
25.72283486989909
 30
0.0
 11
-46.10140471158874
 21
25.72283486989909
 31
0.0
  0
LINE
  5
B3
330
14B
100
AcDbEntity
  8
1
 62
     7
100
AcDbLine
 10
-46.10140471158874
 20
96.02283486989911
 30
0.0
 11
-41.10140471158874
 21
96.02283486989911
 31
0.0
  0
LINE
  5
B4
330
14B
100
AcDbEntity
  8
1
 62
     7
100
AcDbLine
 10
-41.10140471158874
 20
95.3728348698991
 30
0.0
 11
-40.50140471158874
 21
95.3728348698991
 31
0.0
  0
LINE
  5
B5
330
14B
100
AcDbEntity
  8
1
 62
     7
100
AcDbLine
 10
-40.50140471158874
 20
26.37283486989909
 30
0.0
 11
-41.10140471158874
 21
26.3728348698991
 31
0.0
  0
LINE
  5
B6
330
14B
100
AcDbEntity
  8
1
 62
     7
100
AcDbLine
 10
-40.50140471158874
 20
95.3728348698991
 30
0.0
 11
-40.50140471158874
 21
26.37283486989909
 31
0.0
  0
LINE
  5
B7
330
14B
100
AcDbEntity
  8
1
 62
     7
100
AcDbLine
 10
-41.10140471158874
 20
25.72283486989909
 30
0.0
 11
-41.10140471158874
 21
96.02283486989911
 31
0.0
  0
LINE
  5
B8
330
14B
100
AcDbEntity
  8
1
  6
DASHDOT
 62
     3
100
AcDbLine
 10
218.5295097795334
 20
60.8728348698991
 30
0.0
 11
226.1598902359208
 21
60.8728348698991
 31
0.0
  0
LINE
  5
B9
330
14B
100
AcDbEntity
  8
1
  6
DASHDOT
 62
     3
100
AcDbLine
 10
222.344700007727
 20
64.68802509809283
 30
0.0
 11
222.344700007727
 21
57.05764464170536
 31
0.0
  0
LINE
  5
BA
330
14B
100
AcDbEntity
  8
1
  6
DASHDOT
 62
     3
100
AcDbLine
 10
254.8539342727786
 20
93.3820691349506
 30
0.0
 11
249.2324353623455
 21
87.76057022451764
 31
0.0
  0
LINE
  5
BB
330
14B
100
AcDbEntity
  8
1
  6
DASHDOT
 62
     3
100
AcDbLine
 10
254.8539342727786
 20
28.36360060484754
 30
0.0
 11
249.2324353623455
 21
33.98509951528057
 31
0.0
  0
LINE
  5
BC
330
14B
100
AcDbEntity
  8
1
  6
DASHDOT
 62
     3
100
AcDbLine
 10
189.8354657426755
 20
28.3636006048476
 30
0.0
 11
195.4569646531085
 21
33.98509951528057
 31
0.0
  0
LINE
  5
BD
330
14B
100
AcDbEntity
  8
1
 62
     7
100
AcDbLine
 10
65.38466825793925
 20
120.4228989370134
 30
0.0
 11
67.22466825793929
 21
120.4228989370134
 31
0.0
  0
LINE
  5
BE
330
14B
100
AcDbEntity
  8
1
 62
     7
100
AcDbLine
 10
67.22466825793929
 20
120.4228989370134
 30
0.0
 11
67.22466825793929
 21
96.27283486989909
 31
0.0
  0
LINE
  5
BF
330
14B
100
AcDbEntity
  8
1
 62
     7
100
AcDbLine
 10
65.38466825793925
 20
120.4228989370134
 30
0.0
 11
65.38466825793925
 21
96.27283486989909
 31
0.0
  0
LINE
  5
C0
330
14B
100
AcDbEntity
  8
1
 62
     7
100
AcDbLine
 10
220.5047000077271
 20
120.4228989370134
 30
0.0
 11
220.5047000077271
 21
96.27283486989909
 31
0.0
  0
LINE
  5
C1
330
14B
100
AcDbEntity
  8
1
 62
     7
100
AcDbLine
 10
222.344700007727
 20
120.4228989370134
 30
0.0
 11
222.344700007727
 21
96.27283486989909
 31
0.0
  0
LINE
  5
C2
330
14B
100
AcDbEntity
  8
1
 62
     7
100
AcDbLine
 10
224.184700007727
 20
120.4228989370134
 30
0.0
 11
224.184700007727
 21
96.27283486989909
 31
0.0
  0
LINE
  5
C3
330
14B
100
AcDbEntity
  8
1
 62
     3
100
AcDbLine
 10
65.91466825793921
 20
120.4228989370134
 30
0.0
 11
65.91466825793921
 21
123.3837040816512
 31
0.0
  0
LINE
  5
C4
330
14B
100
AcDbEntity
  8
1
 62
     3
100
AcDbLine
 10
66.69466825793931
 20
123.3837040816512
 30
0.0
 11
66.69466825793931
 21
120.4228989370134
 31
0.0
  0
LINE
  5
C5
330
14B
100
AcDbEntity
  8
1
 62
     7
100
AcDbLine
 10
224.844700007727
 20
96.27283486989909
 30
0.0
 11
224.844700007727
 21
95.93381745738517
 31
0.0
  0
LINE
  5
C6
330
14B
100
AcDbEntity
  8
1
 62
     7
100
AcDbLine
 10
219.844700007727
 20
96.27283486989909
 30
0.0
 11
224.844700007727
 21
96.27283486989909
 31
0.0
  0
LINE
  5
C7
330
14B
100
AcDbEntity
  8
1
 62
     7
100
AcDbLine
 10
257.444700007727
 20
27.76615125465305
 30
0.0
 11
257.444700007727
 21
58.99866838849976
 31
0.0
  0
LINE
  5
C8
330
14B
100
AcDbEntity
  8
1
  6
DASHDOT
 62
     3
100
AcDbLine
 10
189.8354657426755
 20
93.38206913495064
 30
0.0
 11
195.4569646531085
 21
87.76057022451755
 31
0.0
  0
LINE
  5
C9
330
14B
100
AcDbEntity
  8
1
 62
     7
100
AcDbLine
 10
257.444700007727
 20
62.74700135129847
 30
0.0
 11
257.444700007727
 21
93.97951848514514
 31
0.0
  0
LINE
  5
CA
330
14B
100
AcDbEntity
  8
1
 62
     7
100
AcDbLine
 10
219.844700007727
 20
96.27283486989909
 30
0.0
 11
219.844700007727
 21
95.93381745738517
 31
0.0
  0
LINE
  5
CB
330
14B
100
AcDbEntity
  8
1
 62
     7
100
AcDbLine
 10
219.844700007727
 20
67.94390268176456
 30
0.0
 11
219.844700007727
 21
70.3728348698991
 31
0.0
  0
LINE
  5
CC
330
14B
100
AcDbEntity
  8
1
 62
     7
100
AcDbLine
 10
219.844700007727
 20
70.3728348698991
 30
0.0
 11
224.844700007727
 21
70.3728348698991
 31
0.0
  0
LINE
  5
CD
330
14B
100
AcDbEntity
  8
1
 62
     7
100
AcDbLine
 10
224.844700007727
 20
70.3728348698991
 30
0.0
 11
224.844700007727
 21
67.94390268176456
 31
0.0
  0
LINE
  5
CE
330
14B
100
AcDbEntity
  8
1
 62
     7
100
AcDbLine
 10
206.0143972279036
 20
46.825728010503
 30
0.0
 11
202.8810679758457
 21
45.01669952336761
 31
0.0
  0
LINE
  5
CF
330
14B
100
AcDbEntity
  8
1
 62
     7
100
AcDbLine
 10
218.344700007727
 20
82.03884535841581
 30
0.0
 11
218.344700007727
 21
85.65690233268654
 31
0.0
  0
LINE
  5
D0
330
14B
100
AcDbEntity
  8
1
 62
     7
100
AcDbLine
 10
241.8083320396083
 20
45.01669952336761
 30
0.0
 11
238.6750027875505
 21
46.82572801050294
 31
0.0
  0
LINE
  5
D1
330
14B
100
AcDbEntity
  8
1
 62
     7
100
AcDbLine
 10
198.8810679758458
 20
51.94490275364313
 30
0.0
 11
202.0143972279036
 21
53.7539312407785
 31
0.0
  0
LINE
  5
D2
330
14B
100
AcDbEntity
  8
1
 62
     7
100
AcDbLine
 10
242.6750027875505
 20
53.75393124077848
 30
0.0
 11
245.8083320396084
 21
51.94490275364311
 31
0.0
  0
LINE
  5
D3
330
14B
100
AcDbEntity
  8
1
 62
     7
100
AcDbLine
 10
226.344700007727
 20
85.65690233268654
 30
0.0
 11
226.344700007727
 21
82.03884535841581
 31
0.0
  0
LINE
  5
D4
330
14B
100
AcDbEntity
  8
1
 62
     7
100
AcDbLine
 10
255.4513836229731
 20
95.9728348698991
 30
0.0
 11
224.844700007727
 21
95.9728348698991
 31
0.0
  0
LINE
  5
D5
330
14B
100
AcDbEntity
  8
1
 62
     7
100
AcDbLine
 10
187.244700007727
 20
93.97951848514514
 30
0.0
 11
187.244700007727
 21
62.74700135129847
 31
0.0
  0
LINE
  5
D6
330
14B
100
AcDbEntity
  8
1
 62
     7
100
AcDbLine
 10
189.238016392481
 20
25.7728348698991
 30
0.0
 11
220.4705335263278
 21
25.77283486989915
 31
0.0
  0
LINE
  5
D7
330
14B
100
AcDbEntity
  8
1
 62
     7
100
AcDbLine
 10
187.244700007727
 20
58.99866838849969
 30
0.0
 11
187.244700007727
 21
27.76615125465305
 31
0.0
  0
LINE
  5
D8
330
14B
100
AcDbEntity
  8
1
 62
     7
100
AcDbLine
 10
224.2188664891265
 20
25.77283486989915
 30
0.0
 11
255.4513836229731
 21
25.7728348698991
 31
0.0
  0
LINE
  5
D9
330
14B
100
AcDbEntity
  8
1
 62
     7
100
AcDbLine
 10
219.844700007727
 20
95.9728348698991
 30
0.0
 11
189.238016392481
 21
95.9728348698991
 31
0.0
  0
LINE
  5
DA
330
14B
100
AcDbEntity
  8
1
 62
     7
100
AcDbLine
 10
56.90466825793932
 20
76.87283486989909
 30
0.0
 11
56.90466825793931
 21
44.87283486989911
 31
0.0
  0
LINE
  5
DB
330
14B
100
AcDbEntity
  8
1
 62
     7
100
AcDbLine
 10
56.90466825793931
 20
44.87283486989911
 30
0.0
 11
56.90466825793932
 21
25.7728348698991
 31
0.0
  0
LINE
  5
DC
330
14B
100
AcDbEntity
  8
1
 62
     7
100
AcDbLine
 10
58.80466825793929
 20
44.87283486989911
 30
0.0
 11
58.80466825793928
 21
25.7728348698991
 31
0.0
  0
LINE
  5
DD
330
14B
100
AcDbEntity
  8
1
 62
     7
100
AcDbLine
 10
58.80466825793932
 20
76.87283486989909
 30
0.0
 11
58.80466825793929
 21
44.87283486989911
 31
0.0
  0
LINE
  5
DE
330
14B
100
AcDbEntity
  8
1
 62
     7
100
AcDbLine
 10
59.75466825793933
 20
76.87283486989909
 30
0.0
 11
59.75466825793927
 21
44.87283486989911
 31
0.0
  0
LINE
  5
DF
330
14B
100
AcDbEntity
  8
1
 62
     7
100
AcDbLine
 10
61.10466825793935
 20
76.87283486989909
 30
0.0
 11
61.1046682579393
 21
44.87283486989911
 31
0.0
  0
LINE
  5
E0
330
14B
100
AcDbEntity
  8
1
 62
     7
100
AcDbLine
 10
61.1046682579393
 20
44.87283486989911
 30
0.0
 11
61.1046682579393
 21
44.02283486989911
 31
0.0
  0
LINE
  5
E1
330
14B
100
AcDbEntity
  8
1
 62
     7
100
AcDbLine
 10
59.75466825793927
 20
44.87283486989911
 30
0.0
 11
59.75466825793927
 21
44.02283486989911
 31
0.0
  0
LINE
  5
E2
330
14B
100
AcDbEntity
  8
1
 62
     7
100
AcDbLine
 10
82.10466825793929
 20
46.87283486989911
 30
0.0
 11
82.10466825793929
 21
45.37283486989911
 31
0.0
  0
LINE
  5
E3
330
14B
100
AcDbEntity
  8
1
 62
     7
100
AcDbLine
 10
82.10466825793929
 20
74.87283486989912
 30
0.0
 11
82.10466825793929
 21
46.87283486989911
 31
0.0
  0
LINE
  5
E4
330
14B
100
AcDbEntity
  8
1
 62
     7
100
AcDbLine
 10
91.50466825793932
 20
74.87283486989912
 30
0.0
 11
91.50466825793932
 21
46.87283486989911
 31
0.0
  0
LINE
  5
E5
330
14B
100
AcDbEntity
  8
1
 62
     7
100
AcDbLine
 10
91.50466825793932
 20
46.87283486989911
 30
0.0
 11
91.50466825793932
 21
40.1228348698991
 31
0.0
  0
LINE
  5
E6
330
14B
100
AcDbEntity
  8
1
 62
     7
100
AcDbLine
 10
92.4046682579393
 20
46.87283486989911
 30
0.0
 11
92.4046682579393
 21
25.87283486989909
 31
0.0
  0
LINE
  5
E7
330
14B
100
AcDbEntity
  8
1
 62
     7
100
AcDbLine
 10
92.70466825793926
 20
46.87283486989911
 30
0.0
 11
92.70466825793926
 21
74.87283486989912
 31
0.0
  0
LINE
  5
E8
330
14B
100
AcDbEntity
  8
1
 62
     7
100
AcDbLine
 10
92.4046682579393
 20
74.87283486989912
 30
0.0
 11
92.4046682579393
 21
46.87283486989911
 31
0.0
  0
LINE
  5
E9
330
14B
100
AcDbEntity
  8
1
 62
     7
100
AcDbLine
 10
92.70466825793926
 20
74.87283486989912
 30
0.0
 11
92.70466825793926
 21
96.02283486989911
 31
0.0
  0
LINE
  5
EA
330
14B
100
AcDbEntity
  8
1
 62
     7
100
AcDbLine
 10
92.80466825793928
 20
53.37283486989912
 30
0.0
 11
92.80466825793928
 21
47.87283486989912
 31
0.0
  0
LINE
  5
EB
330
14B
100
AcDbEntity
  8
1
 62
     7
100
AcDbLine
 10
92.80466825793928
 20
67.9439026817646
 30
0.0
 11
92.80466825793928
 21
53.37283486989912
 31
0.0
  0
LINE
  5
EC
330
14B
100
AcDbEntity
  8
1
 62
     7
100
AcDbLine
 10
110.4046682579392
 20
53.37283486989912
 30
0.0
 11
110.4046682579392
 21
40.8728348698991
 31
0.0
  0
LINE
  5
ED
330
14B
100
AcDbEntity
  8
1
 62
     7
100
AcDbLine
 10
110.4046682579393
 20
67.9439026817646
 30
0.0
 11
110.4046682579392
 21
53.37283486989912
 31
0.0
  0
LINE
  5
EE
330
14B
100
AcDbEntity
  8
1
 62
     3
100
AcDbLine
 10
66.30466825793927
 20
120.4228989370134
 30
0.0
 11
66.30466825793927
 21
123.3837040816512
 31
0.0
  0
LINE
  5
EF
330
14B
100
AcDbEntity
  8
1
 62
     7
100
AcDbLine
 10
-73.42140471158877
 20
120.4228989370134
 30
0.0
 11
-71.58140471158876
 21
120.4228989370134
 31
0.0
  0
LINE
  5
F0
330
14B
100
AcDbEntity
  8
1
 62
     3
100
AcDbLine
 10
-72.89140471158879
 20
120.4228989370134
 30
0.0
 11
-72.89140471158879
 21
123.3837040816512
 31
0.0
  0
LINE
  5
F1
330
14B
100
AcDbEntity
  8
1
 62
     3
100
AcDbLine
 10
-72.11140471158872
 20
123.3837040816512
 30
0.0
 11
-72.11140471158872
 21
120.4228989370134
 31
0.0
  0
LINE
  5
F2
330
14B
100
AcDbEntity
  8
1
 62
     3
100
AcDbLine
 10
-72.50140471158876
 20
120.4228989370134
 30
0.0
 11
-72.50140471158876
 21
123.3837040816512
 31
0.0
  0
LINE
  5
F3
330
14B
100
AcDbEntity
  8
1
 62
     3
100
AcDbLine
 10
221.034700007727
 20
120.4228989370134
 30
0.0
 11
221.034700007727
 21
123.3837040816512
 31
0.0
  0
LINE
  5
F4
330
14B
100
AcDbEntity
  8
1
 62
     3
100
AcDbLine
 10
221.8147000077272
 20
123.3837040816512
 30
0.0
 11
221.8147000077272
 21
120.4228989370134
 31
0.0
  0
LINE
  5
F5
330
14B
100
AcDbEntity
  8
1
 62
     3
100
AcDbLine
 10
221.4247000077272
 20
120.4228989370134
 30
0.0
 11
221.4247000077272
 21
123.3837040816512
 31
0.0
  0
LINE
  5
F6
330
14B
100
AcDbEntity
  8
1
 62
     7
100
AcDbLine
 10
224.184700007727
 20
120.4228989370134
 30
0.0
 11
220.5047000077271
 21
120.4228989370134
 31
0.0
  0
LINE
  5
F7
330
14B
100
AcDbEntity
  8
1
 62
     3
100
AcDbLine
 10
222.874700007727
 20
120.4228989370134
 30
0.0
 11
222.874700007727
 21
123.3837040816512
 31
0.0
  0
LINE
  5
F8
330
14B
100
AcDbEntity
  8
1
 62
     3
100
AcDbLine
 10
223.6547000077272
 20
123.3837040816512
 30
0.0
 11
223.6547000077272
 21
120.4228989370134
 31
0.0
  0
LINE
  5
F9
330
14B
100
AcDbEntity
  8
1
 62
     3
100
AcDbLine
 10
223.2647000077272
 20
120.4228989370134
 30
0.0
 11
223.2647000077272
 21
123.3837040816512
 31
0.0
  0
ARC
  5
FA
330
14B
100
AcDbEntity
  8
1
 62
     7
100
AcDbCircle
 10
203.8810679758457
 20
43.28464871579875
 30
0.0
 40
1.999999999999992
100
AcDbArc
 50
120.0000000000001
 51
223.6089606307819
  0
ARC
  5
FB
330
14B
100
AcDbEntity
  8
1
 62
     7
100
AcDbCircle
 10
216.344700007727
 20
85.65690233268654
 30
0.0
 40
2.0
100
AcDbArc
 50
0.0
 51
103.6089606307829
  0
ARC
  5
FC
330
14B
100
AcDbEntity
  8
1
 62
     7
100
AcDbCircle
 10
207.0143972279036
 20
45.0936772029341
 30
0.0
 40
2.000000000000027
100
AcDbArc
 50
45.82662013187112
 51
119.9999999999999
  0
ARC
  5
FD
330
14B
100
AcDbEntity
  8
1
 62
     7
100
AcDbCircle
 10
216.344700007727
 20
82.03884535841581
 30
0.0
 40
1.999999999999962
100
AcDbArc
 50
285.8266201318706
 51
0.0
  0
ARC
  5
FE
330
14B
100
AcDbEntity
  8
1
 62
     7
100
AcDbCircle
 10
237.6750027875504
 20
45.09367720293409
 30
0.0
 40
1.999999999999992
100
AcDbArc
 50
59.99999999999985
 51
134.1733798681295
  0
ARC
  5
FF
330
14B
100
AcDbEntity
  8
1
 62
     7
100
AcDbCircle
 10
201.0143972279036
 20
55.48598204834735
 30
0.0
 40
1.999999999999992
100
AcDbArc
 50
300.0
 51
14.17337986812716
  0
ARC
  5
100
330
14B
100
AcDbEntity
  8
1
 62
     7
100
AcDbCircle
 10
240.8083320396082
 20
43.28464871579872
 30
0.0
 40
2.000000000000071
100
AcDbArc
 50
316.3910393692191
 51
60.00000000000006
  0
ARC
  5
101
330
14B
100
AcDbEntity
  8
1
 62
     7
100
AcDbCircle
 10
197.8810679758456
 20
53.67695356121199
 30
0.0
 40
1.999999999999992
100
AcDbArc
 50
196.3910393692174
 51
299.9999999999999
  0
ARC
  5
102
330
14B
100
AcDbEntity
  8
1
 62
     7
100
AcDbCircle
 10
246.8083320396084
 20
53.67695356121199
 30
0.0
 40
2.00000000000001
100
AcDbArc
 50
240.0000000000002
 51
343.608960630782
  0
ARC
  5
103
330
14B
100
AcDbEntity
  8
1
 62
     7
100
AcDbCircle
 10
243.6750027875504
 20
55.48598204834735
 30
0.0
 40
2.000000000000115
100
AcDbArc
 50
165.8266201318734
 51
240.0000000000002
  0
ARC
  5
104
330
14B
100
AcDbEntity
  8
1
 62
     7
100
AcDbCircle
 10
228.344700007727
 20
82.03884535841581
 30
0.0
 40
2.0
100
AcDbArc
 50
180.0
 51
254.1733798681288
  0
ARC
  5
105
330
14B
100
AcDbEntity
  8
1
 62
     7
100
AcDbCircle
 10
228.344700007727
 20
85.65690233268654
 30
0.0
 40
1.999999999999992
100
AcDbArc
 50
76.39103936921792
 51
180.0
  0
ARC
  5
106
330
14B
100
AcDbEntity
  8
1
 62
     7
100
AcDbCircle
 10
-41.85348804492206
 20
76.37283486989912
 30
0.0
 40
3.752083333333332
100
AcDbArc
 50
291.122021382392
 51
68.87797861760752
  0
ARC
  5
107
330
14B
100
AcDbEntity
  8
1
 62
     7
100
AcDbCircle
 10
94.55466825793928
 20
32.37283486989912
 30
0.0
 40
0.6499999999999773
100
AcDbArc
 50
0.0
 51
180.0
  0
ARC
  5
108
330
14B
100
AcDbEntity
  8
1
 62
     7
100
AcDbCircle
 10
94.55466825793928
 20
27.37283486989912
 30
0.0
 40
0.6500000000000341
100
AcDbArc
 50
180.0
 51
0.0
  0
ARC
  5
109
330
14B
100
AcDbEntity
  8
1
 62
     7
100
AcDbCircle
 10
96.9525849246059
 20
29.87283486989912
 30
0.0
 40
3.75208333333335
100
AcDbArc
 50
291.1220213823934
 51
68.87797861760656
  0
ARC
  5
10A
330
14B
100
AcDbEntity
  8
1
 62
     7
100
AcDbCircle
 10
-41.85348804492206
 20
29.8728348698991
 30
0.0
 40
3.752083333333334
100
AcDbArc
 50
291.1220213823924
 51
68.87797861760754
  0
ARC
  5
10B
330
14B
100
AcDbEntity
  8
1
  6
DASHDOT
 62
     3
100
AcDbCircle
 10
222.344700007727
 20
60.8728348698991
 30
0.0
 40
42.00000000000005
100
AcDbArc
 50
39.53497620009415
 51
50.46502379990591
  0
ARC
  5
10C
330
14B
100
AcDbEntity
  8
1
  6
DASHDOT
 62
     3
100
AcDbCircle
 10
222.344700007727
 20
60.8728348698991
 30
0.0
 40
42.00000000000001
100
AcDbArc
 50
309.5349762000941
 51
320.4650237999059
  0
ARC
  5
10D
330
14B
100
AcDbEntity
  8
1
  6
DASHDOT
 62
     3
100
AcDbCircle
 10
222.344700007727
 20
60.8728348698991
 30
0.0
 40
42.00000000000001
100
AcDbArc
 50
219.5349762000941
 51
230.4650237999059
  0
ARC
  5
10E
330
14B
100
AcDbEntity
  8
1
 62
     7
100
AcDbCircle
 10
222.344700007727
 20
60.8728348698991
 30
0.0
 40
48.24999999999998
100
AcDbArc
 50
43.32602741776904
 51
46.67397258223103
  0
ARC
  5
10F
330
14B
100
AcDbEntity
  8
1
 62
     7
100
AcDbCircle
 10
222.344700007727
 20
60.8728348698991
 30
0.0
 40
48.25
100
AcDbArc
 50
133.3260274177689
 51
136.673972582231
  0
ARC
  5
110
330
14B
100
AcDbEntity
  8
1
 62
     7
100
AcDbCircle
 10
222.344700007727
 20
60.8728348698991
 30
0.0
 40
48.25000000000002
100
AcDbArc
 50
223.326027417769
 51
226.673972582231
  0
ARC
  5
111
330
14B
100
AcDbEntity
  8
1
 62
     7
100
AcDbCircle
 10
222.344700007727
 20
60.8728348698991
 30
0.0
 40
48.24999999999998
100
AcDbArc
 50
313.326027417769
 51
316.6739725822308
  0
ARC
  5
112
330
14B
100
AcDbEntity
  8
1
  6
DASHDOT
 62
     3
100
AcDbCircle
 10
222.344700007727
 20
60.8728348698991
 30
0.0
 40
41.99999999999996
100
AcDbArc
 50
129.534976200094
 51
140.4650237999059
  0
ARC
  5
113
330
14B
100
AcDbEntity
  8
1
 62
     7
100
AcDbCircle
 10
222.344700007727
 20
60.8728348698991
 30
0.0
 40
7.499999999999993
100
AcDbArc
 50
109.4712206344907
 51
70.52877936550927
  0
ARC
  5
114
330
14B
100
AcDbEntity
  8
1
 62
     7
100
AcDbCircle
 10
222.344700007727
 20
60.8728348698991
 30
0.0
 40
27.5
100
AcDbArc
 50
223.6089606307828
 51
316.3910393692171
  0
ARC
  5
115
330
14B
100
AcDbEntity
  8
1
 62
     7
100
AcDbCircle
 10
222.344700007727
 20
60.8728348698991
 30
0.0
 40
27.5
100
AcDbArc
 50
103.6089606307829
 51
196.3910393692171
  0
ARC
  5
116
330
14B
100
AcDbEntity
  8
1
 62
     7
100
AcDbCircle
 10
222.344700007727
 20
60.8728348698991
 30
0.0
 40
27.5
100
AcDbArc
 50
343.6089606307827
 51
76.39103936921715
  0
CIRCLE
  5
117
330
14B
100
AcDbEntity
  8
1
 62
     7
100
AcDbCircle
 10
105.4046682579392
 20
60.87283486989912
 30
0.0
 40
1.75
  0
CIRCLE
  5
118
330
14B
100
AcDbEntity
  8
1
 62
     3
100
AcDbCircle
 10
105.4046682579392
 20
60.87283486989912
 30
0.0
 40
2.5
  0
CIRCLE
  5
119
330
14B
100
AcDbEntity
  8
1
 62
     7
100
AcDbCircle
 10
252.0431848175621
 20
90.57131967973411
 30
0.0
 40
2.650000000000006
  0
CIRCLE
  5
11A
330
14B
100
AcDbEntity
  8
1
 62
     7
100
AcDbCircle
 10
252.0431848175621
 20
31.17435006006407
 30
0.0
 40
2.650000000000006
  0
CIRCLE
  5
11B
330
14B
100
AcDbEntity
  8
1
 62
     7
100
AcDbCircle
 10
192.6462151978921
 20
31.17435006006409
 30
0.0
 40
2.650000000000006
  0
CIRCLE
  5
11C
330
14B
100
AcDbEntity
  8
1
 62
     7
100
AcDbCircle
 10
192.6462151978921
 20
90.57131967973408
 30
0.0
 40
2.650000000000006
  0
CIRCLE
  5
11D
330
14B
100
AcDbEntity
  8
1
 62
     7
100
AcDbCircle
 10
222.344700007727
 20
60.8728348698991
 30
0.0
 40
19.99999999999989
  0
CIRCLE
  5
11E
330
14B
100
AcDbEntity
  8
1
 62
     7
100
AcDbCircle
 10
222.344700007727
 20
60.8728348698991
 30
0.0
 40
35.15000000000009
  0
CIRCLE
  5
11F
330
14B
100
AcDbEntity
  8
1
 62
     7
100
AcDbCircle
 10
222.344700007727
 20
60.8728348698991
 30
0.0
 40
34.5
  0
CIRCLE
  5
120
330
14B
100
AcDbEntity
  8
1
 62
     7
100
AcDbCircle
 10
222.344700007727
 20
29.87283486989909
 30
0.0
 40
3.149999999999975
  0
CIRCLE
  5
121
330
14B
100
AcDbEntity
  8
1
 62
     7
100
AcDbCircle
 10
249.1914875250446
 20
76.37283486989909
 30
0.0
 40
3.150000000000006
  0
CIRCLE
  5
122
330
14B
100
AcDbEntity
  8
1
 62
     7
100
AcDbCircle
 10
195.4979124904095
 20
76.37283486989912
 30
0.0
 40
3.150000000000006
  0
TEXT
  5
124
330
14B
100
AcDbEntity
  8
1
 62
     7
100
AcDbText
 10
-75.81728725341348
 20
151.1262883508779
 30
0.0
 40
4.5
  1
AMB 80
 41
0.9
  7
SIMPLEX
100
AcDbText
  0
ENDSEC
  0
SECTION
  2
OBJECTS
  0
DICTIONARY
  5
137
330
0
100
AcDbDictionary
281
     1
  3
ACAD_COLOR
350
146
  3
ACAD_GROUP
350
138
  3
ACAD_LAYOUT
350
144
  3
ACAD_MATERIAL
350
145
  3
ACAD_MLINESTYLE
350
141
  3
ACAD_PLOTSETTINGS
350
143
  3
ACAD_PLOTSTYLENAME
350
139
  0
DICTIONARY
  5
146
102
{ACAD_REACTORS
330
137
102
}
330
137
100
AcDbDictionary
281
     1
  0
DICTIONARY
  5
138
102
{ACAD_REACTORS
330
137
102
}
330
137
100
AcDbDictionary
281
     1
  0
DICTIONARY
  5
144
102
{ACAD_REACTORS
330
137
102
}
330
137
100
AcDbDictionary
281
     1
  3
Layout1
350
14A
  3
Model
350
14E
  0
DICTIONARY
  5
145
102
{ACAD_REACTORS
330
137
102
}
330
137
100
AcDbDictionary
281
     1
  0
DICTIONARY
  5
141
102
{ACAD_REACTORS
330
137
102
}
330
137
100
AcDbDictionary
281
     1
  3
Standard
350
142
  0
DICTIONARY
  5
143
102
{ACAD_REACTORS
330
137
102
}
330
137
100
AcDbDictionary
281
     1
  0
ACDBDICTIONARYWDFLT
  5
139
102
{ACAD_REACTORS
330
137
102
}
330
137
100
AcDbDictionary
281
     1
  3
Normal
350
13A
100
AcDbDictionaryWithDefault
340
13A
  0
LAYOUT
  5
14A
102
{ACAD_REACTORS
330
144
102
}
330
144
100
AcDbPlotSettings
  1

  2
Microsoft Office Document Image Writer
  4

  6

 40
0.0
 41
0.0
 42
0.0
 43
0.0
 44
0.0
 45
0.0
 46
0.0
 47
0.0
 48
0.0
 49
0.0
140
0.0
141
0.0
142
1.0
143
1.0
 70
   688
 72
     0
 73
     0
 74
     5
  7

 75
    16
147
1.0
 76
     0
 77
     2
 78
   300
148
0.0
149
0.0
100
AcDbLayout
  1
Layout1
 70
     1
 71
     1
 10
0.0
 20
0.0
 11
12.0
 21
9.0
 12
0.0
 22
0.0
 32
0.0
 14
1.000000000000000E+20
 24
1.000000000000000E+20
 34
1.000000000000000E+20
 15
-1.000000000000000E+20
 25
-1.000000000000000E+20
 35
-1.000000000000000E+20
146
0.0
 13
0.0
 23
0.0
 33
0.0
 16
1.0
 26
0.0
 36
0.0
 17
0.0
 27
1.0
 37
0.0
 76
     0
330
147
  0
LAYOUT
  5
14E
102
{ACAD_REACTORS
330
144
102
}
330
144
100
AcDbPlotSettings
  1

  2
Microsoft Office Document Image Writer
  4

  6

 40
0.0
 41
0.0
 42
0.0
 43
0.0
 44
0.0
 45
0.0
 46
0.0
 47
0.0
 48
0.0
 49
0.0
140
0.0
141
0.0
142
1.0
143
1.0
 70
  1712
 72
     0
 73
     0
 74
     0
  7

 75
     0
147
1.0
 76
     0
 77
     2
 78
   300
148
0.0
149
0.0
100
AcDbLayout
  1
Model
 70
     1
 71
     0
 10
0.0
 20
0.0
 11
12.0
 21
9.0
 12
0.0
 22
0.0
 32
0.0
 14
0.0
 24
0.0
 34
0.0
 15
0.0
 25
0.0
 35
0.0
146
0.0
 13
0.0
 23
0.0
 33
0.0
 16
1.0
 26
0.0
 36
0.0
 17
0.0
 27
1.0
 37
0.0
 76
     0
330
14B
  0
MLINESTYLE
  5
142
102
{ACAD_REACTORS
330
141
102
}
330
141
100
AcDbMlineStyle
  2
STANDARD
 70
     0
  3

 62
   256
 51
90.0
 52
90.0
 71
     2
 49
0.5
 62
   256
  6
BYLAYER
 49
-0.5
 62
   256
  6
BYLAYER
  0
ACDBPLACEHOLDER
  5
13A
102
{ACAD_REACTORS
330
139
102
}
330
139
  0
ENDSEC
  0
EOF
