  0
SECTION
  2
HEADER
  9
$ACADVER
  1
AC1018
  9
$ACADMAINTVER
 70
     0
  9
$DWGCODEPAGE
  3
ANSI_932
  9
$INSBASE
 10
0.0
 20
0.0
 30
0.0
  9
$EXTMIN
 10
150.3688244763107
 20
128.3475526304504
 30
-0.0015258207003583
  9
$EXTMAX
 10
352.756176466071
 20
208.5539719396672
 30
0.0000000349246037
  9
$LIMMIN
 10
150.375
 20
128.3499999999999
  9
$LIMMAX
 10
352.7499999999998
 20
208.5515241966501
  9
$ORTHOMODE
 70
     0
  9
$REGENMODE
 70
     1
  9
$FILLMODE
 70
     1
  9
$QTEXTMODE
 70
     0
  9
$MIRRTEXT
 70
     1
  9
$LTSCALE
 40
1.0
  9
$ATTMODE
 70
     1
  9
$TEXTSIZE
 40
3.5
  9
$TRACEWID
 40
0.5
  9
$TEXTSTYLE
  7
STANDARD
  9
$CLAYER
  8
0
  9
$CELTYPE
  6
ByLayer
  9
$CECOLOR
 62
   256
  9
$CELTSCALE
 40
1.0
  9
$DISPSILH
 70
     0
  9
$DIMSCALE
 40
1.0
  9
$DIMASZ
 40
0.18
  9
$DIMEXO
 40
0.0625
  9
$DIMDLI
 40
0.38
  9
$DIMRND
 40
0.0
  9
$DIMDLE
 40
0.0
  9
$DIMEXE
 40
0.18
  9
$DIMTP
 40
0.0
  9
$DIMTM
 40
0.0
  9
$DIMTXT
 40
0.18
  9
$DIMCEN
 40
0.09
  9
$DIMTSZ
 40
0.0
  9
$DIMTOL
 70
     0
  9
$DIMLIM
 70
     0
  9
$DIMTIH
 70
     1
  9
$DIMTOH
 70
     1
  9
$DIMSE1
 70
     0
  9
$DIMSE2
 70
     0
  9
$DIMTAD
 70
     0
  9
$DIMZIN
 70
     0
  9
$DIMBLK
  1

  9
$DIMASO
 70
     1
  9
$DIMSHO
 70
     1
  9
$DIMPOST
  1

  9
$DIMAPOST
  1

  9
$DIMALT
 70
     0
  9
$DIMALTD
 70
     2
  9
$DIMALTF
 40
25.4
  9
$DIMLFAC
 40
1.0
  9
$DIMTOFL
 70
     0
  9
$DIMTVP
 40
0.0
  9
$DIMTIX
 70
     0
  9
$DIMSOXD
 70
     0
  9
$DIMSAH
 70
     0
  9
$DIMBLK1
  1

  9
$DIMBLK2
  1

  9
$DIMSTYLE
  2
STANDARD
  9
$DIMCLRD
 70
     0
  9
$DIMCLRE
 70
     0
  9
$DIMCLRT
 70
     0
  9
$DIMTFAC
 40
1.0
  9
$DIMGAP
 40
0.09
  9
$DIMJUST
 70
     0
  9
$DIMSD1
 70
     0
  9
$DIMSD2
 70
     0
  9
$DIMTOLJ
 70
     1
  9
$DIMTZIN
 70
     0
  9
$DIMALTZ
 70
     0
  9
$DIMALTTZ
 70
     0
  9
$DIMUPT
 70
     0
  9
$DIMDEC
 70
     4
  9
$DIMTDEC
 70
     4
  9
$DIMALTU
 70
     2
  9
$DIMALTTD
 70
     2
  9
$DIMTXSTY
  7
STANDARD
  9
$DIMAUNIT
 70
     0
  9
$DIMADEC
 70
     0
  9
$DIMALTRND
 40
0.0
  9
$DIMAZIN
 70
     0
  9
$DIMDSEP
 70
    46
  9
$DIMATFIT
 70
     3
  9
$DIMFRAC
 70
     0
  9
$DIMLDRBLK
  1

  9
$DIMLUNIT
 70
     2
  9
$DIMLWD
 70
    -2
  9
$DIMLWE
 70
    -2
  9
$DIMTMOVE
 70
     0
  9
$LUNITS
 70
     2
  9
$LUPREC
 70
     4
  9
$SKETCHINC
 40
0.1
  9
$FILLETRAD
 40
2.0
  9
$AUNITS
 70
     0
  9
$AUPREC
 70
     0
  9
$MENU
  1
ACAD
  9
$ELEVATION
 40
0.0
  9
$PELEVATION
 40
0.0
  9
$THICKNESS
 40
0.0
  9
$LIMCHECK
 70
     0
  9
$CHAMFERA
 40
0.0
  9
$CHAMFERB
 40
0.0
  9
$CHAMFERC
 40
0.0
  9
$CHAMFERD
 40
0.0
  9
$SKPOLY
 70
     0
  9
$TDCREATE
 40
2452093.896710764
  9
$TDUCREATE
 40
2452094.063377431
  9
$TDUPDATE
 40
2453209.433125775
  9
$TDUUPDATE
 40
2453209.599792443
  9
$TDINDWG
 40
0.0005082407
  9
$TDUSRTIMER
 40
0.0005082407
  9
$USRTIMER
 70
     1
  9
$ANGBASE
 50
0.0
  9
$ANGDIR
 70
     0
  9
$PDMODE
 70
     0
  9
$PDSIZE
 40
0.0
  9
$PLINEWID
 40
0.0
  9
$SPLFRAME
 70
     0
  9
$SPLINETYPE
 70
     6
  9
$SPLINESEGS
 70
     8
  9
$HANDSEED
  5
165
  9
$SURFTAB1
 70
     6
  9
$SURFTAB2
 70
     6
  9
$SURFTYPE
 70
     6
  9
$SURFU
 70
     6
  9
$SURFV
 70
     6
  9
$UCSBASE
  2

  9
$UCSNAME
  2

  9
$UCSORG
 10
0.0
 20
0.0
 30
0.0
  9
$UCSXDIR
 10
1.0
 20
0.0
 30
0.0
  9
$UCSYDIR
 10
0.0
 20
1.0
 30
0.0
  9
$UCSORTHOREF
  2

  9
$UCSORTHOVIEW
 70
     0
  9
$UCSORGTOP
 10
0.0
 20
0.0
 30
0.0
  9
$UCSORGBOTTOM
 10
0.0
 20
0.0
 30
0.0
  9
$UCSORGLEFT
 10
0.0
 20
0.0
 30
0.0
  9
$UCSORGRIGHT
 10
0.0
 20
0.0
 30
0.0
  9
$UCSORGFRONT
 10
0.0
 20
0.0
 30
0.0
  9
$UCSORGBACK
 10
0.0
 20
0.0
 30
0.0
  9
$PUCSBASE
  2

  9
$PUCSNAME
  2

  9
$PUCSORG
 10
0.0
 20
0.0
 30
0.0
  9
$PUCSXDIR
 10
1.0
 20
0.0
 30
0.0
  9
$PUCSYDIR
 10
0.0
 20
1.0
 30
0.0
  9
$PUCSORTHOREF
  2

  9
$PUCSORTHOVIEW
 70
     0
  9
$PUCSORGTOP
 10
0.0
 20
0.0
 30
0.0
  9
$PUCSORGBOTTOM
 10
0.0
 20
0.0
 30
0.0
  9
$PUCSORGLEFT
 10
0.0
 20
0.0
 30
0.0
  9
$PUCSORGRIGHT
 10
0.0
 20
0.0
 30
0.0
  9
$PUCSORGFRONT
 10
0.0
 20
0.0
 30
0.0
  9
$PUCSORGBACK
 10
0.0
 20
0.0
 30
0.0
  9
$USERI1
 70
     0
  9
$USERI2
 70
     0
  9
$USERI3
 70
     0
  9
$USERI4
 70
     0
  9
$USERI5
 70
     0
  9
$USERR1
 40
0.0
  9
$USERR2
 40
0.0
  9
$USERR3
 40
0.0
  9
$USERR4
 40
0.0
  9
$USERR5
 40
0.0
  9
$WORLDVIEW
 70
     1
  9
$SHADEDGE
 70
     3
  9
$SHADEDIF
 70
    70
  9
$TILEMODE
 70
     1
  9
$MAXACTVP
 70
    64
  9
$PINSBASE
 10
0.0
 20
0.0
 30
0.0
  9
$PLIMCHECK
 70
     0
  9
$PEXTMIN
 10
1.000000000000000E+20
 20
1.000000000000000E+20
 30
1.000000000000000E+20
  9
$PEXTMAX
 10
-1.000000000000000E+20
 20
-1.000000000000000E+20
 30
-1.000000000000000E+20
  9
$PLIMMIN
 10
0.0
 20
0.0
  9
$PLIMMAX
 10
12.0
 20
9.0
  9
$UNITMODE
 70
     0
  9
$VISRETAIN
 70
     1
  9
$PLINEGEN
 70
     0
  9
$PSLTSCALE
 70
     1
  9
$TREEDEPTH
 70
  3020
  9
$CMLSTYLE
  2
Standard
  9
$CMLJUST
 70
     0
  9
$CMLSCALE
 40
1.0
  9
$PROXYGRAPHICS
 70
     1
  9
$MEASUREMENT
 70
     0
  9
$CELWEIGHT
370
    -1
  9
$ENDCAPS
280
     0
  9
$JOINSTYLE
280
     0
  9
$LWDISPLAY
290
     0
  9
$INSUNITS
 70
     0
  9
$HYPERLINKBASE
  1

  9
$STYLESHEET
  1

  9
$XEDIT
290
     1
  9
$CEPSNTYPE
380
     0
  9
$PSTYLEMODE
290
     1
  9
$FINGERPRINTGUID
  2
{09B925EF-2C61-426F-BE32-1F67E93C0148}
  9
$VERSIONGUID
  2
{14B63FFC-EEB5-4DC7-B102-E8DAB3D451E9}
  9
$EXTNAMES
290
     1
  9
$PSVPSCALE
 40
0.0
  9
$OLESTARTUP
290
     0
  9
$SORTENTS
280
   127
  9
$INDEXCTL
280
     0
  9
$HIDETEXT
280
     0
  9
$XCLIPFRAME
290
     0
  9
$HALOGAP
280
     0
  9
$OBSCOLOR
 70
   257
  9
$OBSLTYPE
280
     0
  9
$INTERSECTIONDISPLAY
280
     0
  9
$INTERSECTIONCOLOR
 70
   257
  9
$DIMASSOC
280
     1
  9
$PROJECTNAME
  1

  0
ENDSEC
  0
SECTION
  2
CLASSES
  0
CLASS
  1
ACDBDICTIONARYWDFLT
  2
AcDbDictionaryWithDefault
  3
ObjectDBX Classes
 90
        0
 91
        1
280
     0
281
     0
  0
ENDSEC
  0
SECTION
  2
TABLES
  0
TABLE
  2
VPORT
  5
132
330
0
100
AcDbSymbolTable
 70
     2
  0
VPORT
  5
164
330
132
100
AcDbSymbolTableRecord
100
AcDbViewportTableRecord
  2
*Active
 70
     0
 10
0.0
 20
0.0
 11
1.0
 21
1.0
 12
251.5625004711909
 22
168.4507622850588
 13
0.0
 23
0.0
 14
1.0
 24
1.0
 15
0.0
 25
0.0
 16
0.0
 26
0.0
 36
1.0
 17
0.0
 27
0.0
 37
0.0
 40
125.2375851472695
 41
1.625
 42
50.0
 43
0.0
 44
0.0
 50
0.0
 51
0.0
 71
     0
 72
   100
 73
     1
 74
     1
 75
     0
 76
     0
 77
     0
 78
     0
281
     0
 65
     1
110
0.0
120
0.0
130
0.0
111
1.0
121
0.0
131
0.0
112
0.0
122
1.0
132
0.0
 79
     0
146
0.0
  0
ENDTAB
  0
TABLE
  2
LTYPE
  5
12F
330
0
100
AcDbSymbolTable
 70
     9
  0
LTYPE
  5
13D
330
12F
100
AcDbSymbolTableRecord
100
AcDbLinetypeTableRecord
  2
ByBlock
 70
     0
  3

 72
    65
 73
     0
 40
0.0
  0
LTYPE
  5
13E
330
12F
100
AcDbSymbolTableRecord
100
AcDbLinetypeTableRecord
  2
ByLayer
 70
     0
  3

 72
    65
 73
     0
 40
0.0
  0
LTYPE
  5
13F
330
12F
100
AcDbSymbolTableRecord
100
AcDbLinetypeTableRecord
  2
CONTINUOUS
 70
     0
  3
Solid line
 72
    65
 73
     0
 40
0.0
  0
LTYPE
  5
14F
330
12F
100
AcDbSymbolTableRecord
100
AcDbLinetypeTableRecord
  2
BORDER
 70
     0
  3
__ __ . __ __ .
 72
    65
 73
     6
 40
9.319901315789474
 49
2.662828947368419
 74
     0
 49
-1.331414473684209
 74
     0
 49
2.662828947368419
 74
     0
 49
-1.331414473684209
 74
     0
 49
0.0
 74
     0
 49
-1.331414473684209
 74
     0
  0
LTYPE
  5
150
330
12F
100
AcDbSymbolTableRecord
100
AcDbLinetypeTableRecord
  2
CENTER
 70
     0
  3
____ _ ____ _
 72
    65
 73
     4
 40
10.65131578947368
 49
6.657072368421053
 74
     0
 49
-1.331414473684209
 74
     0
 49
1.331414473684209
 74
     0
 49
-1.331414473684209
 74
     0
  0
LTYPE
  5
151
330
12F
100
AcDbSymbolTableRecord
100
AcDbLinetypeTableRecord
  2
DASHDOT
 70
     0
  3
__ . __ . __ .
 72
    65
 73
     4
 40
5.325657894736841
 49
2.662828947368419
 74
     0
 49
-1.331414473684209
 74
     0
 49
0.0
 74
     0
 49
-1.331414473684209
 74
     0
  0
LTYPE
  5
152
330
12F
100
AcDbSymbolTableRecord
100
AcDbLinetypeTableRecord
  2
DASHED
 70
     0
  3
__ __ __ __ __
 72
    65
 73
     2
 40
3.99424342105263
 49
2.662828947368419
 74
     0
 49
-1.331414473684209
 74
     0
  0
LTYPE
  5
153
330
12F
100
AcDbSymbolTableRecord
100
AcDbLinetypeTableRecord
  2
DIVIDE
 70
     0
  3
__ . . __ . . 
 72
    65
 73
     6
 40
6.657072368421053
 49
2.662828947368419
 74
     0
 49
-1.331414473684209
 74
     0
 49
0.0
 74
     0
 49
-1.331414473684209
 74
     0
 49
0.0
 74
     0
 49
-1.331414473684209
 74
     0
  0
LTYPE
  5
154
330
12F
100
AcDbSymbolTableRecord
100
AcDbLinetypeTableRecord
  2
DOT
 70
     0
  3
..............
 72
    65
 73
     4
 40
2.662828947368419
 49
0.0
 74
     0
 49
-1.331414473684209
 74
     0
 49
0.0
 74
     0
 49
-1.331414473684209
 74
     0
  0
LTYPE
  5
155
330
12F
100
AcDbSymbolTableRecord
100
AcDbLinetypeTableRecord
  2
HIDDEN
 70
     0
  3
_ _ _ _ _ _ _
 72
    65
 73
     2
 40
1.997121710526315
 49
1.331414473684209
 74
     0
 49
-0.6657072368421053
 74
     0
  0
LTYPE
  5
156
330
12F
100
AcDbSymbolTableRecord
100
AcDbLinetypeTableRecord
  2
PHANTOM
 70
     0
  3
_____ _ _ _____ _ _ 
 72
    65
 73
     6
 40
13.31414473684211
 49
6.657072368421053
 74
     0
 49
-1.331414473684209
 74
     0
 49
1.331414473684209
 74
     0
 49
-1.331414473684209
 74
     0
 49
1.331414473684209
 74
     0
 49
-1.331414473684209
 74
     0
  0
ENDTAB
  0
TABLE
  2
LAYER
  5
12C
330
0
100
AcDbSymbolTable
 70
     2
  0
LAYER
  5
13A
330
12C
100
AcDbSymbolTableRecord
100
AcDbLayerTableRecord
  2
0
 70
     0
 62
     7
  6
CONTINUOUS
370
    -3
390
139
  0
LAYER
  5
157
330
12C
100
AcDbSymbolTableRecord
100
AcDbLayerTableRecord
  2
1
 70
     0
 62
     7
  6
CONTINUOUS
370
    -3
390
139
  0
ENDTAB
  0
TABLE
  2
STYLE
  5
12D
330
0
100
AcDbSymbolTable
 70
     4
  0
STYLE
  5
13B
330
12D
100
AcDbSymbolTableRecord
100
AcDbTextStyleTableRecord
  2
STANDARD
 70
     0
 40
0.0
 41
1.0
 50
0.0
 71
     0
 42
3.5
  3
txt
  4

  0
STYLE
  5
158
330
12D
100
AcDbSymbolTableRecord
100
AcDbTextStyleTableRecord
  2
SIMPLEX
 70
     0
 40
0.0
 41
1.0
 50
0.0
 71
     0
 42
3.5
  3
simplex
  4

  0
STYLE
  5
159
330
12D
100
AcDbSymbolTableRecord
100
AcDbTextStyleTableRecord
  2
COMPLEX
 70
     0
 40
0.0
 41
1.0
 50
0.0
 71
     0
 42
3.5
  3
complex
  4

  0
STYLE
  5
15A
330
12D
100
AcDbSymbolTableRecord
100
AcDbTextStyleTableRecord
  2
ITALIC
 70
     0
 40
0.0
 41
1.0
 50
0.0
 71
     0
 42
3.5
  3
italic
  4

  0
ENDTAB
  0
TABLE
  2
VIEW
  5
130
330
0
100
AcDbSymbolTable
 70
     0
  0
ENDTAB
  0
TABLE
  2
UCS
  5
131
330
0
100
AcDbSymbolTable
 70
     0
  0
ENDTAB
  0
TABLE
  2
APPID
  5
133
330
0
100
AcDbSymbolTable
 70
     1
  0
APPID
  5
13C
330
133
100
AcDbSymbolTableRecord
100
AcDbRegAppTableRecord
  2
ACAD
 70
     0
  0
ENDTAB
  0
TABLE
  2
DIMSTYLE
  5
134
330
0
100
AcDbSymbolTable
 70
     1
100
AcDbDimStyleTable
 71
     0
  0
DIMSTYLE
105
15B
330
134
100
AcDbSymbolTableRecord
100
AcDbDimStyleTableRecord
  2
STANDARD
 70
     0
279
     2
340
13B
  0
ENDTAB
  0
TABLE
  2
BLOCK_RECORD
  5
12B
330
0
100
AcDbSymbolTable
 70
     2
  0
BLOCK_RECORD
  5
14A
330
12B
100
AcDbSymbolTableRecord
100
AcDbBlockTableRecord
  2
*Model_Space
340
14D
  0
BLOCK_RECORD
  5
146
330
12B
100
AcDbSymbolTableRecord
100
AcDbBlockTableRecord
  2
*Paper_Space
340
149
  0
BLOCK_RECORD
  5
160
330
12B
100
AcDbSymbolTableRecord
100
AcDbBlockTableRecord
  2
$MODEL_SPACE
340
0
  0
BLOCK_RECORD
  5
162
330
12B
100
AcDbSymbolTableRecord
100
AcDbBlockTableRecord
  2
$PAPER_SPACE
340
0
  0
ENDTAB
  0
ENDSEC
  0
SECTION
  2
BLOCKS
  0
BLOCK
  5
14B
330
14A
100
AcDbEntity
  8
0
100
AcDbBlockBegin
  2
*Model_Space
 70
     0
 10
0.0
 20
0.0
 30
0.0
  3
*Model_Space
  1

  0
ENDBLK
  5
14C
330
14A
100
AcDbEntity
  8
0
100
AcDbBlockEnd
  0
BLOCK
  5
147
330
146
100
AcDbEntity
 67
     1
  8
0
100
AcDbBlockBegin
  2
*Paper_Space
 70
     0
 10
0.0
 20
0.0
 30
0.0
  3
*Paper_Space
  1

  0
ENDBLK
  5
148
330
146
100
AcDbEntity
 67
     1
  8
0
100
AcDbBlockEnd
  0
BLOCK
  5
161
330
160
100
AcDbEntity
  8
0
100
AcDbBlockBegin
  2
$MODEL_SPACE
 70
     0
 10
0.0
 20
0.0
 30
0.0
  3
$MODEL_SPACE
  1

  0
ENDBLK
  5
20
330
160
100
AcDbEntity
  8
0
100
AcDbBlockEnd
  0
BLOCK
  5
163
330
162
100
AcDbEntity
  8
0
100
AcDbBlockBegin
  2
$PAPER_SPACE
 70
     0
 10
0.0
 20
0.0
 30
0.0
  3
$PAPER_SPACE
  1

  0
ENDBLK
  5
1C
330
162
100
AcDbEntity
  8
0
100
AcDbBlockEnd
  0
ENDSEC
  0
SECTION
  2
ENTITIES
  0
LINE
  5
33
330
14A
100
AcDbEntity
  8
1
 62
     3
100
AcDbLine
 10
333.4750000000001
 20
184.0
 30
0.0
 11
333.4750000000001
 21
181.0
 31
0.0
  0
LINE
  5
34
330
14A
100
AcDbEntity
  8
1
 62
     7
100
AcDbLine
 10
334.35
 20
181.0
 30
0.0
 11
330.85
 21
181.0
 31
0.0
  0
LINE
  5
35
330
14A
100
AcDbEntity
  8
1
 62
     3
100
AcDbLine
 10
333.8100000000001
 20
181.0
 30
0.0
 11
333.8100000000001
 21
184.0
 31
0.0
  0
LINE
  5
36
330
14A
100
AcDbEntity
  8
1
 62
     3
100
AcDbLine
 10
333.1400000000001
 20
184.0
 30
0.0
 11
333.1400000000001
 21
181.0
 31
0.0
  0
LINE
  5
37
330
14A
100
AcDbEntity
  8
1
 62
     3
100
AcDbLine
 10
331.7250000000001
 20
184.0
 30
0.0
 11
331.7250000000001
 21
181.0
 31
0.0
  0
LINE
  5
38
330
14A
100
AcDbEntity
  8
1
 62
     3
100
AcDbLine
 10
332.0600000000001
 20
181.0
 30
0.0
 11
332.0600000000001
 21
184.0
 31
0.0
  0
LINE
  5
39
330
14A
100
AcDbEntity
  8
1
 62
     3
100
AcDbLine
 10
331.3900000000001
 20
184.0
 30
0.0
 11
331.3900000000001
 21
181.0
 31
0.0
  0
LINE
  5
3A
330
14A
100
AcDbEntity
  8
1
 62
     3
100
AcDbLine
 10
160.775
 20
184.0
 30
0.0
 11
160.775
 21
181.0
 31
0.0
  0
LINE
  5
3B
330
14A
100
AcDbEntity
  8
1
 62
     7
100
AcDbLine
 10
159.8999999999998
 20
181.0
 30
0.0
 11
161.6499999999998
 21
181.0
 31
0.0
  0
LINE
  5
3C
330
14A
100
AcDbEntity
  8
1
 62
     3
100
AcDbLine
 10
161.11
 20
181.0
 30
0.0
 11
161.11
 21
184.0
 31
0.0
  0
LINE
  5
3D
330
14A
100
AcDbEntity
  8
1
 62
     3
100
AcDbLine
 10
160.44
 20
184.0
 30
0.0
 11
160.44
 21
181.0
 31
0.0
  0
LINE
  5
3E
330
14A
100
AcDbEntity
  8
1
 62
     3
100
AcDbLine
 10
243.025
 20
184.0
 30
0.0
 11
243.025
 21
181.0
 31
0.0
  0
LINE
  5
3F
330
14A
100
AcDbEntity
  8
1
 62
     7
100
AcDbLine
 10
266.625
 20
145.5
 30
0.0
 11
266.625
 21
151.3284271247461
 31
0.0
  0
LINE
  5
40
330
14A
100
AcDbEntity
  8
1
 62
     7
100
AcDbLine
 10
266.625
 20
151.3284271247461
 30
0.0
 11
266.625
 21
159.4999999999998
 31
0.0
  0
LINE
  5
41
330
14A
100
AcDbEntity
  8
1
 62
     7
100
AcDbLine
 10
257.725
 20
145.5
 30
0.0
 11
257.725
 21
143.0
 31
0.0
  0
LINE
  5
42
330
14A
100
AcDbEntity
  8
1
 62
     7
100
AcDbLine
 10
257.725
 20
151.3284271247461
 30
0.0
 11
257.725
 21
145.5
 31
0.0
  0
LINE
  5
43
330
14A
100
AcDbEntity
  8
1
 62
     7
100
AcDbLine
 10
257.6249999999999
 20
142.5
 30
0.0
 11
257.6249999999999
 21
154.4999999999998
 31
0.0
  0
LINE
  5
44
330
14A
100
AcDbEntity
  8
1
 62
     7
100
AcDbLine
 10
257.425
 20
142.5
 30
0.0
 11
257.425
 21
128.4999999999998
 31
0.0
  0
LINE
  5
45
330
14A
100
AcDbEntity
  8
1
 62
     7
100
AcDbLine
 10
257.6249999999999
 20
154.4999999999998
 30
0.0
 11
257.6249999999999
 21
168.65
 31
0.0
  0
LINE
  5
46
330
14A
100
AcDbEntity
  8
1
 62
     7
100
AcDbLine
 10
257.425
 20
154.4999999999998
 30
0.0
 11
257.425
 21
142.5
 31
0.0
  0
LINE
  5
47
330
14A
100
AcDbEntity
  8
1
 62
     7
100
AcDbLine
 10
256.5249999999999
 20
142.5
 30
0.0
 11
256.5249999999999
 21
136.1999999999999
 31
0.0
  0
LINE
  5
48
330
14A
100
AcDbEntity
  8
1
 62
     7
100
AcDbLine
 10
256.5249999999999
 20
154.4999999999998
 30
0.0
 11
256.5249999999999
 21
142.5
 31
0.0
  0
LINE
  5
49
330
14A
100
AcDbEntity
  8
1
 62
     7
100
AcDbLine
 10
250.8249999999999
 20
142.5
 30
0.0
 11
250.8249999999999
 21
141.25
 31
0.0
  0
LINE
  5
4A
330
14A
100
AcDbEntity
  8
1
 62
     7
100
AcDbLine
 10
250.8249999999999
 20
154.4999999999998
 30
0.0
 11
250.8249999999999
 21
142.5
 31
0.0
  0
LINE
  5
4B
330
14A
100
AcDbEntity
  8
1
 62
     7
100
AcDbLine
 10
239.1249999999999
 20
141.0
 30
0.0
 11
239.1249999999999
 21
156.0
 31
0.0
  0
LINE
  5
4C
330
14A
100
AcDbEntity
  8
1
 62
     7
100
AcDbLine
 10
239.1249999999999
 20
156.0
 30
0.0
 11
239.1249999999999
 21
156.3499999999999
 31
0.0
  0
LINE
  5
4D
330
14A
100
AcDbEntity
  8
1
 62
     7
100
AcDbLine
 10
237.975
 20
141.0
 30
0.0
 11
237.975
 21
140.65
 31
0.0
  0
LINE
  5
4E
330
14A
100
AcDbEntity
  8
1
 62
     7
100
AcDbLine
 10
237.975
 20
156.0
 30
0.0
 11
237.975
 21
141.0
 31
0.0
  0
LINE
  5
4F
330
14A
100
AcDbEntity
  8
1
 62
     7
100
AcDbLine
 10
237.0249999999999
 20
156.0
 30
0.0
 11
237.0249999999999
 21
141.0
 31
0.0
  0
LINE
  5
50
330
14A
100
AcDbEntity
  8
1
 62
     7
100
AcDbLine
 10
237.0249999999999
 20
141.0
 30
0.0
 11
237.0249999999999
 21
128.4
 31
0.0
  0
LINE
  5
51
330
14A
100
AcDbEntity
  8
1
 62
     7
100
AcDbLine
 10
235.625
 20
141.0
 30
0.0
 11
235.625
 21
128.4
 31
0.0
  0
LINE
  5
52
330
14A
100
AcDbEntity
  8
1
 62
     7
100
AcDbLine
 10
235.625
 20
156.0
 30
0.0
 11
235.625
 21
141.0
 31
0.0
  0
LINE
  5
53
330
14A
100
AcDbEntity
  8
1
 62
     7
100
AcDbLine
 10
257.6249999999999
 20
140.25
 30
0.0
 11
260.075
 21
140.25
 31
0.0
  0
LINE
  5
54
330
14A
100
AcDbEntity
  8
1
 62
     7
100
AcDbLine
 10
264.8045
 20
158.25
 30
0.0
 11
265.0749999999999
 21
157.9795
 31
0.0
  0
LINE
  5
55
330
14A
100
AcDbEntity
  8
1
 62
     7
100
AcDbLine
 10
265.0749999999999
 20
157.9795
 30
0.0
 11
266.625
 21
157.9795
 31
0.0
  0
LINE
  5
56
330
14A
100
AcDbEntity
  8
1
 62
     7
100
AcDbLine
 10
265.0749999999999
 20
155.5204999999999
 30
0.0
 11
266.625
 21
155.5204999999999
 31
0.0
  0
LINE
  5
57
330
14A
100
AcDbEntity
  8
1
 62
     3
100
AcDbLine
 10
261.354422863406
 20
155.5204999999999
 30
0.0
 11
265.0749999999999
 21
155.5204999999999
 31
0.0
  0
LINE
  5
58
330
14A
100
AcDbEntity
  8
1
 62
     3
100
AcDbLine
 10
261.354422863406
 20
157.9795
 30
0.0
 11
265.0749999999999
 21
157.9795
 31
0.0
  0
LINE
  5
59
330
14A
100
AcDbEntity
  8
1
 62
     7
100
AcDbLine
 10
256.325
 20
167.4499999999999
 30
0.0
 11
256.325
 21
162.5
 31
0.0
  0
LINE
  5
5A
330
14A
100
AcDbEntity
  8
1
 62
     7
100
AcDbLine
 10
257.425
 20
161.6999999999999
 30
0.0
 11
256.5249999999999
 21
160.8
 31
0.0
  0
LINE
  5
5B
330
14A
100
AcDbEntity
  8
1
 62
     7
100
AcDbLine
 10
257.425
 20
167.4499999999999
 30
0.0
 11
252.025
 21
167.4499999999999
 31
0.0
  0
LINE
  5
5C
330
14A
100
AcDbEntity
  8
1
 62
     7
100
AcDbLine
 10
257.425
 20
168.5
 30
0.0
 11
257.425
 21
154.4999999999998
 31
0.0
  0
LINE
  5
5D
330
14A
100
AcDbEntity
  8
1
 62
     7
100
AcDbLine
 10
256.5249999999999
 20
160.8
 30
0.0
 11
256.5249999999999
 21
154.4999999999998
 31
0.0
  0
LINE
  5
5E
330
14A
100
AcDbEntity
  8
1
 62
     7
100
AcDbLine
 10
250.8249999999999
 20
154.4999999999998
 30
0.0
 11
256.5249999999999
 21
154.4999999999998
 31
0.0
  0
LINE
  5
5F
330
14A
100
AcDbEntity
  8
1
 62
     7
100
AcDbLine
 10
257.425
 20
162.5
 30
0.0
 11
252.025
 21
162.5
 31
0.0
  0
LINE
  5
60
330
14A
100
AcDbEntity
  8
1
 62
     7
100
AcDbLine
 10
252.3249999999999
 20
155.75
 30
0.0
 11
250.8249999999999
 21
155.75
 31
0.0
  0
LINE
  5
61
330
14A
100
AcDbEntity
  8
1
 62
     7
100
AcDbLine
 10
250.8249999999999
 20
155.75
 30
0.0
 11
250.8249999999999
 21
154.4999999999998
 31
0.0
  0
LINE
  5
62
330
14A
100
AcDbEntity
  8
1
 62
     7
100
AcDbLine
 10
252.025
 20
155.8
 30
0.0
 11
252.3249999999999
 21
155.8
 31
0.0
  0
LINE
  5
63
330
14A
100
AcDbEntity
  8
1
 62
     7
100
AcDbLine
 10
252.3249999999999
 20
155.75
 30
0.0
 11
252.3249999999999
 21
167.4499999999999
 31
0.0
  0
LINE
  5
64
330
14A
100
AcDbEntity
  8
1
 62
     7
100
AcDbLine
 10
237.975
 20
156.3499999999999
 30
0.0
 11
239.1249999999999
 21
156.3499999999999
 31
0.0
  0
LINE
  5
65
330
14A
100
AcDbEntity
  8
1
 62
     7
100
AcDbLine
 10
237.975
 20
156.0
 30
0.0
 11
235.625
 21
156.0
 31
0.0
  0
LINE
  5
66
330
14A
100
AcDbEntity
  8
1
 62
     7
100
AcDbLine
 10
237.975
 20
156.3499999999999
 30
0.0
 11
237.975
 21
156.0
 31
0.0
  0
LINE
  5
67
330
14A
100
AcDbEntity
  8
1
 62
     7
100
AcDbLine
 10
235.625
 20
128.4
 30
0.0
 11
237.0249999999999
 21
128.4
 31
0.0
  0
LINE
  5
68
330
14A
100
AcDbEntity
  8
1
 62
     7
100
AcDbLine
 10
235.625
 20
168.5999999999999
 30
0.0
 11
235.625
 21
156.0
 31
0.0
  0
LINE
  5
69
330
14A
100
AcDbEntity
  8
1
 62
     7
100
AcDbLine
 10
237.0249999999999
 20
168.5999999999999
 30
0.0
 11
235.625
 21
168.5999999999999
 31
0.0
  0
LINE
  5
6A
330
14A
100
AcDbEntity
  8
1
 62
     7
100
AcDbLine
 10
238.025
 20
128.4999999999998
 30
0.0
 11
257.425
 21
128.4999999999998
 31
0.0
  0
LINE
  5
6B
330
14A
100
AcDbEntity
  8
1
 62
     7
100
AcDbLine
 10
237.0249999999999
 20
129.4999999999998
 30
0.0
 11
238.025
 21
128.4999999999998
 31
0.0
  0
LINE
  5
6C
330
14A
100
AcDbEntity
  8
1
 62
     7
100
AcDbLine
 10
238.025
 20
168.5
 30
0.0
 11
237.0249999999999
 21
167.5
 31
0.0
  0
LINE
  5
6D
330
14A
100
AcDbEntity
  8
1
 62
     7
100
AcDbLine
 10
252.025
 20
156.0
 30
0.0
 11
239.1249999999999
 21
156.0
 31
0.0
  0
LINE
  5
6E
330
14A
100
AcDbEntity
  8
1
  6
DASHDOT
 62
     3
100
AcDbLine
 10
232.6249999999999
 20
148.5
 30
0.0
 11
235.625
 21
148.5
 31
0.0
  0
LINE
  5
6F
330
14A
100
AcDbEntity
  8
1
 62
     7
100
AcDbLine
 10
252.025
 20
167.4499999999999
 30
0.0
 11
252.025
 21
155.75
 31
0.0
  0
LINE
  5
70
330
14A
100
AcDbEntity
  8
1
 62
     7
100
AcDbLine
 10
237.0249999999999
 20
168.5999999999999
 30
0.0
 11
237.0249999999999
 21
156.0
 31
0.0
  0
LINE
  5
71
330
14A
100
AcDbEntity
  8
1
 62
     7
100
AcDbLine
 10
238.025
 20
168.5
 30
0.0
 11
257.425
 21
168.5
 31
0.0
  0
LINE
  5
72
330
14A
100
AcDbEntity
  8
1
 62
     7
100
AcDbLine
 10
242.1499999999999
 20
181.0
 30
0.0
 11
243.9
 21
181.0
 31
0.0
  0
LINE
  5
73
330
14A
100
AcDbEntity
  8
1
 62
     7
100
AcDbLine
 10
264.8045
 20
155.25
 30
0.0
 11
260.075
 21
155.25
 31
0.0
  0
LINE
  5
74
330
14A
100
AcDbEntity
  8
1
 62
     3
100
AcDbLine
 10
264.8045
 20
155.25
 30
0.0
 11
266.625
 21
155.25
 31
0.0
  0
LINE
  5
75
330
14A
100
AcDbEntity
  8
1
 62
     3
100
AcDbLine
 10
264.8045
 20
158.25
 30
0.0
 11
266.625
 21
158.25
 31
0.0
  0
LINE
  5
76
330
14A
100
AcDbEntity
  8
1
 62
     7
100
AcDbLine
 10
260.325
 20
158.25
 30
0.0
 11
260.325
 21
168.0
 31
0.0
  0
LINE
  5
77
330
14A
100
AcDbEntity
  8
1
 62
     7
100
AcDbLine
 10
257.725
 20
154.0
 30
0.0
 11
260.325
 21
154.0
 31
0.0
  0
LINE
  5
78
330
14A
100
AcDbEntity
  8
1
 62
     3
100
AcDbLine
 10
261.354422863406
 20
155.5204999999999
 30
0.0
 11
260.8859031199585
 21
155.25
 31
0.0
  0
LINE
  5
79
330
14A
100
AcDbEntity
  8
1
 62
     3
100
AcDbLine
 10
261.354422863406
 20
157.9795
 30
0.0
 11
260.8859031199585
 21
158.25
 31
0.0
  0
LINE
  5
7A
330
14A
100
AcDbEntity
  8
1
 62
     7
100
AcDbLine
 10
261.354422863406
 20
158.25
 30
0.0
 11
261.354422863406
 21
155.25
 31
0.0
  0
LINE
  5
7B
330
14A
100
AcDbEntity
  8
1
 62
     7
100
AcDbLine
 10
264.8045
 20
158.25
 30
0.0
 11
264.8045
 21
155.25
 31
0.0
  0
LINE
  5
7C
330
14A
100
AcDbEntity
  8
1
 62
     7
100
AcDbLine
 10
265.0749999999999
 20
155.5204999999999
 30
0.0
 11
264.8045
 21
155.25
 31
0.0
  0
LINE
  5
7D
330
14A
100
AcDbEntity
  8
1
 62
     7
100
AcDbLine
 10
265.0749999999999
 20
157.9795
 30
0.0
 11
265.0749999999999
 21
155.5204999999999
 31
0.0
  0
LINE
  5
7E
330
14A
100
AcDbEntity
  8
1
 62
     7
100
AcDbLine
 10
260.075
 20
158.25
 30
0.0
 11
264.8045
 21
158.25
 31
0.0
  0
LINE
  5
7F
330
14A
100
AcDbEntity
  8
1
 62
     7
100
AcDbLine
 10
259.3358798583754
 20
159.4999999999998
 30
0.0
 11
259.775
 21
159.4999999999998
 31
0.0
  0
LINE
  5
80
330
14A
100
AcDbEntity
  8
1
 62
     7
100
AcDbLine
 10
257.6249999999999
 20
160.05
 30
0.0
 11
260.075
 21
160.05
 31
0.0
  0
LINE
  5
81
330
14A
100
AcDbEntity
  8
1
 62
     7
100
AcDbLine
 10
260.075
 20
129.0
 30
0.0
 11
260.325
 21
129.0
 31
0.0
  0
LINE
  5
82
330
14A
100
AcDbEntity
  8
1
 62
     7
100
AcDbLine
 10
260.075
 20
168.0
 30
0.0
 11
260.325
 21
168.0
 31
0.0
  0
LINE
  5
83
330
14A
100
AcDbEntity
  8
1
 62
     7
100
AcDbLine
 10
257.6249999999999
 20
128.3499999999999
 30
0.0
 11
257.6249999999999
 21
142.5
 31
0.0
  0
LINE
  5
84
330
14A
100
AcDbEntity
  8
1
 62
     7
100
AcDbLine
 10
260.075
 20
128.3499999999999
 30
0.0
 11
257.6249999999999
 21
128.3499999999999
 31
0.0
  0
LINE
  5
85
330
14A
100
AcDbEntity
  8
1
 62
     7
100
AcDbLine
 10
260.075
 20
168.65
 30
0.0
 11
260.075
 21
154.0
 31
0.0
  0
LINE
  5
86
330
14A
100
AcDbEntity
  8
1
 62
     7
100
AcDbLine
 10
257.6249999999999
 20
168.65
 30
0.0
 11
260.075
 21
168.65
 31
0.0
  0
LINE
  5
87
330
14A
100
AcDbEntity
  8
1
 62
     7
100
AcDbLine
 10
266.625
 20
159.4999999999998
 30
0.0
 11
260.325
 21
159.4999999999998
 31
0.0
  0
LINE
  5
88
330
14A
100
AcDbEntity
  8
1
 62
     7
100
AcDbLine
 10
260.325
 20
154.0
 30
0.0
 11
260.325
 21
155.25
 31
0.0
  0
LINE
  5
89
330
14A
100
AcDbEntity
  8
1
 62
     7
100
AcDbLine
 10
257.725
 20
154.0
 30
0.0
 11
257.725
 21
151.3284271247461
 31
0.0
  0
LINE
  5
8A
330
14A
100
AcDbEntity
  8
1
 62
     7
100
AcDbLine
 10
260.325
 20
137.5
 30
0.0
 11
266.625
 21
137.5
 31
0.0
  0
LINE
  5
8B
330
14A
100
AcDbEntity
  8
1
 62
     7
100
AcDbLine
 10
266.625
 20
137.5
 30
0.0
 11
266.625
 21
145.5
 31
0.0
  0
LINE
  5
8C
330
14A
100
AcDbEntity
  8
1
 62
     7
100
AcDbLine
 10
257.725
 20
151.3284271247461
 30
0.0
 11
266.625
 21
151.3284271247461
 31
0.0
  0
LINE
  5
8D
330
14A
100
AcDbEntity
  8
1
 62
     7
100
AcDbLine
 10
257.725
 20
152.4
 30
0.0
 11
266.625
 21
152.4
 31
0.0
  0
LINE
  5
8E
330
14A
100
AcDbEntity
  8
1
 62
     7
100
AcDbLine
 10
260.325
 20
132.4999999999998
 30
0.0
 11
260.575
 21
132.4999999999998
 31
0.0
  0
LINE
  5
8F
330
14A
100
AcDbEntity
  8
1
 62
     7
100
AcDbLine
 10
260.575
 20
132.4999999999998
 30
0.0
 11
260.575
 21
129.4999999999998
 31
0.0
  0
LINE
  5
90
330
14A
100
AcDbEntity
  8
1
 62
     7
100
AcDbLine
 10
260.575
 20
129.4999999999998
 30
0.0
 11
260.325
 21
129.4999999999998
 31
0.0
  0
LINE
  5
91
330
14A
100
AcDbEntity
  8
1
 62
     7
100
AcDbLine
 10
260.075
 20
128.3499999999999
 30
0.0
 11
260.075
 21
129.9
 31
0.0
  0
LINE
  5
92
330
14A
100
AcDbEntity
  8
1
 62
     7
100
AcDbLine
 10
260.325
 20
129.0
 30
0.0
 11
260.325
 21
129.9
 31
0.0
  0
LINE
  5
93
330
14A
100
AcDbEntity
  8
1
  6
CENTER
 62
     3
100
AcDbLine
 10
263.6249999999999
 20
136.4999999999998
 30
0.0
 11
263.6249999999999
 21
151.0
 31
0.0
  0
LINE
  5
94
330
14A
100
AcDbEntity
  8
1
 62
     3
100
AcDbLine
 10
243.36
 20
181.0
 30
0.0
 11
243.36
 21
184.0
 31
0.0
  0
LINE
  5
95
330
14A
100
AcDbEntity
  8
1
 62
     3
100
AcDbLine
 10
242.6899999999999
 20
184.0
 30
0.0
 11
242.6899999999999
 21
181.0
 31
0.0
  0
LINE
  5
96
330
14A
100
AcDbEntity
  8
1
 62
     7
100
AcDbLine
 10
332.6
 20
169.05
 30
0.0
 11
332.6
 21
181.0
 31
0.0
  0
LINE
  5
97
330
14A
100
AcDbEntity
  8
1
 62
     7
100
AcDbLine
 10
184.375
 20
159.4999999999998
 30
0.0
 11
184.375
 21
137.5
 31
0.0
  0
LINE
  5
98
330
14A
100
AcDbEntity
  8
1
 62
     7
100
AcDbLine
 10
163.2749999999998
 20
169.05
 30
0.0
 11
163.2749999999998
 21
168.5
 31
0.0
  0
LINE
  5
99
330
14A
100
AcDbEntity
  8
1
 62
     7
100
AcDbLine
 10
158.2749999999998
 20
169.05
 30
0.0
 11
158.2749999999998
 21
168.5
 31
0.0
  0
LINE
  5
9A
330
14A
100
AcDbEntity
  8
1
 62
     7
100
AcDbLine
 10
175.175
 20
168.5
 30
0.0
 11
175.175
 21
128.4999999999998
 31
0.0
  0
LINE
  5
9B
330
14A
100
AcDbEntity
  8
1
 62
     7
100
AcDbLine
 10
153.3749999999998
 20
128.4
 30
0.0
 11
154.775
 21
128.4
 31
0.0
  0
LINE
  5
9C
330
14A
100
AcDbEntity
  8
1
 62
     7
100
AcDbLine
 10
153.3749999999998
 20
168.5999999999999
 30
0.0
 11
153.3749999999998
 21
128.4
 31
0.0
  0
LINE
  5
9D
330
14A
100
AcDbEntity
  8
1
 62
     7
100
AcDbLine
 10
154.775
 20
168.5999999999999
 30
0.0
 11
153.3749999999998
 21
168.5999999999999
 31
0.0
  0
LINE
  5
9E
330
14A
100
AcDbEntity
  8
1
 62
     7
100
AcDbLine
 10
155.775
 20
128.4999999999998
 30
0.0
 11
175.175
 21
128.4999999999998
 31
0.0
  0
LINE
  5
9F
330
14A
100
AcDbEntity
  8
1
 62
     7
100
AcDbLine
 10
154.775
 20
129.4999999999998
 30
0.0
 11
155.775
 21
128.4999999999998
 31
0.0
  0
LINE
  5
A0
330
14A
100
AcDbEntity
  8
1
 62
     7
100
AcDbLine
 10
155.775
 20
168.5
 30
0.0
 11
154.775
 21
167.5
 31
0.0
  0
LINE
  5
A1
330
14A
100
AcDbEntity
  8
1
 62
     7
100
AcDbLine
 10
154.775
 20
168.5999999999999
 30
0.0
 11
154.775
 21
128.4
 31
0.0
  0
LINE
  5
A2
330
14A
100
AcDbEntity
  8
1
 62
     7
100
AcDbLine
 10
159.8999999999998
 20
181.0
 30
0.0
 11
159.8999999999998
 21
169.05
 31
0.0
  0
LINE
  5
A3
330
14A
100
AcDbEntity
  8
1
 62
     7
100
AcDbLine
 10
161.6499999999998
 20
181.0
 30
0.0
 11
161.6499999999998
 21
169.05
 31
0.0
  0
LINE
  5
A4
330
14A
100
AcDbEntity
  8
1
 62
     7
100
AcDbLine
 10
178.0749999999999
 20
168.0
 30
0.0
 11
178.0749999999999
 21
129.0
 31
0.0
  0
LINE
  5
A5
330
14A
100
AcDbEntity
  8
1
 62
     7
100
AcDbLine
 10
177.8249999999999
 20
129.0
 30
0.0
 11
178.0749999999999
 21
129.0
 31
0.0
  0
LINE
  5
A6
330
14A
100
AcDbEntity
  8
1
 62
     7
100
AcDbLine
 10
177.8249999999999
 20
168.0
 30
0.0
 11
178.0749999999999
 21
168.0
 31
0.0
  0
LINE
  5
A7
330
14A
100
AcDbEntity
  8
1
 62
     7
100
AcDbLine
 10
175.375
 20
128.3499999999999
 30
0.0
 11
175.375
 21
168.65
 31
0.0
  0
LINE
  5
A8
330
14A
100
AcDbEntity
  8
1
 62
     7
100
AcDbLine
 10
177.8249999999999
 20
128.3499999999999
 30
0.0
 11
175.375
 21
128.3499999999999
 31
0.0
  0
LINE
  5
A9
330
14A
100
AcDbEntity
  8
1
 62
     7
100
AcDbLine
 10
177.8249999999999
 20
168.65
 30
0.0
 11
177.8249999999999
 21
128.3499999999999
 31
0.0
  0
LINE
  5
AA
330
14A
100
AcDbEntity
  8
1
 62
     7
100
AcDbLine
 10
175.375
 20
168.65
 30
0.0
 11
177.8249999999999
 21
168.65
 31
0.0
  0
LINE
  5
AB
330
14A
100
AcDbEntity
  8
1
 62
     7
100
AcDbLine
 10
184.375
 20
159.4999999999998
 30
0.0
 11
178.0749999999999
 21
159.4999999999998
 31
0.0
  0
LINE
  5
AC
330
14A
100
AcDbEntity
  8
1
 62
     7
100
AcDbLine
 10
178.0749999999999
 20
137.5
 30
0.0
 11
184.375
 21
137.5
 31
0.0
  0
LINE
  5
AD
330
14A
100
AcDbEntity
  8
1
 62
     7
100
AcDbLine
 10
178.0749999999999
 20
132.4999999999998
 30
0.0
 11
178.3249999999999
 21
132.4999999999998
 31
0.0
  0
LINE
  5
AE
330
14A
100
AcDbEntity
  8
1
 62
     7
100
AcDbLine
 10
178.3249999999999
 20
132.4999999999998
 30
0.0
 11
178.3249999999999
 21
129.4999999999998
 31
0.0
  0
LINE
  5
AF
330
14A
100
AcDbEntity
  8
1
 62
     7
100
AcDbLine
 10
178.3249999999999
 20
129.4999999999998
 30
0.0
 11
178.0749999999999
 21
129.4999999999998
 31
0.0
  0
LINE
  5
B0
330
14A
100
AcDbEntity
  8
1
 62
     7
100
AcDbLine
 10
334.6
 20
162.6862609591111
 30
0.0
 11
334.6
 21
160.1189500386221
 31
0.0
  0
LINE
  5
B1
330
14A
100
AcDbEntity
  8
1
 62
     7
100
AcDbLine
 10
343.6623058987491
 20
144.4225757882577
 30
0.0
 11
345.8856623753056
 21
143.1389203280133
 31
0.0
  0
LINE
  5
B2
330
14A
100
AcDbEntity
  8
1
 62
     7
100
AcDbLine
 10
319.3143376246943
 20
143.1389203280133
 30
0.0
 11
321.5376941012511
 21
144.4225757882577
 31
0.0
  0
LINE
  5
B3
330
14A
100
AcDbEntity
  8
1
 62
     7
100
AcDbLine
 10
343.8856623753056
 20
139.6748187128755
 30
0.0
 11
341.662305898749
 21
140.95847417312
 31
0.0
  0
LINE
  5
B4
330
14A
100
AcDbEntity
  8
1
 62
     7
100
AcDbLine
 10
330.6
 20
160.1189500386221
 30
0.0
 11
330.6
 21
162.6862609591111
 31
0.0
  0
LINE
  5
B5
330
14A
100
AcDbEntity
  8
1
 62
     7
100
AcDbLine
 10
323.5376941012511
 20
140.95847417312
 30
0.0
 11
321.3143376246943
 21
139.6748187128756
 31
0.0
  0
LINE
  5
B6
330
14A
100
AcDbEntity
  8
1
 62
     7
100
AcDbLine
 10
331.6
 20
151.3284271247461
 30
0.0
 11
331.6
 21
152.4
 31
0.0
  0
LINE
  5
B7
330
14A
100
AcDbEntity
  8
1
 62
     7
100
AcDbLine
 10
331.6
 20
152.4
 30
0.0
 11
333.6
 21
152.4
 31
0.0
  0
LINE
  5
B8
330
14A
100
AcDbEntity
  8
1
 62
     7
100
AcDbLine
 10
333.6
 20
152.4
 30
0.0
 11
333.6
 21
151.3284271247461
 31
0.0
  0
LINE
  5
B9
330
14A
100
AcDbEntity
  8
1
 62
     7
100
AcDbLine
 10
334.1810180418938
 20
128.4121210191019
 30
0.0
 11
352.4630213726108
 21
128.4121210191019
 31
0.0
  0
LINE
  5
BA
330
14A
100
AcDbEntity
  8
1
 62
     7
100
AcDbLine
 10
312.5
 20
147.0813739040895
 30
0.0
 11
312.5
 21
128.6492443468769
 31
0.0
  0
LINE
  5
BB
330
14A
100
AcDbEntity
  8
1
 62
     7
100
AcDbLine
 10
312.5
 20
149.9186260959104
 30
0.0
 11
312.5
 21
168.350755653123
 31
0.0
  0
LINE
  5
BC
330
14A
100
AcDbEntity
  8
1
 62
     7
100
AcDbLine
 10
331.0189819581061
 20
128.4121210191019
 30
0.0
 11
312.7369786273891
 21
128.4121210191019
 31
0.0
  0
LINE
  5
BD
330
14A
100
AcDbEntity
  8
1
 62
     7
100
AcDbLine
 10
352.7
 20
147.081373904089
 30
0.0
 11
352.7
 21
128.6492443468768
 31
0.0
  0
LINE
  5
BE
330
14A
100
AcDbEntity
  8
1
 62
     7
100
AcDbLine
 10
155.775
 20
168.5
 30
0.0
 11
175.175
 21
168.5
 31
0.0
  0
LINE
  5
BF
330
14A
100
AcDbEntity
  8
1
 62
     7
100
AcDbLine
 10
334.35
 20
169.05
 30
0.0
 11
334.35
 21
181.0
 31
0.0
  0
LINE
  5
C0
330
14A
100
AcDbEntity
  8
1
 62
     7
100
AcDbLine
 10
330.85
 20
169.05
 30
0.0
 11
330.85
 21
181.0
 31
0.0
  0
LINE
  5
C1
330
14A
100
AcDbEntity
  8
1
 62
     7
100
AcDbLine
 10
330.1
 20
168.4943116910784
 30
0.0
 11
330.1
 21
169.05
 31
0.0
  0
LINE
  5
C2
330
14A
100
AcDbEntity
  8
1
 62
     7
100
AcDbLine
 10
330.1
 20
169.05
 30
0.0
 11
335.1
 21
169.05
 31
0.0
  0
LINE
  5
C3
330
14A
100
AcDbEntity
  8
1
 62
     7
100
AcDbLine
 10
335.1
 20
169.05
 30
0.0
 11
335.1
 21
168.4943116910784
 31
0.0
  0
LINE
  5
C4
330
14A
100
AcDbEntity
  8
1
 62
     7
100
AcDbLine
 10
163.2749999999998
 20
169.05
 30
0.0
 11
158.2749999999998
 21
169.05
 31
0.0
  0
LINE
  5
C5
330
14A
100
AcDbEntity
  8
1
  6
DASHDOT
 62
     3
100
AcDbLine
 10
331.106073830649
 20
148.5
 30
0.0
 11
334.1060493527758
 21
148.5
 31
0.0
  0
LINE
  5
C6
330
14A
100
AcDbEntity
  8
1
  6
DASHDOT
 62
     3
100
AcDbLine
 10
332.6
 20
147.0060716750709
 30
0.0
 11
332.6
 21
150.0060471797081
 31
0.0
  0
LINE
  5
C7
330
14A
100
AcDbEntity
  8
1
  6
DASHDOT
 62
     3
100
AcDbLine
 10
347.6906681866204
 20
163.6027892057223
 30
0.0
 11
351.4383341269092
 21
167.350455146011
 31
0.0
  0
LINE
  5
C8
330
14A
100
AcDbEntity
  8
1
  6
DASHDOT
 62
     3
100
AcDbLine
 10
317.4972107942776
 20
163.5906681866202
 30
0.0
 11
313.749544853989
 21
167.338334126909
 31
0.0
  0
LINE
  5
C9
330
14A
100
AcDbEntity
  8
1
  6
DASHDOT
 62
     3
100
AcDbLine
 10
317.5093318133796
 20
133.3972107942777
 30
0.0
 11
313.7616658730908
 21
129.649544853989
 31
0.0
  0
LINE
  5
CA
330
14A
100
AcDbEntity
  8
1
  6
DASHDOT
 62
     3
100
AcDbLine
 10
347.7027892057223
 20
133.4093318133795
 30
0.0
 11
351.450455146011
 21
129.6616658730909
 31
0.0
  0
LINE
  5
CB
330
14A
100
AcDbEntity
  8
1
 62
     7
100
AcDbLine
 10
155.775
 20
168.5
 30
0.0
 11
155.775
 21
128.4999999999998
 31
0.0
  0
LINE
  5
CC
330
14A
100
AcDbEntity
  8
1
 62
     7
100
AcDbLine
 10
178.0749999999999
 20
158.75
 30
0.0
 11
178.3249999999999
 21
158.75
 31
0.0
  0
LINE
  5
CD
330
14A
100
AcDbEntity
  8
1
 62
     7
100
AcDbLine
 10
178.0749999999999
 20
155.75
 30
0.0
 11
178.3249999999999
 21
155.75
 31
0.0
  0
LINE
  5
CE
330
14A
100
AcDbEntity
  8
1
 62
     7
100
AcDbLine
 10
178.3249999999999
 20
158.75
 30
0.0
 11
178.3249999999999
 21
155.75
 31
0.0
  0
LINE
  5
CF
330
14A
100
AcDbEntity
  8
1
  6
DASHDOT
 62
     3
100
AcDbLine
 10
184.375
 20
148.5
 30
0.0
 11
187.375
 21
148.5
 31
0.0
  0
LINE
  5
D0
330
14A
100
AcDbEntity
  8
1
  6
DASHDOT
 62
     3
100
AcDbLine
 10
150.375
 20
148.5
 30
0.0
 11
153.3749999999998
 21
148.5
 31
0.0
  0
LINE
  5
D1
330
14A
100
AcDbEntity
  8
1
 62
     7
100
AcDbLine
 10
250.8249999999999
 20
141.25
 30
0.0
 11
252.3249999999999
 21
141.25
 31
0.0
  0
LINE
  5
D2
330
14A
100
AcDbEntity
  8
1
 62
     7
100
AcDbLine
 10
252.3249999999999
 20
141.1999999999999
 30
0.0
 11
252.025
 21
141.1999999999999
 31
0.0
  0
LINE
  5
D3
330
14A
100
AcDbEntity
  8
1
 62
     7
100
AcDbLine
 10
239.1249999999999
 20
140.65
 30
0.0
 11
237.975
 21
140.65
 31
0.0
  0
LINE
  5
D4
330
14A
100
AcDbEntity
  8
1
 62
     7
100
AcDbLine
 10
235.625
 20
141.0
 30
0.0
 11
237.975
 21
141.0
 31
0.0
  0
LINE
  5
D5
330
14A
100
AcDbEntity
  8
1
 62
     7
100
AcDbLine
 10
239.1249999999999
 20
141.0
 30
0.0
 11
252.025
 21
141.0
 31
0.0
  0
LINE
  5
D6
330
14A
100
AcDbEntity
  8
1
 62
     7
100
AcDbLine
 10
239.1249999999999
 20
140.65
 30
0.0
 11
239.1249999999999
 21
141.0
 31
0.0
  0
LINE
  5
D7
330
14A
100
AcDbEntity
  8
1
 62
     7
100
AcDbLine
 10
256.5249999999999
 20
142.5
 30
0.0
 11
250.8249999999999
 21
142.5
 31
0.0
  0
LINE
  5
D8
330
14A
100
AcDbEntity
  8
1
 62
     7
100
AcDbLine
 10
256.325
 20
134.4999999999998
 30
0.0
 11
256.325
 21
129.55
 31
0.0
  0
LINE
  5
D9
330
14A
100
AcDbEntity
  8
1
 62
     7
100
AcDbLine
 10
257.425
 20
134.4999999999998
 30
0.0
 11
252.025
 21
134.4999999999998
 31
0.0
  0
LINE
  5
DA
330
14A
100
AcDbEntity
  8
1
 62
     7
100
AcDbLine
 10
252.025
 20
129.55
 30
0.0
 11
257.425
 21
129.55
 31
0.0
  0
LINE
  5
DB
330
14A
100
AcDbEntity
  8
1
 62
     7
100
AcDbLine
 10
252.3249999999999
 20
129.55
 30
0.0
 11
252.3249999999999
 21
141.25
 31
0.0
  0
LINE
  5
DC
330
14A
100
AcDbEntity
  8
1
 62
     7
100
AcDbLine
 10
252.025
 20
141.25
 30
0.0
 11
252.025
 21
129.55
 31
0.0
  0
LINE
  5
DD
330
14A
100
AcDbEntity
  8
1
 62
     7
100
AcDbLine
 10
256.5249999999999
 20
136.1999999999999
 30
0.0
 11
257.425
 21
135.3
 31
0.0
  0
LINE
  5
DE
330
14A
100
AcDbEntity
  8
1
  6
DASHDOT
 62
     3
100
AcDbLine
 10
261.125
 20
148.5
 30
0.0
 11
269.625
 21
148.5
 31
0.0
  0
LINE
  5
DF
330
14A
100
AcDbEntity
  8
1
 62
     3
100
AcDbLine
 10
265.125
 20
145.5
 30
0.0
 11
265.125
 21
137.5
 31
0.0
  0
LINE
  5
E0
330
14A
100
AcDbEntity
  8
1
 62
     7
100
AcDbLine
 10
264.8544999999999
 20
145.5
 30
0.0
 11
264.8544999999999
 21
137.5
 31
0.0
  0
LINE
  5
E1
330
14A
100
AcDbEntity
  8
1
 62
     7
100
AcDbLine
 10
262.3955
 20
145.5
 30
0.0
 11
262.3955
 21
137.5
 31
0.0
  0
LINE
  5
E2
330
14A
100
AcDbEntity
  8
1
 62
     3
100
AcDbLine
 10
262.1249999999999
 20
145.5
 30
0.0
 11
262.1249999999999
 21
137.5
 31
0.0
  0
LINE
  5
E3
330
14A
100
AcDbEntity
  8
1
 62
     7
100
AcDbLine
 10
266.625
 20
145.5
 30
0.0
 11
257.725
 21
145.5
 31
0.0
  0
LINE
  5
E4
330
14A
100
AcDbEntity
  8
1
 62
     7
100
AcDbLine
 10
257.725
 20
143.0
 30
0.0
 11
260.325
 21
143.0
 31
0.0
  0
LINE
  5
E5
330
14A
100
AcDbEntity
  8
1
 62
     7
100
AcDbLine
 10
153.3749999999998
 20
168.350755653123
 30
0.0
 11
154.775
 21
168.350755653123
 31
0.0
  0
LINE
  5
E6
330
14A
100
AcDbEntity
  8
1
 62
     7
100
AcDbLine
 10
153.3749999999998
 20
128.6492443468769
 30
0.0
 11
154.775
 21
128.6492443468769
 31
0.0
  0
LINE
  5
E7
330
14A
100
AcDbEntity
  8
1
 62
     7
100
AcDbLine
 10
240.525
 20
169.05
 30
0.0
 11
245.5249999999999
 21
169.05
 31
0.0
  0
LINE
  5
E8
330
14A
100
AcDbEntity
  8
1
 62
     7
100
AcDbLine
 10
245.5249999999999
 20
169.05
 30
0.0
 11
245.5249999999999
 21
168.5
 31
0.0
  0
LINE
  5
E9
330
14A
100
AcDbEntity
  8
1
 62
     7
100
AcDbLine
 10
240.525
 20
169.05
 30
0.0
 11
240.525
 21
168.5
 31
0.0
  0
LINE
  5
EA
330
14A
100
AcDbEntity
  8
1
 62
     7
100
AcDbLine
 10
243.9
 20
169.05
 30
0.0
 11
243.9
 21
181.0
 31
0.0
  0
LINE
  5
EB
330
14A
100
AcDbEntity
  8
1
 62
     7
100
AcDbLine
 10
242.1499999999999
 20
169.05
 30
0.0
 11
242.1499999999999
 21
181.0
 31
0.0
  0
LINE
  5
EC
330
14A
100
AcDbEntity
  8
1
 62
     7
100
AcDbLine
 10
260.075
 20
132.0999999999999
 30
0.0
 11
260.325
 21
132.0999999999999
 31
0.0
  0
LINE
  5
ED
330
14A
100
AcDbEntity
  8
1
 62
     7
100
AcDbLine
 10
260.075
 20
129.9
 30
0.0
 11
260.325
 21
129.9
 31
0.0
  0
LINE
  5
EE
330
14A
100
AcDbEntity
  8
1
 62
     7
100
AcDbLine
 10
260.325
 20
132.0999999999999
 30
0.0
 11
260.325
 21
143.0
 31
0.0
  0
LINE
  5
EF
330
14A
100
AcDbEntity
  8
1
 62
     7
100
AcDbLine
 10
260.075
 20
132.0999999999999
 30
0.0
 11
260.075
 21
143.0
 31
0.0
  0
LINE
  5
F0
330
14A
100
AcDbEntity
  8
1
 62
     7
100
AcDbLine
 10
352.7
 20
168.3507556531232
 30
0.0
 11
352.7
 21
149.9186260959108
 31
0.0
  0
LINE
  5
F1
330
14A
100
AcDbEntity
  8
1
 62
     7
100
AcDbLine
 10
352.4384749442341
 20
168.6121210191018
 30
0.0
 11
335.1
 21
168.6121210191018
 31
0.0
  0
LINE
  5
F2
330
14A
100
AcDbEntity
  8
1
 62
     7
100
AcDbLine
 10
312.761525055766
 20
168.6121210191018
 30
0.0
 11
330.1
 21
168.6121210191018
 31
0.0
  0
ARC
  5
F3
330
14A
100
AcDbEntity
  8
1
 62
     7
100
AcDbCircle
 10
265.0749999999999
 20
156.75
 30
0.0
 40
7.000000000000041
100
AcDbArc
 50
163.0422366999955
 51
196.9577633000044
  0
ARC
  5
F4
330
14A
100
AcDbEntity
  8
1
 62
     7
100
AcDbCircle
 10
332.6
 20
148.5
 30
0.0
 40
15.5
100
AcDbArc
 50
341.9405439606088
 51
78.05945603939107
  0
ARC
  5
F5
330
14A
100
AcDbEntity
  8
1
 62
     7
100
AcDbCircle
 10
332.6
 20
148.5
 30
0.0
 40
15.50000000000003
100
AcDbArc
 50
101.9405439606091
 51
198.0594560393911
  0
ARC
  5
F6
330
14A
100
AcDbEntity
  8
1
 62
     7
100
AcDbCircle
 10
332.6
 20
148.5
 30
0.0
 40
15.5000000000001
100
AcDbArc
 50
221.9405439606088
 51
318.0594560393911
  0
ARC
  5
F7
330
14A
100
AcDbEntity
  8
1
 62
     7
100
AcDbCircle
 10
332.6
 20
148.5
 30
0.0
 40
3.00000000000002
100
AcDbArc
 50
109.4712206344905
 51
70.52877936550948
  0
ARC
  5
F8
330
14A
100
AcDbEntity
  8
1
  6
DASHDOT
 62
     3
100
AcDbCircle
 10
332.6
 20
148.5
 30
0.0
 40
23.99999999999995
100
AcDbArc
 50
38.69083423152485
 51
51.35008858659232
  0
ARC
  5
F9
330
14A
100
AcDbEntity
  8
1
  6
DASHDOT
 62
     3
100
AcDbCircle
 10
332.6
 20
148.5
 30
0.0
 40
23.99999999999999
100
AcDbArc
 50
128.6908342315248
 51
141.3500885865925
  0
ARC
  5
FA
330
14A
100
AcDbEntity
  8
1
  6
DASHDOT
 62
     3
100
AcDbCircle
 10
332.6
 20
148.5
 30
0.0
 40
23.99999999999999
100
AcDbArc
 50
218.6908342315247
 51
231.3500885865924
  0
ARC
  5
FB
330
14A
100
AcDbEntity
  8
1
  6
DASHDOT
 62
     3
100
AcDbCircle
 10
332.6
 20
148.5
 30
0.0
 40
23.99999999999995
100
AcDbArc
 50
308.6908342315248
 51
321.3500885865926
  0
ARC
  5
FC
330
14A
100
AcDbEntity
  8
1
 62
     7
100
AcDbCircle
 10
332.6000000000028
 20
148.4999999999971
 30
0.0
 40
28.25
100
AcDbArc
 50
44.64254834146228
 51
45.39244771193691
  0
ARC
  5
FD
330
14A
100
AcDbEntity
  8
1
 62
     7
100
AcDbCircle
 10
332.6000000000015
 20
148.5000000000015
 30
0.0
 40
28.24999999999997
100
AcDbArc
 50
134.6075522880757
 51
135.3574516585505
  0
ARC
  5
FE
330
14A
100
AcDbEntity
  8
1
 62
     7
100
AcDbCircle
 10
332.6000000000044
 20
148.4999999999955
 30
0.0
 40
28.25
100
AcDbArc
 50
224.6425483414411
 51
225.322477235631
  0
ARC
  5
FF
330
14A
100
AcDbEntity
  8
1
 62
     7
100
AcDbCircle
 10
332.6
 20
148.5
 30
0.0
 40
28.25000000000001
100
AcDbArc
 50
314.6775227643564
 51
315.357451658546
  0
ARC
  5
100
330
14A
100
AcDbEntity
  8
1
 62
     7
100
AcDbCircle
 10
259.775
 20
154.3
 30
0.0
 40
0.3000000000000114
100
AcDbArc
 50
270.0
 51
0.0
  0
ARC
  5
101
330
14A
100
AcDbEntity
  8
1
 62
     7
100
AcDbCircle
 10
259.775
 20
159.1999999999999
 30
0.0
 40
0.3000000000000114
100
AcDbArc
 50
0.0
 51
90.0
  0
ARC
  5
102
330
14A
100
AcDbEntity
  8
1
 62
     7
100
AcDbCircle
 10
259.3358798583754
 20
155.0
 30
0.0
 40
1.000000000000057
100
AcDbArc
 50
196.9577633000058
 51
270.0
  0
ARC
  5
103
330
14A
100
AcDbEntity
  8
1
 62
     7
100
AcDbCircle
 10
259.3358798583754
 20
158.4999999999998
 30
0.0
 40
1.0
100
AcDbArc
 50
90.0
 51
163.042236699994
  0
ARC
  5
104
330
14A
100
AcDbEntity
  8
1
 62
     7
100
AcDbCircle
 10
335.6
 20
162.6862609591111
 30
0.0
 40
1.000000000000019
100
AcDbArc
 50
78.05945603938869
 51
180.0
  0
ARC
  5
105
330
14A
100
AcDbEntity
  8
1
 62
     7
100
AcDbCircle
 10
335.6
 20
160.1189500386221
 30
0.0
 40
1.0
100
AcDbArc
 50
180.0
 51
255.5224878140705
  0
ARC
  5
106
330
14A
100
AcDbEntity
  8
1
 62
     7
100
AcDbCircle
 10
344.1623058987491
 20
145.2886011920421
 30
0.0
 40
1.000000000000079
100
AcDbArc
 50
164.4775121859314
 51
240.0000000000019
  0
ARC
  5
107
330
14A
100
AcDbEntity
  8
1
 62
     7
100
AcDbCircle
 10
346.3856623753056
 20
144.0049457317978
 30
0.0
 40
1.000000000000031
100
AcDbArc
 50
240.0000000000011
 51
341.9405439606068
  0
ARC
  5
108
330
14A
100
AcDbEntity
  8
1
 62
     7
100
AcDbCircle
 10
321.0376941012511
 20
145.2886011920421
 30
0.0
 40
1.000000000000057
100
AcDbArc
 50
299.9999999999981
 51
15.52248781406836
  0
ARC
  5
109
330
14A
100
AcDbEntity
  8
1
 62
     7
100
AcDbCircle
 10
318.8143376246943
 20
144.0049457317978
 30
0.0
 40
1.000000000000071
100
AcDbArc
 50
198.0594560393923
 51
299.9999999999989
  0
ARC
  5
10A
330
14A
100
AcDbEntity
  8
1
 62
     7
100
AcDbCircle
 10
341.162305898749
 20
140.0924487693355
 30
0.0
 40
0.9999999999999836
100
AcDbArc
 50
59.99999999999944
 51
135.5224878140742
  0
ARC
  5
10B
330
14A
100
AcDbEntity
  8
1
 62
     7
100
AcDbCircle
 10
343.3856623753056
 20
138.8087933090911
 30
0.0
 40
0.9999999999999296
100
AcDbArc
 50
318.0594560393921
 51
59.99999999999864
  0
ARC
  5
10C
330
14A
100
AcDbEntity
  8
1
 62
     7
100
AcDbCircle
 10
329.6
 20
162.6862609591111
 30
0.0
 40
1.0
100
AcDbArc
 50
0.0
 51
101.9405439606145
  0
ARC
  5
10D
330
14A
100
AcDbEntity
  8
1
 62
     7
100
AcDbCircle
 10
329.6
 20
160.1189500386221
 30
0.0
 40
0.999999999999949
100
AcDbArc
 50
284.4775121859306
 51
0.0
  0
ARC
  5
10E
330
14A
100
AcDbEntity
  8
1
 62
     7
100
AcDbCircle
 10
321.8143376246943
 20
138.8087933090911
 30
0.0
 40
1.000000000000057
100
AcDbArc
 50
119.9999999999981
 51
221.9405439606084
  0
ARC
  5
10F
330
14A
100
AcDbEntity
  8
1
 62
     7
100
AcDbCircle
 10
324.0376941012511
 20
140.0924487693355
 30
0.0
 40
0.9999999999999683
100
AcDbArc
 50
44.47751218593036
 51
120.0000000000005
  0
CIRCLE
  5
110
330
14A
100
AcDbEntity
  8
1
 62
     7
100
AcDbCircle
 10
339.7447095812216
 20
144.375
 30
0.0
 40
1.229499999999859
  0
CIRCLE
  5
111
330
14A
100
AcDbEntity
  8
1
 62
     7
100
AcDbCircle
 10
325.4552904187783
 20
144.375
 30
0.0
 40
1.229499999999859
  0
CIRCLE
  5
112
330
14A
100
AcDbEntity
  8
1
 62
     7
100
AcDbCircle
 10
332.6
 20
156.75
 30
0.0
 40
1.229499999999972
  0
CIRCLE
  5
113
330
14A
100
AcDbEntity
  8
1
 62
     7
100
AcDbCircle
 10
332.6
 20
148.5
 30
0.0
 40
11.0
  0
CIRCLE
  5
114
330
14A
100
AcDbEntity
  8
1
 62
     7
100
AcDbCircle
 10
332.6
 20
131.0
 30
0.0
 40
1.5
  0
CIRCLE
  5
115
330
14A
100
AcDbEntity
  8
1
 62
     7
100
AcDbCircle
 10
317.4445554337722
 20
157.2499999999998
 30
0.0
 40
1.5
  0
CIRCLE
  5
116
330
14A
100
AcDbEntity
  8
1
 62
     7
100
AcDbCircle
 10
347.7554445662277
 20
157.2499999999998
 30
0.0
 40
1.5
  0
CIRCLE
  5
117
330
14A
100
AcDbEntity
  8
1
 62
     7
100
AcDbCircle
 10
332.6
 20
148.5
 30
0.0
 40
19.5
  0
CIRCLE
  5
118
330
14A
100
AcDbEntity
  8
1
 62
     7
100
AcDbCircle
 10
332.6
 20
148.5
 30
0.0
 40
20.14999999999998
  0
CIRCLE
  5
119
330
14A
100
AcDbEntity
  8
1
 62
     3
100
AcDbCircle
 10
332.6
 20
156.75
 30
0.0
 40
1.5
  0
CIRCLE
  5
11A
330
14A
100
AcDbEntity
  8
1
 62
     3
100
AcDbCircle
 10
325.4552904187783
 20
144.375
 30
0.0
 40
1.5
  0
CIRCLE
  5
11B
330
14A
100
AcDbEntity
  8
1
 62
     3
100
AcDbCircle
 10
339.7447095812216
 20
144.375
 30
0.0
 40
1.5
  0
CIRCLE
  5
11C
330
14A
100
AcDbEntity
  8
1
 62
     7
100
AcDbCircle
 10
349.5645011567648
 20
165.4766221758666
 30
0.0
 40
1.650000000000034
  0
CIRCLE
  5
11D
330
14A
100
AcDbEntity
  8
1
 62
     7
100
AcDbCircle
 10
315.6354988432353
 20
165.4766221758666
 30
0.0
 40
1.649999999999975
  0
CIRCLE
  5
11E
330
14A
100
AcDbEntity
  8
1
 62
     7
100
AcDbCircle
 10
315.6233778241332
 20
131.5354988432352
 30
0.0
 40
1.650000000000034
  0
CIRCLE
  5
11F
330
14A
100
AcDbEntity
  8
1
 62
     7
100
AcDbCircle
 10
349.5766221758667
 20
131.5354988432352
 30
0.0
 40
1.649999999999919
  0
CIRCLE
  5
120
330
14A
100
AcDbEntity
  8
1
 62
     7
100
AcDbCircle
 10
263.6249999999999
 20
148.5
 30
0.0
 40
1.229499999999972
  0
CIRCLE
  5
121
330
14A
100
AcDbEntity
  8
1
 62
     3
100
AcDbCircle
 10
263.6249999999999
 20
148.5
 30
0.0
 40
1.5
  0
TEXT
  5
122
330
14A
100
AcDbEntity
  8
1
 62
     7
100
AcDbText
 10
157.211823966066
 20
205.5515241966502
 30
0.0
 40
3.0
  1
AMB 5
 41
0.9
  7
SIMPLEX
100
AcDbText
  0
ENDSEC
  0
SECTION
  2
OBJECTS
  0
DICTIONARY
  5
136
330
0
100
AcDbDictionary
281
     1
  3
ACAD_COLOR
350
145
  3
ACAD_GROUP
350
137
  3
ACAD_LAYOUT
350
143
  3
ACAD_MATERIAL
350
144
  3
ACAD_MLINESTYLE
350
140
  3
ACAD_PLOTSETTINGS
350
142
  3
ACAD_PLOTSTYLENAME
350
138
  0
DICTIONARY
  5
145
102
{ACAD_REACTORS
330
136
102
}
330
136
100
AcDbDictionary
281
     1
  0
DICTIONARY
  5
137
102
{ACAD_REACTORS
330
136
102
}
330
136
100
AcDbDictionary
281
     1
  0
DICTIONARY
  5
143
102
{ACAD_REACTORS
330
136
102
}
330
136
100
AcDbDictionary
281
     1
  3
Layout1
350
149
  3
Model
350
14D
  0
DICTIONARY
  5
144
102
{ACAD_REACTORS
330
136
102
}
330
136
100
AcDbDictionary
281
     1
  0
DICTIONARY
  5
140
102
{ACAD_REACTORS
330
136
102
}
330
136
100
AcDbDictionary
281
     1
  3
Standard
350
141
  0
DICTIONARY
  5
142
102
{ACAD_REACTORS
330
136
102
}
330
136
100
AcDbDictionary
281
     1
  0
ACDBDICTIONARYWDFLT
  5
138
102
{ACAD_REACTORS
330
136
102
}
330
136
100
AcDbDictionary
281
     1
  3
Normal
350
139
100
AcDbDictionaryWithDefault
340
139
  0
LAYOUT
  5
149
102
{ACAD_REACTORS
330
143
102
}
330
143
100
AcDbPlotSettings
  1

  2
Microsoft Office Document Image Writer
  4

  6

 40
0.0
 41
0.0
 42
0.0
 43
0.0
 44
0.0
 45
0.0
 46
0.0
 47
0.0
 48
0.0
 49
0.0
140
0.0
141
0.0
142
1.0
143
1.0
 70
   688
 72
     0
 73
     0
 74
     5
  7

 75
    16
147
1.0
 76
     0
 77
     2
 78
   300
148
0.0
149
0.0
100
AcDbLayout
  1
Layout1
 70
     1
 71
     1
 10
0.0
 20
0.0
 11
12.0
 21
9.0
 12
0.0
 22
0.0
 32
0.0
 14
1.000000000000000E+20
 24
1.000000000000000E+20
 34
1.000000000000000E+20
 15
-1.000000000000000E+20
 25
-1.000000000000000E+20
 35
-1.000000000000000E+20
146
0.0
 13
0.0
 23
0.0
 33
0.0
 16
1.0
 26
0.0
 36
0.0
 17
0.0
 27
1.0
 37
0.0
 76
     0
330
146
  0
LAYOUT
  5
14D
102
{ACAD_REACTORS
330
143
102
}
330
143
100
AcDbPlotSettings
  1

  2
Microsoft Office Document Image Writer
  4

  6

 40
0.0
 41
0.0
 42
0.0
 43
0.0
 44
0.0
 45
0.0
 46
0.0
 47
0.0
 48
0.0
 49
0.0
140
0.0
141
0.0
142
1.0
143
1.0
 70
  1712
 72
     0
 73
     0
 74
     0
  7

 75
     0
147
1.0
 76
     0
 77
     2
 78
   300
148
0.0
149
0.0
100
AcDbLayout
  1
Model
 70
     1
 71
     0
 10
0.0
 20
0.0
 11
12.0
 21
9.0
 12
0.0
 22
0.0
 32
0.0
 14
0.0
 24
0.0
 34
0.0
 15
0.0
 25
0.0
 35
0.0
146
0.0
 13
0.0
 23
0.0
 33
0.0
 16
1.0
 26
0.0
 36
0.0
 17
0.0
 27
1.0
 37
0.0
 76
     0
330
14A
  0
MLINESTYLE
  5
141
102
{ACAD_REACTORS
330
140
102
}
330
140
100
AcDbMlineStyle
  2
STANDARD
 70
     0
  3

 62
   256
 51
90.0
 52
90.0
 71
     2
 49
0.5
 62
   256
  6
BYLAYER
 49
-0.5
 62
   256
  6
BYLAYER
  0
ACDBPLACEHOLDER
  5
139
102
{ACAD_REACTORS
330
138
102
}
330
138
  0
ENDSEC
  0
EOF
