  0
SECTION
  2
HEADER
  9
$ACADVER
  1
AC1018
  9
$ACADMAINTVER
 70
     0
  9
$DWGCODEPAGE
  3
ANSI_932
  9
$INSBASE
 10
0.0
 20
0.0
 30
0.0
  9
$EXTMIN
 10
135.3673818678739
 20
117.8466669647154
 30
-0.0015258207003583
  9
$EXTMAX
 10
385.0326192946495
 20
227.078566841889
 30
0.0000000349246037
  9
$LIMMIN
 10
135.375
 20
117.8499999999998
  9
$LIMMAX
 10
385.0250000000001
 20
227.0752332979849
  9
$ORTHOMODE
 70
     0
  9
$REGENMODE
 70
     1
  9
$FILLMODE
 70
     1
  9
$QTEXTMODE
 70
     0
  9
$MIRRTEXT
 70
     1
  9
$LTSCALE
 40
1.0
  9
$ATTMODE
 70
     1
  9
$TEXTSIZE
 40
3.5
  9
$TRACEWID
 40
0.5
  9
$TEXTSTYLE
  7
STANDARD
  9
$CLAYER
  8
0
  9
$CELTYPE
  6
ByLayer
  9
$CECOLOR
 62
   256
  9
$CELTSCALE
 40
1.0
  9
$DISPSILH
 70
     0
  9
$DIMSCALE
 40
1.0
  9
$DIMASZ
 40
0.18
  9
$DIMEXO
 40
0.0625
  9
$DIMDLI
 40
0.38
  9
$DIMRND
 40
0.0
  9
$DIMDLE
 40
0.0
  9
$DIMEXE
 40
0.18
  9
$DIMTP
 40
0.0
  9
$DIMTM
 40
0.0
  9
$DIMTXT
 40
0.18
  9
$DIMCEN
 40
0.09
  9
$DIMTSZ
 40
0.0
  9
$DIMTOL
 70
     0
  9
$DIMLIM
 70
     0
  9
$DIMTIH
 70
     1
  9
$DIMTOH
 70
     1
  9
$DIMSE1
 70
     0
  9
$DIMSE2
 70
     0
  9
$DIMTAD
 70
     0
  9
$DIMZIN
 70
     0
  9
$DIMBLK
  1

  9
$DIMASO
 70
     1
  9
$DIMSHO
 70
     1
  9
$DIMPOST
  1

  9
$DIMAPOST
  1

  9
$DIMALT
 70
     0
  9
$DIMALTD
 70
     2
  9
$DIMALTF
 40
25.4
  9
$DIMLFAC
 40
1.0
  9
$DIMTOFL
 70
     0
  9
$DIMTVP
 40
0.0
  9
$DIMTIX
 70
     0
  9
$DIMSOXD
 70
     0
  9
$DIMSAH
 70
     0
  9
$DIMBLK1
  1

  9
$DIMBLK2
  1

  9
$DIMSTYLE
  2
STANDARD
  9
$DIMCLRD
 70
     0
  9
$DIMCLRE
 70
     0
  9
$DIMCLRT
 70
     0
  9
$DIMTFAC
 40
1.0
  9
$DIMGAP
 40
0.09
  9
$DIMJUST
 70
     0
  9
$DIMSD1
 70
     0
  9
$DIMSD2
 70
     0
  9
$DIMTOLJ
 70
     1
  9
$DIMTZIN
 70
     0
  9
$DIMALTZ
 70
     0
  9
$DIMALTTZ
 70
     0
  9
$DIMUPT
 70
     0
  9
$DIMDEC
 70
     4
  9
$DIMTDEC
 70
     4
  9
$DIMALTU
 70
     2
  9
$DIMALTTD
 70
     2
  9
$DIMTXSTY
  7
STANDARD
  9
$DIMAUNIT
 70
     0
  9
$DIMADEC
 70
     0
  9
$DIMALTRND
 40
0.0
  9
$DIMAZIN
 70
     0
  9
$DIMDSEP
 70
    46
  9
$DIMATFIT
 70
     3
  9
$DIMFRAC
 70
     0
  9
$DIMLDRBLK
  1

  9
$DIMLUNIT
 70
     2
  9
$DIMLWD
 70
    -2
  9
$DIMLWE
 70
    -2
  9
$DIMTMOVE
 70
     0
  9
$LUNITS
 70
     2
  9
$LUPREC
 70
     4
  9
$SKETCHINC
 40
0.1
  9
$FILLETRAD
 40
2.0
  9
$AUNITS
 70
     0
  9
$AUPREC
 70
     0
  9
$MENU
  1
ACAD
  9
$ELEVATION
 40
0.0
  9
$PELEVATION
 40
0.0
  9
$THICKNESS
 40
0.0
  9
$LIMCHECK
 70
     0
  9
$CHAMFERA
 40
0.0
  9
$CHAMFERB
 40
0.0
  9
$CHAMFERC
 40
0.0
  9
$CHAMFERD
 40
0.0
  9
$SKPOLY
 70
     0
  9
$TDCREATE
 40
2452093.899076852
  9
$TDUCREATE
 40
2452094.065743519
  9
$TDUPDATE
 40
2453209.432683784
  9
$TDUUPDATE
 40
2453209.599350452
  9
$TDINDWG
 40
0.0008719097
  9
$TDUSRTIMER
 40
0.0008717245
  9
$USRTIMER
 70
     1
  9
$ANGBASE
 50
0.0
  9
$ANGDIR
 70
     0
  9
$PDMODE
 70
     0
  9
$PDSIZE
 40
0.0
  9
$PLINEWID
 40
0.0
  9
$SPLFRAME
 70
     0
  9
$SPLINETYPE
 70
     6
  9
$SPLINESEGS
 70
     8
  9
$HANDSEED
  5
167
  9
$SURFTAB1
 70
     6
  9
$SURFTAB2
 70
     6
  9
$SURFTYPE
 70
     6
  9
$SURFU
 70
     6
  9
$SURFV
 70
     6
  9
$UCSBASE
  2

  9
$UCSNAME
  2

  9
$UCSORG
 10
0.0
 20
0.0
 30
0.0
  9
$UCSXDIR
 10
1.0
 20
0.0
 30
0.0
  9
$UCSYDIR
 10
0.0
 20
1.0
 30
0.0
  9
$UCSORTHOREF
  2

  9
$UCSORTHOVIEW
 70
     0
  9
$UCSORGTOP
 10
0.0
 20
0.0
 30
0.0
  9
$UCSORGBOTTOM
 10
0.0
 20
0.0
 30
0.0
  9
$UCSORGLEFT
 10
0.0
 20
0.0
 30
0.0
  9
$UCSORGRIGHT
 10
0.0
 20
0.0
 30
0.0
  9
$UCSORGFRONT
 10
0.0
 20
0.0
 30
0.0
  9
$UCSORGBACK
 10
0.0
 20
0.0
 30
0.0
  9
$PUCSBASE
  2

  9
$PUCSNAME
  2

  9
$PUCSORG
 10
0.0
 20
0.0
 30
0.0
  9
$PUCSXDIR
 10
1.0
 20
0.0
 30
0.0
  9
$PUCSYDIR
 10
0.0
 20
1.0
 30
0.0
  9
$PUCSORTHOREF
  2

  9
$PUCSORTHOVIEW
 70
     0
  9
$PUCSORGTOP
 10
0.0
 20
0.0
 30
0.0
  9
$PUCSORGBOTTOM
 10
0.0
 20
0.0
 30
0.0
  9
$PUCSORGLEFT
 10
0.0
 20
0.0
 30
0.0
  9
$PUCSORGRIGHT
 10
0.0
 20
0.0
 30
0.0
  9
$PUCSORGFRONT
 10
0.0
 20
0.0
 30
0.0
  9
$PUCSORGBACK
 10
0.0
 20
0.0
 30
0.0
  9
$USERI1
 70
     0
  9
$USERI2
 70
     0
  9
$USERI3
 70
     0
  9
$USERI4
 70
     0
  9
$USERI5
 70
     0
  9
$USERR1
 40
0.0
  9
$USERR2
 40
0.0
  9
$USERR3
 40
0.0
  9
$USERR4
 40
0.0
  9
$USERR5
 40
0.0
  9
$WORLDVIEW
 70
     1
  9
$SHADEDGE
 70
     3
  9
$SHADEDIF
 70
    70
  9
$TILEMODE
 70
     1
  9
$MAXACTVP
 70
    64
  9
$PINSBASE
 10
0.0
 20
0.0
 30
0.0
  9
$PLIMCHECK
 70
     0
  9
$PEXTMIN
 10
1.000000000000000E+20
 20
1.000000000000000E+20
 30
1.000000000000000E+20
  9
$PEXTMAX
 10
-1.000000000000000E+20
 20
-1.000000000000000E+20
 30
-1.000000000000000E+20
  9
$PLIMMIN
 10
0.0
 20
0.0
  9
$PLIMMAX
 10
12.0
 20
9.0
  9
$UNITMODE
 70
     0
  9
$VISRETAIN
 70
     1
  9
$PLINEGEN
 70
     0
  9
$PSLTSCALE
 70
     1
  9
$TREEDEPTH
 70
  3020
  9
$CMLSTYLE
  2
Standard
  9
$CMLJUST
 70
     0
  9
$CMLSCALE
 40
1.0
  9
$PROXYGRAPHICS
 70
     1
  9
$MEASUREMENT
 70
     0
  9
$CELWEIGHT
370
    -1
  9
$ENDCAPS
280
     0
  9
$JOINSTYLE
280
     0
  9
$LWDISPLAY
290
     0
  9
$INSUNITS
 70
     0
  9
$HYPERLINKBASE
  1

  9
$STYLESHEET
  1

  9
$XEDIT
290
     1
  9
$CEPSNTYPE
380
     0
  9
$PSTYLEMODE
290
     1
  9
$FINGERPRINTGUID
  2
{97EB0055-CB79-45D5-ABCC-DA44160E7BDE}
  9
$VERSIONGUID
  2
{F7F98ECB-DAFA-45C7-8A25-823D37250C28}
  9
$EXTNAMES
290
     1
  9
$PSVPSCALE
 40
0.0
  9
$OLESTARTUP
290
     0
  9
$SORTENTS
280
   127
  9
$INDEXCTL
280
     0
  9
$HIDETEXT
280
     0
  9
$XCLIPFRAME
290
     0
  9
$HALOGAP
280
     0
  9
$OBSCOLOR
 70
   257
  9
$OBSLTYPE
280
     0
  9
$INTERSECTIONDISPLAY
280
     0
  9
$INTERSECTIONCOLOR
 70
   257
  9
$DIMASSOC
280
     1
  9
$PROJECTNAME
  1

  0
ENDSEC
  0
SECTION
  2
CLASSES
  0
CLASS
  1
ACDBDICTIONARYWDFLT
  2
AcDbDictionaryWithDefault
  3
ObjectDBX Classes
 90
        0
 91
        1
280
     0
281
     0
  0
ENDSEC
  0
SECTION
  2
TABLES
  0
TABLE
  2
VPORT
  5
134
330
0
100
AcDbSymbolTable
 70
     2
  0
VPORT
  5
166
330
134
100
AcDbSymbolTableRecord
100
AcDbViewportTableRecord
  2
*Active
 70
     0
 10
0.0
 20
0.0
 11
1.0
 21
1.0
 12
260.2000005812617
 22
172.4626169033022
 13
0.0
 23
0.0
 14
1.0
 24
1.0
 15
0.0
 25
0.0
 16
0.0
 26
0.0
 36
1.0
 17
0.0
 27
0.0
 37
0.0
 40
154.4932088055139
 41
1.625
 42
50.0
 43
0.0
 44
0.0
 50
0.0
 51
0.0
 71
     0
 72
   100
 73
     1
 74
     1
 75
     0
 76
     0
 77
     0
 78
     0
281
     0
 65
     1
110
0.0
120
0.0
130
0.0
111
1.0
121
0.0
131
0.0
112
0.0
122
1.0
132
0.0
 79
     0
146
0.0
  0
ENDTAB
  0
TABLE
  2
LTYPE
  5
131
330
0
100
AcDbSymbolTable
 70
     9
  0
LTYPE
  5
13F
330
131
100
AcDbSymbolTableRecord
100
AcDbLinetypeTableRecord
  2
ByBlock
 70
     0
  3

 72
    65
 73
     0
 40
0.0
  0
LTYPE
  5
140
330
131
100
AcDbSymbolTableRecord
100
AcDbLinetypeTableRecord
  2
ByLayer
 70
     0
  3

 72
    65
 73
     0
 40
0.0
  0
LTYPE
  5
141
330
131
100
AcDbSymbolTableRecord
100
AcDbLinetypeTableRecord
  2
CONTINUOUS
 70
     0
  3
Solid line
 72
    65
 73
     0
 40
0.0
  0
LTYPE
  5
151
330
131
100
AcDbSymbolTableRecord
100
AcDbLinetypeTableRecord
  2
BORDER
 70
     0
  3
__ __ . __ __ .
 72
    65
 73
     6
 40
11.49703947368422
 49
3.284868421052632
 74
     0
 49
-1.642434210526315
 74
     0
 49
3.284868421052632
 74
     0
 49
-1.642434210526315
 74
     0
 49
0.0
 74
     0
 49
-1.642434210526315
 74
     0
  0
LTYPE
  5
152
330
131
100
AcDbSymbolTableRecord
100
AcDbLinetypeTableRecord
  2
CENTER
 70
     0
  3
____ _ ____ _
 72
    65
 73
     4
 40
13.13947368421052
 49
8.212171052631582
 74
     0
 49
-1.642434210526315
 74
     0
 49
1.642434210526315
 74
     0
 49
-1.642434210526315
 74
     0
  0
LTYPE
  5
153
330
131
100
AcDbSymbolTableRecord
100
AcDbLinetypeTableRecord
  2
DASHDOT
 70
     0
  3
__ . __ . __ .
 72
    65
 73
     4
 40
6.569736842105264
 49
3.284868421052632
 74
     0
 49
-1.642434210526315
 74
     0
 49
0.0
 74
     0
 49
-1.642434210526315
 74
     0
  0
LTYPE
  5
154
330
131
100
AcDbSymbolTableRecord
100
AcDbLinetypeTableRecord
  2
DASHED
 70
     0
  3
__ __ __ __ __
 72
    65
 73
     2
 40
4.927302631578949
 49
3.284868421052632
 74
     0
 49
-1.642434210526315
 74
     0
  0
LTYPE
  5
155
330
131
100
AcDbSymbolTableRecord
100
AcDbLinetypeTableRecord
  2
DIVIDE
 70
     0
  3
__ . . __ . . 
 72
    65
 73
     6
 40
8.212171052631582
 49
3.284868421052632
 74
     0
 49
-1.642434210526315
 74
     0
 49
0.0
 74
     0
 49
-1.642434210526315
 74
     0
 49
0.0
 74
     0
 49
-1.642434210526315
 74
     0
  0
LTYPE
  5
156
330
131
100
AcDbSymbolTableRecord
100
AcDbLinetypeTableRecord
  2
DOT
 70
     0
  3
..............
 72
    65
 73
     4
 40
3.284868421052632
 49
0.0
 74
     0
 49
-1.642434210526315
 74
     0
 49
0.0
 74
     0
 49
-1.642434210526315
 74
     0
  0
LTYPE
  5
157
330
131
100
AcDbSymbolTableRecord
100
AcDbLinetypeTableRecord
  2
HIDDEN
 70
     0
  3
_ _ _ _ _ _ _
 72
    65
 73
     2
 40
2.463651315789475
 49
1.642434210526315
 74
     0
 49
-0.8212171052631582
 74
     0
  0
LTYPE
  5
158
330
131
100
AcDbSymbolTableRecord
100
AcDbLinetypeTableRecord
  2
PHANTOM
 70
     0
  3
_____ _ _ _____ _ _ 
 72
    65
 73
     6
 40
16.42434210526316
 49
8.212171052631582
 74
     0
 49
-1.642434210526315
 74
     0
 49
1.642434210526315
 74
     0
 49
-1.642434210526315
 74
     0
 49
1.642434210526315
 74
     0
 49
-1.642434210526315
 74
     0
  0
ENDTAB
  0
TABLE
  2
LAYER
  5
12E
330
0
100
AcDbSymbolTable
 70
     2
  0
LAYER
  5
13C
330
12E
100
AcDbSymbolTableRecord
100
AcDbLayerTableRecord
  2
0
 70
     0
 62
     7
  6
CONTINUOUS
370
    -3
390
13B
  0
LAYER
  5
159
330
12E
100
AcDbSymbolTableRecord
100
AcDbLayerTableRecord
  2
1
 70
     0
 62
     7
  6
CONTINUOUS
370
    -3
390
13B
  0
ENDTAB
  0
TABLE
  2
STYLE
  5
12F
330
0
100
AcDbSymbolTable
 70
     4
  0
STYLE
  5
13D
330
12F
100
AcDbSymbolTableRecord
100
AcDbTextStyleTableRecord
  2
STANDARD
 70
     0
 40
0.0
 41
1.0
 50
0.0
 71
     0
 42
3.5
  3
txt
  4

  0
STYLE
  5
15A
330
12F
100
AcDbSymbolTableRecord
100
AcDbTextStyleTableRecord
  2
SIMPLEX
 70
     0
 40
0.0
 41
1.0
 50
0.0
 71
     0
 42
3.5
  3
simplex
  4

  0
STYLE
  5
15B
330
12F
100
AcDbSymbolTableRecord
100
AcDbTextStyleTableRecord
  2
COMPLEX
 70
     0
 40
0.0
 41
1.0
 50
0.0
 71
     0
 42
3.5
  3
complex
  4

  0
STYLE
  5
15C
330
12F
100
AcDbSymbolTableRecord
100
AcDbTextStyleTableRecord
  2
ITALIC
 70
     0
 40
0.0
 41
1.0
 50
0.0
 71
     0
 42
3.5
  3
italic
  4

  0
ENDTAB
  0
TABLE
  2
VIEW
  5
132
330
0
100
AcDbSymbolTable
 70
     0
  0
ENDTAB
  0
TABLE
  2
UCS
  5
133
330
0
100
AcDbSymbolTable
 70
     0
  0
ENDTAB
  0
TABLE
  2
APPID
  5
135
330
0
100
AcDbSymbolTable
 70
     1
  0
APPID
  5
13E
330
135
100
AcDbSymbolTableRecord
100
AcDbRegAppTableRecord
  2
ACAD
 70
     0
  0
ENDTAB
  0
TABLE
  2
DIMSTYLE
  5
136
330
0
100
AcDbSymbolTable
 70
     1
100
AcDbDimStyleTable
 71
     0
  0
DIMSTYLE
105
15D
330
136
100
AcDbSymbolTableRecord
100
AcDbDimStyleTableRecord
  2
STANDARD
 70
     0
279
     2
340
13D
  0
ENDTAB
  0
TABLE
  2
BLOCK_RECORD
  5
12D
330
0
100
AcDbSymbolTable
 70
     2
  0
BLOCK_RECORD
  5
14C
330
12D
100
AcDbSymbolTableRecord
100
AcDbBlockTableRecord
  2
*Model_Space
340
14F
  0
BLOCK_RECORD
  5
148
330
12D
100
AcDbSymbolTableRecord
100
AcDbBlockTableRecord
  2
*Paper_Space
340
14B
  0
BLOCK_RECORD
  5
162
330
12D
100
AcDbSymbolTableRecord
100
AcDbBlockTableRecord
  2
$MODEL_SPACE
340
0
  0
BLOCK_RECORD
  5
164
330
12D
100
AcDbSymbolTableRecord
100
AcDbBlockTableRecord
  2
$PAPER_SPACE
340
0
  0
ENDTAB
  0
ENDSEC
  0
SECTION
  2
BLOCKS
  0
BLOCK
  5
14D
330
14C
100
AcDbEntity
  8
0
100
AcDbBlockBegin
  2
*Model_Space
 70
     0
 10
0.0
 20
0.0
 30
0.0
  3
*Model_Space
  1

  0
ENDBLK
  5
14E
330
14C
100
AcDbEntity
  8
0
100
AcDbBlockEnd
  0
BLOCK
  5
149
330
148
100
AcDbEntity
 67
     1
  8
0
100
AcDbBlockBegin
  2
*Paper_Space
 70
     0
 10
0.0
 20
0.0
 30
0.0
  3
*Paper_Space
  1

  0
ENDBLK
  5
14A
330
148
100
AcDbEntity
 67
     1
  8
0
100
AcDbBlockEnd
  0
BLOCK
  5
163
330
162
100
AcDbEntity
  8
0
100
AcDbBlockBegin
  2
$MODEL_SPACE
 70
     0
 10
0.0
 20
0.0
 30
0.0
  3
$MODEL_SPACE
  1

  0
ENDBLK
  5
20
330
162
100
AcDbEntity
  8
0
100
AcDbBlockEnd
  0
BLOCK
  5
165
330
164
100
AcDbEntity
  8
0
100
AcDbBlockBegin
  2
$PAPER_SPACE
 70
     0
 10
0.0
 20
0.0
 30
0.0
  3
$PAPER_SPACE
  1

  0
ENDBLK
  5
1C
330
164
100
AcDbEntity
  8
0
100
AcDbBlockEnd
  0
ENDSEC
  0
SECTION
  2
ENTITIES
  0
LINE
  5
33
330
14C
100
AcDbEntity
  8
1
 62
     7
100
AcDbLine
 10
270.425
 20
123.7
 30
0.0
 11
270.425
 21
118.5
 31
0.0
  0
LINE
  5
34
330
14C
100
AcDbEntity
  8
1
 62
     7
100
AcDbLine
 10
269.925
 20
122.7499707902172
 30
0.0
 11
269.925
 21
137.5
 31
0.0
  0
LINE
  5
35
330
14C
100
AcDbEntity
  8
1
 62
     7
100
AcDbLine
 10
265.925
 20
117.8499999999998
 30
0.0
 11
265.925
 21
136.4999999999998
 31
0.0
  0
LINE
  5
36
330
14C
100
AcDbEntity
  8
1
 62
     7
100
AcDbLine
 10
265.925
 20
134.0
 30
0.0
 11
269.925
 21
134.0
 31
0.0
  0
LINE
  5
37
330
14C
100
AcDbEntity
  8
1
 62
     7
100
AcDbLine
 10
266.6249999999999
 20
123.0997779290391
 30
0.0
 11
266.6249999999999
 21
119.0997779222079
 31
0.0
  0
LINE
  5
38
330
14C
100
AcDbEntity
  8
1
 62
     7
100
AcDbLine
 10
266.6249999999999
 20
119.0997779222079
 30
0.0
 11
267.6249999999999
 21
119.0997779222079
 31
0.0
  0
LINE
  5
39
330
14C
100
AcDbEntity
  8
1
 62
     7
100
AcDbLine
 10
266.6249999999999
 20
123.0997779290391
 30
0.0
 11
267.6249999999999
 21
123.0997779290391
 31
0.0
  0
LINE
  5
3A
330
14C
100
AcDbEntity
  8
1
 62
     7
100
AcDbLine
 10
267.6249999999999
 20
122.7498363714036
 30
0.0
 11
270.425
 21
122.7498363714036
 31
0.0
  0
LINE
  5
3B
330
14C
100
AcDbEntity
  8
1
 62
     7
100
AcDbLine
 10
267.6249999999999
 20
119.449836365768
 30
0.0
 11
270.425
 21
119.449836365768
 31
0.0
  0
LINE
  5
3C
330
14C
100
AcDbEntity
  8
1
 62
     7
100
AcDbLine
 10
267.6249999999999
 20
123.7997370201609
 30
0.0
 11
267.6249999999999
 21
118.3997370109388
 31
0.0
  0
LINE
  5
3D
330
14C
100
AcDbEntity
  8
1
 62
     7
100
AcDbLine
 10
265.925
 20
118.3997370109388
 30
0.0
 11
267.6249999999999
 21
118.3997370109388
 31
0.0
  0
LINE
  5
3E
330
14C
100
AcDbEntity
  8
1
 62
     7
100
AcDbLine
 10
265.925
 20
123.7997370201609
 30
0.0
 11
267.6249999999999
 21
123.7997370201609
 31
0.0
  0
LINE
  5
3F
330
14C
100
AcDbEntity
  8
1
 62
     7
100
AcDbLine
 10
270.425
 20
137.5
 30
0.0
 11
270.425
 21
123.7
 31
0.0
  0
LINE
  5
40
330
14C
100
AcDbEntity
  8
1
 62
     7
100
AcDbLine
 10
266.025
 20
137.5
 30
0.0
 11
270.425
 21
137.5
 31
0.0
  0
LINE
  5
41
330
14C
100
AcDbEntity
  8
1
 62
     3
100
AcDbLine
 10
274.1249999999999
 20
142.5
 30
0.0
 11
274.1249999999999
 21
130.4999999999998
 31
0.0
  0
LINE
  5
42
330
14C
100
AcDbEntity
  8
1
 62
     7
100
AcDbLine
 10
274.5579999999999
 20
130.4999999999998
 30
0.0
 11
274.5579999999999
 21
142.5
 31
0.0
  0
LINE
  5
43
330
14C
100
AcDbEntity
  8
1
 62
     7
100
AcDbLine
 10
278.692
 20
142.5
 30
0.0
 11
278.692
 21
130.4999999999998
 31
0.0
  0
LINE
  5
44
330
14C
100
AcDbEntity
  8
1
 62
     3
100
AcDbLine
 10
279.125
 20
142.5
 30
0.0
 11
279.125
 21
130.4999999999998
 31
0.0
  0
LINE
  5
45
330
14C
100
AcDbEntity
  8
1
 62
     7
100
AcDbLine
 10
281.625
 20
142.5
 30
0.0
 11
266.025
 21
142.5
 31
0.0
  0
LINE
  5
46
330
14C
100
AcDbEntity
  8
1
 62
     7
100
AcDbLine
 10
239.65
 20
179.3
 30
0.0
 11
239.65
 21
199.3
 31
0.0
  0
LINE
  5
47
330
14C
100
AcDbEntity
  8
1
 62
     7
100
AcDbLine
 10
241.4
 20
179.3
 30
0.0
 11
241.4
 21
199.3
 31
0.0
  0
LINE
  5
48
330
14C
100
AcDbEntity
  8
1
 62
     7
100
AcDbLine
 10
257.6249999999999
 20
127.5
 30
0.0
 11
265.6249999999999
 21
127.5
 31
0.0
  0
LINE
  5
49
330
14C
100
AcDbEntity
  8
1
 62
     7
100
AcDbLine
 10
264.725
 20
130.2499999999998
 30
0.0
 11
265.6249999999999
 21
129.3499999999999
 31
0.0
  0
LINE
  5
4A
330
14C
100
AcDbEntity
  8
1
 62
     7
100
AcDbLine
 10
257.225
 20
119.55
 30
0.0
 11
257.225
 21
135.0
 31
0.0
  0
LINE
  5
4B
330
14C
100
AcDbEntity
  8
1
 62
     7
100
AcDbLine
 10
263.725
 20
127.5
 30
0.0
 11
263.725
 21
119.55
 31
0.0
  0
LINE
  5
4C
330
14C
100
AcDbEntity
  8
1
 62
     7
100
AcDbLine
 10
257.225
 20
119.55
 30
0.0
 11
265.6249999999999
 21
119.55
 31
0.0
  0
LINE
  5
4D
330
14C
100
AcDbEntity
  8
1
 62
     7
100
AcDbLine
 10
257.6249999999999
 20
126.0
 30
0.0
 11
257.225
 21
126.0
 31
0.0
  0
LINE
  5
4E
330
14C
100
AcDbEntity
  8
1
 62
     7
100
AcDbLine
 10
257.6249999999999
 20
119.55
 30
0.0
 11
257.6249999999999
 21
135.0
 31
0.0
  0
LINE
  5
4F
330
14C
100
AcDbEntity
  8
1
 62
     7
100
AcDbLine
 10
255.3249999999999
 20
135.0
 30
0.0
 11
257.6249999999999
 21
135.0
 31
0.0
  0
LINE
  5
50
330
14C
100
AcDbEntity
  8
1
 62
     7
100
AcDbLine
 10
264.725
 20
136.4999999999998
 30
0.0
 11
255.3249999999999
 21
136.4999999999998
 31
0.0
  0
LINE
  5
51
330
14C
100
AcDbEntity
  8
1
 62
     7
100
AcDbLine
 10
235.325
 20
134.4999999999998
 30
0.0
 11
257.6249999999999
 21
134.4999999999998
 31
0.0
  0
LINE
  5
52
330
14C
100
AcDbEntity
  8
1
 62
     7
100
AcDbLine
 10
235.325
 20
133.8
 30
0.0
 11
233.9749999999999
 21
133.8
 31
0.0
  0
LINE
  5
53
330
14C
100
AcDbEntity
  8
1
 62
     7
100
AcDbLine
 10
233.9749999999999
 20
134.4999999999998
 30
0.0
 11
231.125
 21
134.4999999999998
 31
0.0
  0
LINE
  5
54
330
14C
100
AcDbEntity
  8
1
  6
DASHDOT
 62
     3
100
AcDbLine
 10
273.1249999999999
 20
148.5
 30
0.0
 11
284.6249999999999
 21
148.5
 31
0.0
  0
LINE
  5
55
330
14C
100
AcDbEntity
  8
1
 62
     3
100
AcDbLine
 10
270.8077832284726
 20
161.0
 30
0.0
 11
271.4642304845412
 21
161.3789999999999
 31
0.0
  0
LINE
  5
56
330
14C
100
AcDbEntity
  8
1
 62
     3
100
AcDbLine
 10
270.8077832284726
 20
165.0
 30
0.0
 11
271.4642304845412
 21
164.6209999999999
 31
0.0
  0
LINE
  5
57
330
14C
100
AcDbEntity
  8
1
 62
     7
100
AcDbLine
 10
275.5459999999999
 20
161.0
 30
0.0
 11
275.925
 21
161.3789999999999
 31
0.0
  0
LINE
  5
58
330
14C
100
AcDbEntity
  8
1
  6
DASHDOT
 62
     3
100
AcDbLine
 10
188.8749999999999
 20
148.5
 30
0.0
 11
191.875
 21
148.5
 31
0.0
  0
LINE
  5
59
330
14C
100
AcDbEntity
  8
1
  6
DASHDOT
 62
     3
100
AcDbLine
 10
383.1188906552333
 20
119.7561093447667
 30
0.0
 11
377.9570111525713
 21
124.9179888474285
 31
0.0
  0
LINE
  5
5A
330
14C
100
AcDbEntity
  8
1
  6
DASHDOT
 62
     3
100
AcDbLine
 10
325.6311093447668
 20
119.7561093447667
 30
0.0
 11
330.7929888474287
 21
124.9179888474285
 31
0.0
  0
LINE
  5
5B
330
14C
100
AcDbEntity
  8
1
  6
DASHDOT
 62
     3
100
AcDbLine
 10
325.6311093447668
 20
177.2438906552332
 30
0.0
 11
330.7929888474287
 21
172.0820111525712
 31
0.0
  0
LINE
  5
5C
330
14C
100
AcDbEntity
  8
1
  6
DASHDOT
 62
     3
100
AcDbLine
 10
383.1188906552333
 20
177.243890655233
 30
0.0
 11
377.9570111525714
 21
172.0820111525712
 31
0.0
  0
LINE
  5
5D
330
14C
100
AcDbEntity
  8
1
  6
DASHDOT
 62
     3
100
AcDbLine
 10
352.875
 20
148.5
 30
0.0
 11
355.8749999999998
 21
148.5
 31
0.0
  0
LINE
  5
5E
330
14C
100
AcDbEntity
  8
1
  6
DASHDOT
 62
     3
100
AcDbLine
 10
354.375
 20
150.0
 30
0.0
 11
354.375
 21
147.0
 31
0.0
  0
LINE
  5
5F
330
14C
100
AcDbEntity
  8
1
 62
     7
100
AcDbLine
 10
265.6249999999999
 20
167.65
 30
0.0
 11
264.725
 21
166.7499999999998
 31
0.0
  0
LINE
  5
60
330
14C
100
AcDbEntity
  8
1
 62
     7
100
AcDbLine
 10
265.6249999999999
 20
169.5
 30
0.0
 11
257.6249999999999
 21
169.5
 31
0.0
  0
LINE
  5
61
330
14C
100
AcDbEntity
  8
1
 62
     7
100
AcDbLine
 10
265.6249999999999
 20
177.4499999999999
 30
0.0
 11
257.225
 21
177.4499999999999
 31
0.0
  0
LINE
  5
62
330
14C
100
AcDbEntity
  8
1
 62
     7
100
AcDbLine
 10
265.6249999999999
 20
179.0
 30
0.0
 11
265.6249999999999
 21
160.4999999999998
 31
0.0
  0
LINE
  5
63
330
14C
100
AcDbEntity
  8
1
 62
     7
100
AcDbLine
 10
257.225
 20
162.0
 30
0.0
 11
257.225
 21
177.4499999999999
 31
0.0
  0
LINE
  5
64
330
14C
100
AcDbEntity
  8
1
 62
     7
100
AcDbLine
 10
255.3249999999999
 20
162.0
 30
0.0
 11
255.3249999999999
 21
160.4999999999998
 31
0.0
  0
LINE
  5
65
330
14C
100
AcDbEntity
  8
1
 62
     7
100
AcDbLine
 10
263.725
 20
177.448641051524
 30
0.0
 11
263.725
 21
169.5
 31
0.0
  0
LINE
  5
66
330
14C
100
AcDbEntity
  8
1
 62
     7
100
AcDbLine
 10
255.3249999999999
 20
160.4999999999998
 30
0.0
 11
264.725
 21
160.4999999999998
 31
0.0
  0
LINE
  5
67
330
14C
100
AcDbEntity
  8
1
 62
     7
100
AcDbLine
 10
264.725
 20
166.7499999999998
 30
0.0
 11
264.725
 21
160.4999999999998
 31
0.0
  0
LINE
  5
68
330
14C
100
AcDbEntity
  8
1
 62
     7
100
AcDbLine
 10
257.6249999999999
 20
162.0
 30
0.0
 11
255.3249999999999
 21
162.0
 31
0.0
  0
LINE
  5
69
330
14C
100
AcDbEntity
  8
1
 62
     7
100
AcDbLine
 10
257.6249999999999
 20
162.0
 30
0.0
 11
257.6249999999999
 21
177.4499999999999
 31
0.0
  0
LINE
  5
6A
330
14C
100
AcDbEntity
  8
1
 62
     7
100
AcDbLine
 10
257.225
 20
171.0
 30
0.0
 11
257.6249999999999
 21
171.0
 31
0.0
  0
LINE
  5
6B
330
14C
100
AcDbEntity
  8
1
 62
     7
100
AcDbLine
 10
235.325
 20
162.5
 30
0.0
 11
257.6249999999999
 21
162.5
 31
0.0
  0
LINE
  5
6C
330
14C
100
AcDbEntity
  8
1
 62
     7
100
AcDbLine
 10
235.325
 20
163.1999999999999
 30
0.0
 11
235.325
 21
162.5
 31
0.0
  0
LINE
  5
6D
330
14C
100
AcDbEntity
  8
1
 62
     7
100
AcDbLine
 10
233.9749999999999
 20
163.1999999999999
 30
0.0
 11
235.325
 21
163.1999999999999
 31
0.0
  0
LINE
  5
6E
330
14C
100
AcDbEntity
  8
1
 62
     7
100
AcDbLine
 10
231.125
 20
162.5
 30
0.0
 11
233.9749999999999
 21
162.5
 31
0.0
  0
LINE
  5
6F
330
14C
100
AcDbEntity
  8
1
 62
     7
100
AcDbLine
 10
233.0249999999999
 20
118.0
 30
0.0
 11
233.0249999999999
 21
134.4999999999998
 31
0.0
  0
LINE
  5
70
330
14C
100
AcDbEntity
  8
1
 62
     7
100
AcDbLine
 10
231.125
 20
118.0
 30
0.0
 11
233.0249999999999
 21
118.0
 31
0.0
  0
LINE
  5
71
330
14C
100
AcDbEntity
  8
1
 62
     7
100
AcDbLine
 10
231.125
 20
179.0
 30
0.0
 11
231.125
 21
162.5
 31
0.0
  0
LINE
  5
72
330
14C
100
AcDbEntity
  8
1
 62
     7
100
AcDbLine
 10
233.0249999999999
 20
179.0
 30
0.0
 11
231.125
 21
179.0
 31
0.0
  0
LINE
  5
73
330
14C
100
AcDbEntity
  8
1
 62
     7
100
AcDbLine
 10
234.025
 20
118.0
 30
0.0
 11
265.6249999999999
 21
118.0
 31
0.0
  0
LINE
  5
74
330
14C
100
AcDbEntity
  8
1
 62
     7
100
AcDbLine
 10
233.0249999999999
 20
119.0
 30
0.0
 11
234.025
 21
118.0
 31
0.0
  0
LINE
  5
75
330
14C
100
AcDbEntity
  8
1
 62
     7
100
AcDbLine
 10
234.025
 20
179.0
 30
0.0
 11
233.0249999999999
 21
178.0
 31
0.0
  0
LINE
  5
76
330
14C
100
AcDbEntity
  8
1
  6
DASHDOT
 62
     3
100
AcDbLine
 10
228.125
 20
148.5
 30
0.0
 11
231.125
 21
148.5
 31
0.0
  0
LINE
  5
77
330
14C
100
AcDbEntity
  8
1
 62
     7
100
AcDbLine
 10
233.9749999999999
 20
163.1999999999999
 30
0.0
 11
233.9749999999999
 21
162.5
 31
0.0
  0
LINE
  5
78
330
14C
100
AcDbEntity
  8
1
 62
     7
100
AcDbLine
 10
238.025
 20
179.0
 30
0.0
 11
238.025
 21
179.3
 31
0.0
  0
LINE
  5
79
330
14C
100
AcDbEntity
  8
1
 62
     7
100
AcDbLine
 10
238.025
 20
179.3
 30
0.0
 11
243.025
 21
179.3
 31
0.0
  0
LINE
  5
7A
330
14C
100
AcDbEntity
  8
1
 62
     7
100
AcDbLine
 10
243.025
 20
179.3
 30
0.0
 11
243.025
 21
179.0
 31
0.0
  0
LINE
  5
7B
330
14C
100
AcDbEntity
  8
1
 62
     7
100
AcDbLine
 10
234.025
 20
179.0
 30
0.0
 11
265.6249999999999
 21
179.0
 31
0.0
  0
LINE
  5
7C
330
14C
100
AcDbEntity
  8
1
 62
     3
100
AcDbLine
 10
240.86
 20
202.3
 30
0.0
 11
240.86
 21
199.3
 31
0.0
  0
LINE
  5
7D
330
14C
100
AcDbEntity
  8
1
 62
     3
100
AcDbLine
 10
240.1899999999999
 20
199.3
 30
0.0
 11
240.1899999999999
 21
202.3
 31
0.0
  0
LINE
  5
7E
330
14C
100
AcDbEntity
  8
1
 62
     7
100
AcDbLine
 10
239.65
 20
199.3
 30
0.0
 11
241.4
 21
199.3
 31
0.0
  0
LINE
  5
7F
330
14C
100
AcDbEntity
  8
1
 62
     7
100
AcDbLine
 10
269.925
 20
167.5
 30
0.0
 11
265.925
 21
167.5
 31
0.0
  0
LINE
  5
80
330
14C
100
AcDbEntity
  8
1
 62
     7
100
AcDbLine
 10
269.925
 20
117.8499999999998
 30
0.0
 11
265.925
 21
117.8499999999998
 31
0.0
  0
LINE
  5
81
330
14C
100
AcDbEntity
  8
1
 62
     7
100
AcDbLine
 10
265.925
 20
179.15
 30
0.0
 11
269.925
 21
179.15
 31
0.0
  0
LINE
  5
82
330
14C
100
AcDbEntity
  8
1
 62
     7
100
AcDbLine
 10
270.425
 20
118.5
 30
0.0
 11
269.925
 21
118.5
 31
0.0
  0
LINE
  5
83
330
14C
100
AcDbEntity
  8
1
 62
     7
100
AcDbLine
 10
266.225
 20
166.5
 30
0.0
 11
269.925
 21
166.5
 31
0.0
  0
LINE
  5
84
330
14C
100
AcDbEntity
  8
1
 62
     7
100
AcDbLine
 10
265.925
 20
165.9803847577293
 30
0.0
 11
266.225
 21
166.5
 31
0.0
  0
LINE
  5
85
330
14C
100
AcDbEntity
  8
1
 62
     7
100
AcDbLine
 10
266.225
 20
159.4999999999998
 30
0.0
 11
265.925
 21
160.0196152422705
 31
0.0
  0
LINE
  5
86
330
14C
100
AcDbEntity
  8
1
 62
     7
100
AcDbLine
 10
266.225
 20
159.4999999999998
 30
0.0
 11
266.225
 21
166.5
 31
0.0
  0
LINE
  5
87
330
14C
100
AcDbEntity
  8
1
 62
     7
100
AcDbLine
 10
275.5459999999999
 20
165.0
 30
0.0
 11
269.925
 21
165.0
 31
0.0
  0
LINE
  5
88
330
14C
100
AcDbEntity
  8
1
 62
     7
100
AcDbLine
 10
275.925
 20
164.6209999999999
 30
0.0
 11
275.5459999999999
 21
165.0
 31
0.0
  0
LINE
  5
89
330
14C
100
AcDbEntity
  8
1
 62
     7
100
AcDbLine
 10
269.925
 20
161.0
 30
0.0
 11
275.5459999999999
 21
161.0
 31
0.0
  0
LINE
  5
8A
330
14C
100
AcDbEntity
  8
1
 62
     7
100
AcDbLine
 10
275.5459999999999
 20
161.0
 30
0.0
 11
275.5459999999999
 21
165.0
 31
0.0
  0
LINE
  5
8B
330
14C
100
AcDbEntity
  8
1
 62
     7
100
AcDbLine
 10
271.4642304845412
 20
161.0
 30
0.0
 11
271.4642304845412
 21
165.0
 31
0.0
  0
LINE
  5
8C
330
14C
100
AcDbEntity
  8
1
 62
     3
100
AcDbLine
 10
271.4642304845412
 20
164.6209999999999
 30
0.0
 11
275.925
 21
164.6209999999999
 31
0.0
  0
LINE
  5
8D
330
14C
100
AcDbEntity
  8
1
 62
     3
100
AcDbLine
 10
271.4642304845412
 20
161.3789999999999
 30
0.0
 11
275.925
 21
161.3789999999999
 31
0.0
  0
LINE
  5
8E
330
14C
100
AcDbEntity
  8
1
 62
     7
100
AcDbLine
 10
266.3072330470334
 20
165.0035533905933
 30
0.0
 11
267.8036796564404
 21
166.5
 31
0.0
  0
LINE
  5
8F
330
14C
100
AcDbEntity
  8
1
 62
     7
100
AcDbLine
 10
269.1621392056104
 20
164.269967575576
 30
0.0
 11
267.0143398282201
 21
166.4177669529664
 31
0.0
  0
LINE
  5
90
330
14C
100
AcDbEntity
  8
1
 62
     7
100
AcDbLine
 10
268.4285533905933
 20
163.5893398282202
 30
0.0
 11
266.3072330470334
 21
165.7106601717798
 31
0.0
  0
LINE
  5
91
330
14C
100
AcDbEntity
  8
1
 62
     7
100
AcDbLine
 10
266.6607864376268
 20
163.9428932188135
 30
0.0
 11
269.1356601717799
 21
166.4177669529664
 31
0.0
  0
LINE
  5
92
330
14C
100
AcDbEntity
  8
1
 62
     7
100
AcDbLine
 10
269.425
 20
165.4213203435595
 30
0.0
 11
268.3463203435596
 21
166.5
 31
0.0
  0
LINE
  5
93
330
14C
100
AcDbEntity
  8
1
 62
     7
100
AcDbLine
 10
267.7214466094068
 20
163.5893398282202
 30
0.0
 11
269.2424414027474
 21
165.1103346215611
 31
0.0
  0
LINE
  5
94
330
14C
100
AcDbEntity
  8
1
 62
     7
100
AcDbLine
 10
266.025
 20
159.4999999999998
 30
0.0
 11
266.025
 21
154.1568542494923
 31
0.0
  0
LINE
  5
95
330
14C
100
AcDbEntity
  8
1
 62
     7
100
AcDbLine
 10
270.425
 20
166.5
 30
0.0
 11
281.625
 21
166.5
 31
0.0
  0
LINE
  5
96
330
14C
100
AcDbEntity
  8
1
 62
     7
100
AcDbLine
 10
281.625
 20
166.5
 30
0.0
 11
281.625
 21
154.1568542494923
 31
0.0
  0
LINE
  5
97
330
14C
100
AcDbEntity
  8
1
 62
     7
100
AcDbLine
 10
281.625
 20
130.4999999999998
 30
0.0
 11
270.425
 21
130.4999999999998
 31
0.0
  0
LINE
  5
98
330
14C
100
AcDbEntity
  8
1
 62
     7
100
AcDbLine
 10
266.025
 20
156.0
 30
0.0
 11
281.625
 21
156.0
 31
0.0
  0
LINE
  5
99
330
14C
100
AcDbEntity
  8
1
 62
     7
100
AcDbLine
 10
266.025
 20
154.1568542494923
 30
0.0
 11
281.625
 21
154.1568542494923
 31
0.0
  0
LINE
  5
9A
330
14C
100
AcDbEntity
  8
1
 62
     7
100
AcDbLine
 10
270.425
 20
159.4999999999998
 30
0.0
 11
266.025
 21
159.4999999999998
 31
0.0
  0
LINE
  5
9B
330
14C
100
AcDbEntity
  8
1
 62
     7
100
AcDbLine
 10
269.925
 20
178.5
 30
0.0
 11
270.425
 21
178.5
 31
0.0
  0
LINE
  5
9C
330
14C
100
AcDbEntity
  8
1
 62
     7
100
AcDbLine
 10
270.425
 20
165.0
 30
0.0
 11
270.425
 21
178.5
 31
0.0
  0
LINE
  5
9D
330
14C
100
AcDbEntity
  8
1
 62
     7
100
AcDbLine
 10
270.425
 20
161.0
 30
0.0
 11
270.425
 21
159.4999999999998
 31
0.0
  0
LINE
  5
9E
330
14C
100
AcDbEntity
  8
1
 62
     7
100
AcDbLine
 10
269.925
 20
159.4999999999998
 30
0.0
 11
269.925
 21
179.15
 31
0.0
  0
LINE
  5
9F
330
14C
100
AcDbEntity
  8
1
  6
DASHDOT
 62
     3
100
AcDbLine
 10
276.6249999999999
 20
129.4999999999998
 30
0.0
 11
276.6249999999999
 21
152.0
 31
0.0
  0
LINE
  5
A0
330
14C
100
AcDbEntity
  8
1
 62
     7
100
AcDbLine
 10
269.925
 20
117.8499999999998
 30
0.0
 11
269.925
 21
119.4499707845815
 31
0.0
  0
LINE
  5
A1
330
14C
100
AcDbEntity
  8
1
 62
     7
100
AcDbLine
 10
275.925
 20
164.6209999999999
 30
0.0
 11
275.925
 21
161.3789999999999
 31
0.0
  0
LINE
  5
A2
330
14C
100
AcDbEntity
  8
1
 62
     7
100
AcDbLine
 10
275.925
 20
164.6209999999999
 30
0.0
 11
281.625
 21
164.6209999999999
 31
0.0
  0
LINE
  5
A3
330
14C
100
AcDbEntity
  8
1
 62
     7
100
AcDbLine
 10
275.925
 20
161.3789999999999
 30
0.0
 11
281.625
 21
161.3789999999999
 31
0.0
  0
LINE
  5
A4
330
14C
100
AcDbEntity
  8
1
 62
     3
100
AcDbLine
 10
275.5459999999999
 20
165.0
 30
0.0
 11
281.625
 21
165.0
 31
0.0
  0
LINE
  5
A5
330
14C
100
AcDbEntity
  8
1
 62
     3
100
AcDbLine
 10
275.5459999999999
 20
161.0
 30
0.0
 11
281.625
 21
161.0
 31
0.0
  0
LINE
  5
A6
330
14C
100
AcDbEntity
  8
1
 62
     7
100
AcDbLine
 10
148.65
 20
179.3
 30
0.0
 11
148.65
 21
199.3
 31
0.0
  0
LINE
  5
A7
330
14C
100
AcDbEntity
  8
1
 62
     7
100
AcDbLine
 10
172.8749999999999
 20
179.0
 30
0.0
 11
172.8749999999999
 21
118.0
 31
0.0
  0
LINE
  5
A8
330
14C
100
AcDbEntity
  8
1
 62
     7
100
AcDbLine
 10
384.8749999999999
 20
119.2628233237202
 30
0.0
 11
384.8749999999999
 21
145.4713864558181
 31
0.0
  0
LINE
  5
A9
330
14C
100
AcDbEntity
  8
1
 62
     7
100
AcDbLine
 10
325.13782332372
 20
118.0
 30
0.0
 11
351.3463864558181
 21
118.0
 31
0.0
  0
LINE
  5
AA
330
14C
100
AcDbEntity
  8
1
 62
     7
100
AcDbLine
 10
323.875
 20
177.7371766762798
 30
0.0
 11
323.875
 21
151.5286135441819
 31
0.0
  0
LINE
  5
AB
330
14C
100
AcDbEntity
  8
1
 62
     7
100
AcDbLine
 10
383.6121766762797
 20
179.0
 30
0.0
 11
357.4036135441819
 21
179.0
 31
0.0
  0
LINE
  5
AC
330
14C
100
AcDbEntity
  8
1
 62
     7
100
AcDbLine
 10
140.275
 20
118.0
 30
0.0
 11
140.275
 21
179.0
 31
0.0
  0
LINE
  5
AD
330
14C
100
AcDbEntity
  8
1
 62
     7
100
AcDbLine
 10
138.375
 20
118.0
 30
0.0
 11
140.275
 21
118.0
 31
0.0
  0
LINE
  5
AE
330
14C
100
AcDbEntity
  8
1
 62
     7
100
AcDbLine
 10
138.375
 20
179.0
 30
0.0
 11
138.375
 21
118.0
 31
0.0
  0
LINE
  5
AF
330
14C
100
AcDbEntity
  8
1
 62
     7
100
AcDbLine
 10
140.275
 20
179.0
 30
0.0
 11
138.375
 21
179.0
 31
0.0
  0
LINE
  5
B0
330
14C
100
AcDbEntity
  8
1
 62
     7
100
AcDbLine
 10
141.275
 20
118.0
 30
0.0
 11
172.8749999999999
 21
118.0
 31
0.0
  0
LINE
  5
B1
330
14C
100
AcDbEntity
  8
1
 62
     7
100
AcDbLine
 10
140.275
 20
119.0
 30
0.0
 11
141.275
 21
118.0
 31
0.0
  0
LINE
  5
B2
330
14C
100
AcDbEntity
  8
1
 62
     7
100
AcDbLine
 10
141.275
 20
179.0
 30
0.0
 11
140.275
 21
178.0
 31
0.0
  0
LINE
  5
B3
330
14C
100
AcDbEntity
  8
1
  6
DASHDOT
 62
     3
100
AcDbLine
 10
135.375
 20
148.5
 30
0.0
 11
138.375
 21
148.5
 31
0.0
  0
LINE
  5
B4
330
14C
100
AcDbEntity
  8
1
 62
     7
100
AcDbLine
 10
141.275
 20
118.0
 30
0.0
 11
141.275
 21
179.0
 31
0.0
  0
LINE
  5
B5
330
14C
100
AcDbEntity
  8
1
 62
     7
100
AcDbLine
 10
351.875
 20
179.3
 30
0.0
 11
356.875
 21
179.3
 31
0.0
  0
LINE
  5
B6
330
14C
100
AcDbEntity
  8
1
 62
     7
100
AcDbLine
 10
356.875
 20
179.3
 30
0.0
 11
356.875
 21
179.0478722663296
 31
0.0
  0
LINE
  5
B7
330
14C
100
AcDbEntity
  8
1
 62
     7
100
AcDbLine
 10
145.2749999999998
 20
179.0
 30
0.0
 11
145.2749999999998
 21
179.3
 31
0.0
  0
LINE
  5
B8
330
14C
100
AcDbEntity
  8
1
 62
     7
100
AcDbLine
 10
145.2749999999998
 20
179.3
 30
0.0
 11
150.2749999999998
 21
179.3
 31
0.0
  0
LINE
  5
B9
330
14C
100
AcDbEntity
  8
1
 62
     7
100
AcDbLine
 10
150.2749999999998
 20
179.3
 30
0.0
 11
150.2749999999998
 21
179.0
 31
0.0
  0
LINE
  5
BA
330
14C
100
AcDbEntity
  8
1
 62
     7
100
AcDbLine
 10
141.275
 20
179.0
 30
0.0
 11
172.8749999999999
 21
179.0
 31
0.0
  0
LINE
  5
BB
330
14C
100
AcDbEntity
  8
1
 62
     7
100
AcDbLine
 10
356.125
 20
179.3
 30
0.0
 11
356.125
 21
199.3
 31
0.0
  0
LINE
  5
BC
330
14C
100
AcDbEntity
  8
1
 62
     7
100
AcDbLine
 10
354.375
 20
179.3
 30
0.0
 11
354.375
 21
199.3
 31
0.0
  0
LINE
  5
BD
330
14C
100
AcDbEntity
  8
1
 62
     7
100
AcDbLine
 10
352.625
 20
179.3
 30
0.0
 11
352.625
 21
199.3
 31
0.0
  0
LINE
  5
BE
330
14C
100
AcDbEntity
  8
1
 62
     7
100
AcDbLine
 10
146.9
 20
179.3
 30
0.0
 11
146.9
 21
199.3
 31
0.0
  0
LINE
  5
BF
330
14C
100
AcDbEntity
  8
1
 62
     7
100
AcDbLine
 10
384.8749999999999
 20
151.5286135441819
 30
0.0
 11
384.8749999999999
 21
177.7371766762798
 31
0.0
  0
LINE
  5
C0
330
14C
100
AcDbEntity
  8
1
 62
     7
100
AcDbLine
 10
323.875
 20
145.4713864558181
 30
0.0
 11
323.875
 21
119.2628233237202
 31
0.0
  0
LINE
  5
C1
330
14C
100
AcDbEntity
  8
1
 62
     7
100
AcDbLine
 10
357.4036135441819
 20
118.0
 30
0.0
 11
383.6121766762797
 21
118.0
 31
0.0
  0
LINE
  5
C2
330
14C
100
AcDbEntity
  8
1
 62
     7
100
AcDbLine
 10
351.3463864558181
 20
179.0
 30
0.0
 11
325.13782332372
 21
179.0
 31
0.0
  0
LINE
  5
C3
330
14C
100
AcDbEntity
  8
1
 62
     7
100
AcDbLine
 10
351.875
 20
179.0478722663296
 30
0.0
 11
351.875
 21
179.3
 31
0.0
  0
LINE
  5
C4
330
14C
100
AcDbEntity
  8
1
 62
     7
100
AcDbLine
 10
177.175
 20
117.8499999999998
 30
0.0
 11
173.175
 21
117.8499999999998
 31
0.0
  0
LINE
  5
C5
330
14C
100
AcDbEntity
  8
1
 62
     7
100
AcDbLine
 10
173.175
 20
179.15
 30
0.0
 11
177.175
 21
179.15
 31
0.0
  0
LINE
  5
C6
330
14C
100
AcDbEntity
  8
1
 62
     7
100
AcDbLine
 10
177.675
 20
118.5
 30
0.0
 11
177.175
 21
118.5
 31
0.0
  0
LINE
  5
C7
330
14C
100
AcDbEntity
  8
1
 62
     7
100
AcDbLine
 10
173.175
 20
179.15
 30
0.0
 11
173.175
 21
117.8499999999998
 31
0.0
  0
LINE
  5
C8
330
14C
100
AcDbEntity
  8
1
 62
     7
100
AcDbLine
 10
339.8020866570945
 20
136.044872674269
 30
0.0
 11
336.416689570133
 21
134.090312754798
 31
0.0
  0
LINE
  5
C9
330
14C
100
AcDbEntity
  8
1
 62
     7
100
AcDbLine
 10
350.875
 20
167.3480768249708
 30
0.0
 11
350.875
 21
171.2571966639127
 31
0.0
  0
LINE
  5
CA
330
14C
100
AcDbEntity
  8
1
 62
     7
100
AcDbLine
 10
372.3333104298671
 20
134.090312754798
 30
0.0
 11
368.9479133429055
 21
136.044872674269
 31
0.0
  0
LINE
  5
CB
330
14C
100
AcDbEntity
  8
1
 62
     7
100
AcDbLine
 10
332.916689570133
 20
140.1524905812891
 30
0.0
 11
336.3020866570946
 21
142.1070505007601
 31
0.0
  0
LINE
  5
CC
330
14C
100
AcDbEntity
  8
1
 62
     7
100
AcDbLine
 10
372.4479133429055
 20
142.1070505007601
 30
0.0
 11
375.8333104298671
 21
140.1524905812891
 31
0.0
  0
LINE
  5
CD
330
14C
100
AcDbEntity
  8
1
 62
     7
100
AcDbLine
 10
357.8749999999998
 20
171.2571966639127
 30
0.0
 11
357.8749999999998
 21
167.3480768249708
 31
0.0
  0
LINE
  5
CE
330
14C
100
AcDbEntity
  8
1
 62
     7
100
AcDbLine
 10
352.375
 20
154.1568542494923
 30
0.0
 11
352.3749999999998
 21
156.0
 31
0.0
  0
LINE
  5
CF
330
14C
100
AcDbEntity
  8
1
 62
     7
100
AcDbLine
 10
177.675
 20
166.5
 30
0.0
 11
188.8749999999999
 21
166.5
 31
0.0
  0
LINE
  5
D0
330
14C
100
AcDbEntity
  8
1
 62
     7
100
AcDbLine
 10
188.8749999999999
 20
166.5
 30
0.0
 11
188.8749999999999
 21
130.4999999999998
 31
0.0
  0
LINE
  5
D1
330
14C
100
AcDbEntity
  8
1
 62
     7
100
AcDbLine
 10
188.8749999999999
 20
130.4999999999998
 30
0.0
 11
177.675
 21
130.4999999999998
 31
0.0
  0
LINE
  5
D2
330
14C
100
AcDbEntity
  8
1
 62
     7
100
AcDbLine
 10
352.3749999999998
 20
156.0
 30
0.0
 11
356.3749999999998
 21
156.0
 31
0.0
  0
LINE
  5
D3
330
14C
100
AcDbEntity
  8
1
 62
     7
100
AcDbLine
 10
356.3749999999998
 20
156.0
 30
0.0
 11
356.375
 21
154.1568542494923
 31
0.0
  0
LINE
  5
D4
330
14C
100
AcDbEntity
  8
1
 62
     7
100
AcDbLine
 10
177.175
 20
178.5
 30
0.0
 11
177.675
 21
178.5
 31
0.0
  0
LINE
  5
D5
330
14C
100
AcDbEntity
  8
1
 62
     7
100
AcDbLine
 10
177.175
 20
117.8499999999998
 30
0.0
 11
177.175
 21
179.15
 31
0.0
  0
LINE
  5
D6
330
14C
100
AcDbEntity
  8
1
 62
     7
100
AcDbLine
 10
177.675
 20
118.5
 30
0.0
 11
177.675
 21
178.5
 31
0.0
  0
LINE
  5
D7
330
14C
100
AcDbEntity
  8
1
 62
     7
100
AcDbLine
 10
231.125
 20
162.5
 30
0.0
 11
231.125
 21
134.4999999999998
 31
0.0
  0
LINE
  5
D8
330
14C
100
AcDbEntity
  8
1
 62
     7
100
AcDbLine
 10
231.125
 20
134.4999999999998
 30
0.0
 11
231.125
 21
118.0
 31
0.0
  0
LINE
  5
D9
330
14C
100
AcDbEntity
  8
1
 62
     7
100
AcDbLine
 10
233.0249999999999
 20
134.4999999999998
 30
0.0
 11
233.0249999999999
 21
162.5
 31
0.0
  0
LINE
  5
DA
330
14C
100
AcDbEntity
  8
1
 62
     7
100
AcDbLine
 10
233.0249999999999
 20
162.5
 30
0.0
 11
233.0249999999999
 21
179.0
 31
0.0
  0
LINE
  5
DB
330
14C
100
AcDbEntity
  8
1
 62
     7
100
AcDbLine
 10
233.9749999999999
 20
162.5
 30
0.0
 11
233.9749999999999
 21
134.4999999999998
 31
0.0
  0
LINE
  5
DC
330
14C
100
AcDbEntity
  8
1
 62
     7
100
AcDbLine
 10
233.9749999999999
 20
134.4999999999998
 30
0.0
 11
233.9749999999999
 21
133.8
 31
0.0
  0
LINE
  5
DD
330
14C
100
AcDbEntity
  8
1
 62
     7
100
AcDbLine
 10
235.325
 20
134.4999999999998
 30
0.0
 11
235.325
 21
133.8
 31
0.0
  0
LINE
  5
DE
330
14C
100
AcDbEntity
  8
1
 62
     7
100
AcDbLine
 10
235.325
 20
162.5
 30
0.0
 11
235.325
 21
134.4999999999998
 31
0.0
  0
LINE
  5
DF
330
14C
100
AcDbEntity
  8
1
 62
     7
100
AcDbLine
 10
255.3249999999999
 20
160.4999999999998
 30
0.0
 11
255.3249999999999
 21
136.4999999999998
 31
0.0
  0
LINE
  5
E0
330
14C
100
AcDbEntity
  8
1
 62
     7
100
AcDbLine
 10
255.3249999999999
 20
136.4999999999998
 30
0.0
 11
255.3249999999999
 21
135.0
 31
0.0
  0
LINE
  5
E1
330
14C
100
AcDbEntity
  8
1
 62
     7
100
AcDbLine
 10
264.725
 20
136.4999999999998
 30
0.0
 11
264.725
 21
130.2499999999998
 31
0.0
  0
LINE
  5
E2
330
14C
100
AcDbEntity
  8
1
 62
     7
100
AcDbLine
 10
264.725
 20
160.4999999999998
 30
0.0
 11
264.725
 21
136.4999999999998
 31
0.0
  0
LINE
  5
E3
330
14C
100
AcDbEntity
  8
1
 62
     7
100
AcDbLine
 10
265.6249999999999
 20
160.4999999999998
 30
0.0
 11
265.6249999999999
 21
136.4999999999998
 31
0.0
  0
LINE
  5
E4
330
14C
100
AcDbEntity
  8
1
 62
     7
100
AcDbLine
 10
265.6249999999999
 20
136.4999999999998
 30
0.0
 11
265.6249999999999
 21
118.0
 31
0.0
  0
LINE
  5
E5
330
14C
100
AcDbEntity
  8
1
 62
     7
100
AcDbLine
 10
265.925
 20
136.4999999999998
 30
0.0
 11
265.925
 21
160.0196152422705
 31
0.0
  0
LINE
  5
E6
330
14C
100
AcDbEntity
  8
1
 62
     7
100
AcDbLine
 10
266.025
 20
142.5
 30
0.0
 11
266.025
 21
137.5
 31
0.0
  0
LINE
  5
E7
330
14C
100
AcDbEntity
  8
1
 62
     7
100
AcDbLine
 10
266.025
 20
154.1568542494923
 30
0.0
 11
266.025
 21
142.5
 31
0.0
  0
LINE
  5
E8
330
14C
100
AcDbEntity
  8
1
 62
     7
100
AcDbLine
 10
281.625
 20
142.5
 30
0.0
 11
281.625
 21
130.4999999999998
 31
0.0
  0
LINE
  5
E9
330
14C
100
AcDbEntity
  8
1
 62
     7
100
AcDbLine
 10
281.625
 20
154.1568542494923
 30
0.0
 11
281.625
 21
142.5
 31
0.0
  0
LINE
  5
EA
330
14C
100
AcDbEntity
  8
1
 62
     7
100
AcDbLine
 10
265.925
 20
160.0196152422705
 30
0.0
 11
265.925
 21
179.15
 31
0.0
  0
LINE
  5
EB
330
14C
100
AcDbEntity
  8
1
 62
     3
100
AcDbLine
 10
240.525
 20
199.3
 30
0.0
 11
240.525
 21
202.3
 31
0.0
  0
LINE
  5
EC
330
14C
100
AcDbEntity
  8
1
 62
     3
100
AcDbLine
 10
148.11
 20
202.3
 30
0.0
 11
148.11
 21
199.3
 31
0.0
  0
LINE
  5
ED
330
14C
100
AcDbEntity
  8
1
 62
     3
100
AcDbLine
 10
147.4399999999999
 20
199.3
 30
0.0
 11
147.4399999999999
 21
202.3
 31
0.0
  0
LINE
  5
EE
330
14C
100
AcDbEntity
  8
1
 62
     7
100
AcDbLine
 10
146.9
 20
199.3
 30
0.0
 11
148.65
 21
199.3
 31
0.0
  0
LINE
  5
EF
330
14C
100
AcDbEntity
  8
1
 62
     3
100
AcDbLine
 10
147.775
 20
199.3
 30
0.0
 11
147.775
 21
202.3
 31
0.0
  0
LINE
  5
F0
330
14C
100
AcDbEntity
  8
1
 62
     3
100
AcDbLine
 10
353.8349999999999
 20
202.3
 30
0.0
 11
353.8349999999999
 21
199.3
 31
0.0
  0
LINE
  5
F1
330
14C
100
AcDbEntity
  8
1
 62
     3
100
AcDbLine
 10
353.165
 20
199.3
 30
0.0
 11
353.1650000000001
 21
202.3
 31
0.0
  0
LINE
  5
F2
330
14C
100
AcDbEntity
  8
1
 62
     3
100
AcDbLine
 10
353.5
 20
199.3
 30
0.0
 11
353.5
 21
202.3
 31
0.0
  0
LINE
  5
F3
330
14C
100
AcDbEntity
  8
1
 62
     3
100
AcDbLine
 10
355.5849999999999
 20
202.3
 30
0.0
 11
355.5849999999999
 21
199.3
 31
0.0
  0
LINE
  5
F4
330
14C
100
AcDbEntity
  8
1
 62
     3
100
AcDbLine
 10
354.915
 20
199.3
 30
0.0
 11
354.9150000000001
 21
202.3
 31
0.0
  0
LINE
  5
F5
330
14C
100
AcDbEntity
  8
1
 62
     7
100
AcDbLine
 10
356.125
 20
199.3
 30
0.0
 11
352.625
 21
199.3
 31
0.0
  0
LINE
  5
F6
330
14C
100
AcDbEntity
  8
1
 62
     3
100
AcDbLine
 10
355.25
 20
199.3
 30
0.0
 11
355.25
 21
202.3
 31
0.0
  0
ARC
  5
F7
330
14C
100
AcDbEntity
  8
1
 62
     7
100
AcDbCircle
 10
340.5520866570946
 20
134.7458345685924
 30
0.0
 40
1.49999999999999
100
AcDbArc
 50
44.85716554492545
 51
119.9999999999988
  0
ARC
  5
F8
330
14C
100
AcDbEntity
  8
1
 62
     7
100
AcDbCircle
 10
337.166689570133
 20
132.7912746491213
 30
0.0
 40
1.500000000000049
100
AcDbArc
 50
119.9999999999988
 51
222.3916080633121
  0
ARC
  5
F9
330
14C
100
AcDbEntity
  8
1
 62
     7
100
AcDbCircle
 10
349.3749999999999
 20
167.3480768249708
 30
0.0
 40
1.500000000000146
100
AcDbArc
 50
284.8571655449258
 51
0.0
  0
ARC
  5
FA
330
14C
100
AcDbEntity
  8
1
 62
     7
100
AcDbCircle
 10
349.3749999999999
 20
171.2571966639127
 30
0.0
 40
1.5
100
AcDbArc
 50
0.0
 51
102.3916080633078
  0
ARC
  5
FB
330
14C
100
AcDbEntity
  8
1
 62
     7
100
AcDbCircle
 10
371.5833104298671
 20
132.7912746491213
 30
0.0
 40
1.499999999999857
100
AcDbArc
 50
317.6083919366906
 51
60.00000000000109
  0
ARC
  5
FC
330
14C
100
AcDbEntity
  8
1
 62
     7
100
AcDbCircle
 10
368.1979133429055
 20
134.7458345685924
 30
0.0
 40
1.500000000000049
100
AcDbArc
 50
60.00000000000109
 51
135.1428344550774
  0
ARC
  5
FD
330
14C
100
AcDbEntity
  8
1
 62
     7
100
AcDbCircle
 10
332.166689570133
 20
141.4515286869658
 30
0.0
 40
1.499999999999839
100
AcDbArc
 50
197.6083919366891
 51
300.0000000000011
  0
ARC
  5
FE
330
14C
100
AcDbEntity
  8
1
 62
     7
100
AcDbCircle
 10
335.5520866570945
 20
143.4060886064368
 30
0.0
 40
1.49999999999995
100
AcDbArc
 50
300.0000000000011
 51
15.14283445507591
  0
ARC
  5
FF
330
14C
100
AcDbEntity
  8
1
 62
     7
100
AcDbCircle
 10
376.5833104298671
 20
141.4515286869658
 30
0.0
 40
1.49999999999995
100
AcDbArc
 50
239.9999999999989
 51
342.391608063312
  0
ARC
  5
100
330
14C
100
AcDbEntity
  8
1
 62
     7
100
AcDbCircle
 10
373.1979133429055
 20
143.4060886064368
 30
0.0
 40
1.500000000000099
100
AcDbArc
 50
164.8571655449251
 51
239.9999999999989
  0
ARC
  5
101
330
14C
100
AcDbEntity
  8
1
 62
     7
100
AcDbCircle
 10
359.375
 20
167.3480768249708
 30
0.0
 40
1.5
100
AcDbArc
 50
180.0
 51
255.1428344550753
  0
ARC
  5
102
330
14C
100
AcDbEntity
  8
1
 62
     7
100
AcDbCircle
 10
359.375
 20
171.2571966639127
 30
0.0
 40
1.499999999999952
100
AcDbArc
 50
77.60839193668719
 51
180.0
  0
ARC
  5
103
330
14C
100
AcDbEntity
  8
1
  6
DASHDOT
 62
     3
100
AcDbCircle
 10
354.375
 20
148.5
 30
0.0
 40
36.99999999999999
100
AcDbArc
 50
309.3455544222868
 51
320.6544455777132
  0
ARC
  5
104
330
14C
100
AcDbEntity
  8
1
  6
DASHDOT
 62
     3
100
AcDbCircle
 10
354.375
 20
148.5
 30
0.0
 40
36.99999999999997
100
AcDbArc
 50
219.3455544222867
 51
230.6544455777132
  0
ARC
  5
105
330
14C
100
AcDbEntity
  8
1
  6
DASHDOT
 62
     3
100
AcDbCircle
 10
354.375
 20
148.5
 30
0.0
 40
36.99999999999999
100
AcDbArc
 50
129.3455544222867
 51
140.6544455777132
  0
ARC
  5
106
330
14C
100
AcDbEntity
  8
1
  6
DASHDOT
 62
     3
100
AcDbCircle
 10
354.375
 20
148.5
 30
0.0
 40
36.99999999999997
100
AcDbArc
 50
39.34555442228678
 51
50.65444557771318
  0
ARC
  5
107
330
14C
100
AcDbEntity
  8
1
 62
     7
100
AcDbCircle
 10
354.375
 20
148.5
 30
0.0
 40
42.24999999999996
100
AcDbArc
 50
313.7889673467281
 51
316.2110326532717
  0
ARC
  5
108
330
14C
100
AcDbEntity
  8
1
 62
     7
100
AcDbCircle
 10
354.375
 20
148.5
 30
0.0
 40
42.24999999999999
100
AcDbArc
 50
223.7889673467281
 51
226.2110326532718
  0
ARC
  5
109
330
14C
100
AcDbEntity
  8
1
 62
     7
100
AcDbCircle
 10
354.375
 20
148.5
 30
0.0
 40
42.24999999999996
100
AcDbArc
 50
133.788967346728
 51
136.2110326532719
  0
ARC
  5
10A
330
14C
100
AcDbEntity
  8
1
 62
     7
100
AcDbCircle
 10
354.375
 20
148.5
 30
0.0
 40
42.24999999999999
100
AcDbArc
 50
43.78896734672814
 51
46.2110326532719
  0
ARC
  5
10B
330
14C
100
AcDbEntity
  8
1
 62
     7
100
AcDbCircle
 10
354.375
 20
148.5
 30
0.0
 40
24.80000000000012
100
AcDbArc
 50
222.3916080633116
 51
317.6083919366886
  0
ARC
  5
10C
330
14C
100
AcDbEntity
  8
1
 62
     7
100
AcDbCircle
 10
354.375
 20
148.5
 30
0.0
 40
24.8
100
AcDbArc
 50
102.3916080633114
 51
197.6083919366884
  0
ARC
  5
10D
330
14C
100
AcDbEntity
  8
1
 62
     7
100
AcDbCircle
 10
354.375
 20
148.5
 30
0.0
 40
24.80000000000009
100
AcDbArc
 50
342.3916080633118
 51
77.60839193668829
  0
ARC
  5
10E
330
14C
100
AcDbEntity
  8
1
 62
     7
100
AcDbCircle
 10
354.375
 20
148.5
 30
0.0
 40
6.000000000000016
100
AcDbArc
 50
109.4712206344905
 51
70.52877936550938
  0
ARC
  5
10F
330
14C
100
AcDbEntity
  8
1
 62
     7
100
AcDbCircle
 10
269.4472222148752
 20
121.1000000066604
 30
0.0
 40
2.777777786598068
100
AcDbArc
 50
290.6096930310192
 51
69.39030696898098
  0
ARC
  5
110
330
14C
100
AcDbEntity
  8
1
 62
     7
100
AcDbCircle
 10
176.6972222148751
 20
121.1000000066604
 30
0.0
 40
2.777777786598059
100
AcDbArc
 50
290.6096930310186
 51
69.39030696898152
  0
ARC
  5
111
330
14C
100
AcDbEntity
  8
1
 62
     7
100
AcDbCircle
 10
176.6972222148751
 20
162.2000000066604
 30
0.0
 40
2.777777786598059
100
AcDbArc
 50
290.6096930310186
 51
69.39030696898163
  0
CIRCLE
  5
112
330
14C
100
AcDbEntity
  8
1
 62
     7
100
AcDbCircle
 10
366.9323683548744
 20
141.25
 30
0.0
 40
1.620999999999867
  0
CIRCLE
  5
113
330
14C
100
AcDbEntity
  8
1
 62
     7
100
AcDbCircle
 10
341.8176316451256
 20
141.25
 30
0.0
 40
1.620999999999809
  0
CIRCLE
  5
114
330
14C
100
AcDbEntity
  8
1
 62
     7
100
AcDbCircle
 10
354.375
 20
163.0
 30
0.0
 40
1.62099999999998
  0
CIRCLE
  5
115
330
14C
100
AcDbEntity
  8
1
 62
     7
100
AcDbCircle
 10
276.6249999999999
 20
148.5
 30
0.0
 40
2.067000000000005
  0
CIRCLE
  5
116
330
14C
100
AcDbEntity
  8
1
 62
     3
100
AcDbCircle
 10
276.6249999999999
 20
148.5
 30
0.0
 40
2.5
  0
CIRCLE
  5
117
330
14C
100
AcDbEntity
  8
1
 62
     7
100
AcDbCircle
 10
330.6459039363064
 20
162.1999999999999
 30
0.0
 40
2.60000000000008
  0
CIRCLE
  5
118
330
14C
100
AcDbEntity
  8
1
 62
     7
100
AcDbCircle
 10
378.1040960636937
 20
162.1999999999999
 30
0.0
 40
2.599999999999908
  0
CIRCLE
  5
119
330
14C
100
AcDbEntity
  8
1
 62
     7
100
AcDbCircle
 10
354.375
 20
121.1
 30
0.0
 40
2.600000000000021
  0
CIRCLE
  5
11A
330
14C
100
AcDbEntity
  8
1
 62
     7
100
AcDbCircle
 10
380.5379509039021
 20
122.3370490960977
 30
0.0
 40
2.650000000000034
  0
CIRCLE
  5
11B
330
14C
100
AcDbEntity
  8
1
 62
     7
100
AcDbCircle
 10
328.2120490960978
 20
174.6629509039023
 30
0.0
 40
2.65000000000009
  0
CIRCLE
  5
11C
330
14C
100
AcDbEntity
  8
1
 62
     7
100
AcDbCircle
 10
328.2120490960978
 20
122.3370490960977
 30
0.0
 40
2.65000000000009
  0
CIRCLE
  5
11D
330
14C
100
AcDbEntity
  8
1
 62
     7
100
AcDbCircle
 10
380.5379509039023
 20
174.6629509039022
 30
0.0
 40
2.649999999999864
  0
CIRCLE
  5
11E
330
14C
100
AcDbEntity
  8
1
 62
     7
100
AcDbCircle
 10
354.375
 20
148.5
 30
0.0
 40
30.65000000000009
  0
CIRCLE
  5
11F
330
14C
100
AcDbEntity
  8
1
 62
     7
100
AcDbCircle
 10
354.375
 20
148.5
 30
0.0
 40
30.0
  0
CIRCLE
  5
120
330
14C
100
AcDbEntity
  8
1
 62
     7
100
AcDbCircle
 10
354.375
 20
148.5
 30
0.0
 40
17.99999999999989
  0
CIRCLE
  5
121
330
14C
100
AcDbEntity
  8
1
 62
     3
100
AcDbCircle
 10
366.9323683548744
 20
141.25
 30
0.0
 40
2.0
  0
CIRCLE
  5
122
330
14C
100
AcDbEntity
  8
1
 62
     3
100
AcDbCircle
 10
341.8176316451256
 20
141.25
 30
0.0
 40
2.0
  0
CIRCLE
  5
123
330
14C
100
AcDbEntity
  8
1
 62
     3
100
AcDbCircle
 10
354.375
 20
163.0
 30
0.0
 40
2.0
  0
TEXT
  5
125
330
14C
100
AcDbEntity
  8
1
 62
     7
100
AcDbText
 10
149.6825238600217
 20
223.575233297985
 30
0.0
 40
3.5
  1
AMB 40
 41
0.9
  7
SIMPLEX
100
AcDbText
  0
ENDSEC
  0
SECTION
  2
OBJECTS
  0
DICTIONARY
  5
138
330
0
100
AcDbDictionary
281
     1
  3
ACAD_COLOR
350
147
  3
ACAD_GROUP
350
139
  3
ACAD_LAYOUT
350
145
  3
ACAD_MATERIAL
350
146
  3
ACAD_MLINESTYLE
350
142
  3
ACAD_PLOTSETTINGS
350
144
  3
ACAD_PLOTSTYLENAME
350
13A
  0
DICTIONARY
  5
147
102
{ACAD_REACTORS
330
138
102
}
330
138
100
AcDbDictionary
281
     1
  0
DICTIONARY
  5
139
102
{ACAD_REACTORS
330
138
102
}
330
138
100
AcDbDictionary
281
     1
  0
DICTIONARY
  5
145
102
{ACAD_REACTORS
330
138
102
}
330
138
100
AcDbDictionary
281
     1
  3
Layout1
350
14B
  3
Model
350
14F
  0
DICTIONARY
  5
146
102
{ACAD_REACTORS
330
138
102
}
330
138
100
AcDbDictionary
281
     1
  0
DICTIONARY
  5
142
102
{ACAD_REACTORS
330
138
102
}
330
138
100
AcDbDictionary
281
     1
  3
Standard
350
143
  0
DICTIONARY
  5
144
102
{ACAD_REACTORS
330
138
102
}
330
138
100
AcDbDictionary
281
     1
  0
ACDBDICTIONARYWDFLT
  5
13A
102
{ACAD_REACTORS
330
138
102
}
330
138
100
AcDbDictionary
281
     1
  3
Normal
350
13B
100
AcDbDictionaryWithDefault
340
13B
  0
LAYOUT
  5
14B
102
{ACAD_REACTORS
330
145
102
}
330
145
100
AcDbPlotSettings
  1

  2
Microsoft Office Document Image Writer
  4

  6

 40
0.0
 41
0.0
 42
0.0
 43
0.0
 44
0.0
 45
0.0
 46
0.0
 47
0.0
 48
0.0
 49
0.0
140
0.0
141
0.0
142
1.0
143
1.0
 70
   688
 72
     0
 73
     0
 74
     5
  7

 75
    16
147
1.0
 76
     0
 77
     2
 78
   300
148
0.0
149
0.0
100
AcDbLayout
  1
Layout1
 70
     1
 71
     1
 10
0.0
 20
0.0
 11
12.0
 21
9.0
 12
0.0
 22
0.0
 32
0.0
 14
1.000000000000000E+20
 24
1.000000000000000E+20
 34
1.000000000000000E+20
 15
-1.000000000000000E+20
 25
-1.000000000000000E+20
 35
-1.000000000000000E+20
146
0.0
 13
0.0
 23
0.0
 33
0.0
 16
1.0
 26
0.0
 36
0.0
 17
0.0
 27
1.0
 37
0.0
 76
     0
330
148
  0
LAYOUT
  5
14F
102
{ACAD_REACTORS
330
145
102
}
330
145
100
AcDbPlotSettings
  1

  2
Microsoft Office Document Image Writer
  4

  6

 40
0.0
 41
0.0
 42
0.0
 43
0.0
 44
0.0
 45
0.0
 46
0.0
 47
0.0
 48
0.0
 49
0.0
140
0.0
141
0.0
142
1.0
143
1.0
 70
  1712
 72
     0
 73
     0
 74
     0
  7

 75
     0
147
1.0
 76
     0
 77
     2
 78
   300
148
0.0
149
0.0
100
AcDbLayout
  1
Model
 70
     1
 71
     0
 10
0.0
 20
0.0
 11
12.0
 21
9.0
 12
0.0
 22
0.0
 32
0.0
 14
0.0
 24
0.0
 34
0.0
 15
0.0
 25
0.0
 35
0.0
146
0.0
 13
0.0
 23
0.0
 33
0.0
 16
1.0
 26
0.0
 36
0.0
 17
0.0
 27
1.0
 37
0.0
 76
     0
330
14C
  0
MLINESTYLE
  5
143
102
{ACAD_REACTORS
330
142
102
}
330
142
100
AcDbMlineStyle
  2
STANDARD
 70
     0
  3

 62
   256
 51
90.0
 52
90.0
 71
     2
 49
0.5
 62
   256
  6
BYLAYER
 49
-0.5
 62
   256
  6
BYLAYER
  0
ACDBPLACEHOLDER
  5
13B
102
{ACAD_REACTORS
330
13A
102
}
330
13A
  0
ENDSEC
  0
EOF
