  0
SECTION
  2
HEADER
  9
$ACADVER
  1
AC1018
  9
$ACADMAINTVER
 70
     0
  9
$DWGCODEPAGE
  3
ANSI_932
  9
$INSBASE
 10
0.0
 20
0.0
 30
0.0
  9
$EXTMIN
 10
140.0679080977587
 20
121.9917631830202
 30
-0.0015258207003583
  9
$EXTMAX
 10
372.4872764617852
 20
222.0573380049587
 30
0.0000000349246037
  9
$LIMMIN
 10
140.0749999999999
 20
122.0
  9
$LIMMAX
 10
372.4749999999998
 20
222.054284199364
  9
$ORTHOMODE
 70
     0
  9
$REGENMODE
 70
     1
  9
$FILLMODE
 70
     1
  9
$QTEXTMODE
 70
     0
  9
$MIRRTEXT
 70
     1
  9
$LTSCALE
 40
1.0
  9
$ATTMODE
 70
     1
  9
$TEXTSIZE
 40
3.5
  9
$TRACEWID
 40
0.5
  9
$TEXTSTYLE
  7
STANDARD
  9
$CLAYER
  8
0
  9
$CELTYPE
  6
ByLayer
  9
$CECOLOR
 62
   256
  9
$CELTSCALE
 40
1.0
  9
$DISPSILH
 70
     0
  9
$DIMSCALE
 40
1.0
  9
$DIMASZ
 40
0.18
  9
$DIMEXO
 40
0.0625
  9
$DIMDLI
 40
0.38
  9
$DIMRND
 40
0.0
  9
$DIMDLE
 40
0.0
  9
$DIMEXE
 40
0.18
  9
$DIMTP
 40
0.0
  9
$DIMTM
 40
0.0
  9
$DIMTXT
 40
0.18
  9
$DIMCEN
 40
0.09
  9
$DIMTSZ
 40
0.0
  9
$DIMTOL
 70
     0
  9
$DIMLIM
 70
     0
  9
$DIMTIH
 70
     1
  9
$DIMTOH
 70
     1
  9
$DIMSE1
 70
     0
  9
$DIMSE2
 70
     0
  9
$DIMTAD
 70
     0
  9
$DIMZIN
 70
     0
  9
$DIMBLK
  1

  9
$DIMASO
 70
     1
  9
$DIMSHO
 70
     1
  9
$DIMPOST
  1

  9
$DIMAPOST
  1

  9
$DIMALT
 70
     0
  9
$DIMALTD
 70
     2
  9
$DIMALTF
 40
25.4
  9
$DIMLFAC
 40
1.0
  9
$DIMTOFL
 70
     0
  9
$DIMTVP
 40
0.0
  9
$DIMTIX
 70
     0
  9
$DIMSOXD
 70
     0
  9
$DIMSAH
 70
     0
  9
$DIMBLK1
  1

  9
$DIMBLK2
  1

  9
$DIMSTYLE
  2
STANDARD
  9
$DIMCLRD
 70
     0
  9
$DIMCLRE
 70
     0
  9
$DIMCLRT
 70
     0
  9
$DIMTFAC
 40
1.0
  9
$DIMGAP
 40
0.09
  9
$DIMJUST
 70
     0
  9
$DIMSD1
 70
     0
  9
$DIMSD2
 70
     0
  9
$DIMTOLJ
 70
     1
  9
$DIMTZIN
 70
     0
  9
$DIMALTZ
 70
     0
  9
$DIMALTTZ
 70
     0
  9
$DIMUPT
 70
     0
  9
$DIMDEC
 70
     4
  9
$DIMTDEC
 70
     4
  9
$DIMALTU
 70
     2
  9
$DIMALTTD
 70
     2
  9
$DIMTXSTY
  7
STANDARD
  9
$DIMAUNIT
 70
     0
  9
$DIMADEC
 70
     0
  9
$DIMALTRND
 40
0.0
  9
$DIMAZIN
 70
     0
  9
$DIMDSEP
 70
    46
  9
$DIMATFIT
 70
     3
  9
$DIMFRAC
 70
     0
  9
$DIMLDRBLK
  1

  9
$DIMLUNIT
 70
     2
  9
$DIMLWD
 70
    -2
  9
$DIMLWE
 70
    -2
  9
$DIMTMOVE
 70
     0
  9
$LUNITS
 70
     2
  9
$LUPREC
 70
     4
  9
$SKETCHINC
 40
0.1
  9
$FILLETRAD
 40
2.0
  9
$AUNITS
 70
     0
  9
$AUPREC
 70
     0
  9
$MENU
  1
ACAD
  9
$ELEVATION
 40
0.0
  9
$PELEVATION
 40
0.0
  9
$THICKNESS
 40
0.0
  9
$LIMCHECK
 70
     0
  9
$CHAMFERA
 40
0.0
  9
$CHAMFERB
 40
0.0
  9
$CHAMFERC
 40
0.0
  9
$CHAMFERD
 40
0.0
  9
$SKPOLY
 70
     0
  9
$TDCREATE
 40
2452093.898277778
  9
$TDUCREATE
 40
2452094.064944444
  9
$TDUPDATE
 40
2453209.432879722
  9
$TDUUPDATE
 40
2453209.599546389
  9
$TDINDWG
 40
0.0005438657
  9
$TDUSRTIMER
 40
0.0005436806
  9
$USRTIMER
 70
     1
  9
$ANGBASE
 50
0.0
  9
$ANGDIR
 70
     0
  9
$PDMODE
 70
     0
  9
$PDSIZE
 40
0.0
  9
$PLINEWID
 40
0.0
  9
$SPLFRAME
 70
     0
  9
$SPLINETYPE
 70
     6
  9
$SPLINESEGS
 70
     8
  9
$HANDSEED
  5
168
  9
$SURFTAB1
 70
     6
  9
$SURFTAB2
 70
     6
  9
$SURFTYPE
 70
     6
  9
$SURFU
 70
     6
  9
$SURFV
 70
     6
  9
$UCSBASE
  2

  9
$UCSNAME
  2

  9
$UCSORG
 10
0.0
 20
0.0
 30
0.0
  9
$UCSXDIR
 10
1.0
 20
0.0
 30
0.0
  9
$UCSYDIR
 10
0.0
 20
1.0
 30
0.0
  9
$UCSORTHOREF
  2

  9
$UCSORTHOVIEW
 70
     0
  9
$UCSORGTOP
 10
0.0
 20
0.0
 30
0.0
  9
$UCSORGBOTTOM
 10
0.0
 20
0.0
 30
0.0
  9
$UCSORGLEFT
 10
0.0
 20
0.0
 30
0.0
  9
$UCSORGRIGHT
 10
0.0
 20
0.0
 30
0.0
  9
$UCSORGFRONT
 10
0.0
 20
0.0
 30
0.0
  9
$UCSORGBACK
 10
0.0
 20
0.0
 30
0.0
  9
$PUCSBASE
  2

  9
$PUCSNAME
  2

  9
$PUCSORG
 10
0.0
 20
0.0
 30
0.0
  9
$PUCSXDIR
 10
1.0
 20
0.0
 30
0.0
  9
$PUCSYDIR
 10
0.0
 20
1.0
 30
0.0
  9
$PUCSORTHOREF
  2

  9
$PUCSORTHOVIEW
 70
     0
  9
$PUCSORGTOP
 10
0.0
 20
0.0
 30
0.0
  9
$PUCSORGBOTTOM
 10
0.0
 20
0.0
 30
0.0
  9
$PUCSORGLEFT
 10
0.0
 20
0.0
 30
0.0
  9
$PUCSORGRIGHT
 10
0.0
 20
0.0
 30
0.0
  9
$PUCSORGFRONT
 10
0.0
 20
0.0
 30
0.0
  9
$PUCSORGBACK
 10
0.0
 20
0.0
 30
0.0
  9
$USERI1
 70
     0
  9
$USERI2
 70
     0
  9
$USERI3
 70
     0
  9
$USERI4
 70
     0
  9
$USERI5
 70
     0
  9
$USERR1
 40
0.0
  9
$USERR2
 40
0.0
  9
$USERR3
 40
0.0
  9
$USERR4
 40
0.0
  9
$USERR5
 40
0.0
  9
$WORLDVIEW
 70
     1
  9
$SHADEDGE
 70
     3
  9
$SHADEDIF
 70
    70
  9
$TILEMODE
 70
     1
  9
$MAXACTVP
 70
    64
  9
$PINSBASE
 10
0.0
 20
0.0
 30
0.0
  9
$PLIMCHECK
 70
     0
  9
$PEXTMIN
 10
1.000000000000000E+20
 20
1.000000000000000E+20
 30
1.000000000000000E+20
  9
$PEXTMAX
 10
-1.000000000000000E+20
 20
-1.000000000000000E+20
 30
-1.000000000000000E+20
  9
$PLIMMIN
 10
0.0
 20
0.0
  9
$PLIMMAX
 10
12.0
 20
9.0
  9
$UNITMODE
 70
     0
  9
$VISRETAIN
 70
     1
  9
$PLINEGEN
 70
     0
  9
$PSLTSCALE
 70
     1
  9
$TREEDEPTH
 70
  3020
  9
$CMLSTYLE
  2
Standard
  9
$CMLJUST
 70
     0
  9
$CMLSCALE
 40
1.0
  9
$PROXYGRAPHICS
 70
     1
  9
$MEASUREMENT
 70
     0
  9
$CELWEIGHT
370
    -1
  9
$ENDCAPS
280
     0
  9
$JOINSTYLE
280
     0
  9
$LWDISPLAY
290
     0
  9
$INSUNITS
 70
     0
  9
$HYPERLINKBASE
  1

  9
$STYLESHEET
  1

  9
$XEDIT
290
     1
  9
$CEPSNTYPE
380
     0
  9
$PSTYLEMODE
290
     1
  9
$FINGERPRINTGUID
  2
{5E00A020-8612-46F6-9931-E9B346E41572}
  9
$VERSIONGUID
  2
{574EDEE7-A68B-43B0-A676-014192E213B8}
  9
$EXTNAMES
290
     1
  9
$PSVPSCALE
 40
0.0
  9
$OLESTARTUP
290
     0
  9
$SORTENTS
280
   127
  9
$INDEXCTL
280
     0
  9
$HIDETEXT
280
     0
  9
$XCLIPFRAME
290
     0
  9
$HALOGAP
280
     0
  9
$OBSCOLOR
 70
   257
  9
$OBSLTYPE
280
     0
  9
$INTERSECTIONDISPLAY
280
     0
  9
$INTERSECTIONCOLOR
 70
   257
  9
$DIMASSOC
280
     1
  9
$PROJECTNAME
  1

  0
ENDSEC
  0
SECTION
  2
CLASSES
  0
CLASS
  1
ACDBDICTIONARYWDFLT
  2
AcDbDictionaryWithDefault
  3
ObjectDBX Classes
 90
        0
 91
        1
280
     0
281
     0
  0
ENDSEC
  0
SECTION
  2
TABLES
  0
TABLE
  2
VPORT
  5
135
330
0
100
AcDbSymbolTable
 70
     2
  0
VPORT
  5
167
330
135
100
AcDbSymbolTableRecord
100
AcDbViewportTableRecord
  2
*Active
 70
     0
 10
0.0
 20
0.0
 11
1.0
 21
1.0
 12
256.277592279772
 22
172.0245505939895
 13
0.0
 23
0.0
 14
1.0
 24
1.0
 15
0.0
 25
0.0
 16
0.0
 26
0.0
 36
1.0
 17
0.0
 27
0.0
 37
0.0
 40
143.8214401700214
 41
1.625
 42
50.0
 43
0.0
 44
0.0
 50
0.0
 51
0.0
 71
     0
 72
   100
 73
     1
 74
     1
 75
     0
 76
     0
 77
     0
 78
     0
281
     0
 65
     1
110
0.0
120
0.0
130
0.0
111
1.0
121
0.0
131
0.0
112
0.0
122
1.0
132
0.0
 79
     0
146
0.0
  0
ENDTAB
  0
TABLE
  2
LTYPE
  5
132
330
0
100
AcDbSymbolTable
 70
     9
  0
LTYPE
  5
140
330
132
100
AcDbSymbolTableRecord
100
AcDbLinetypeTableRecord
  2
ByBlock
 70
     0
  3

 72
    65
 73
     0
 40
0.0
  0
LTYPE
  5
141
330
132
100
AcDbSymbolTableRecord
100
AcDbLinetypeTableRecord
  2
ByLayer
 70
     0
  3

 72
    65
 73
     0
 40
0.0
  0
LTYPE
  5
142
330
132
100
AcDbSymbolTableRecord
100
AcDbLinetypeTableRecord
  2
CONTINUOUS
 70
     0
  3
Solid line
 72
    65
 73
     0
 40
0.0
  0
LTYPE
  5
152
330
132
100
AcDbSymbolTableRecord
100
AcDbLinetypeTableRecord
  2
BORDER
 70
     0
  3
__ __ . __ __ .
 72
    65
 73
     6
 40
10.70263157894736
 49
3.057894736842103
 74
     0
 49
-1.528947368421051
 74
     0
 49
3.057894736842103
 74
     0
 49
-1.528947368421051
 74
     0
 49
0.0
 74
     0
 49
-1.528947368421051
 74
     0
  0
LTYPE
  5
153
330
132
100
AcDbSymbolTableRecord
100
AcDbLinetypeTableRecord
  2
CENTER
 70
     0
  3
____ _ ____ _
 72
    65
 73
     4
 40
12.23157894736841
 49
7.644736842105261
 74
     0
 49
-1.528947368421051
 74
     0
 49
1.528947368421051
 74
     0
 49
-1.528947368421051
 74
     0
  0
LTYPE
  5
154
330
132
100
AcDbSymbolTableRecord
100
AcDbLinetypeTableRecord
  2
DASHDOT
 70
     0
  3
__ . __ . __ .
 72
    65
 73
     4
 40
6.115789473684207
 49
3.057894736842103
 74
     0
 49
-1.528947368421051
 74
     0
 49
0.0
 74
     0
 49
-1.528947368421051
 74
     0
  0
LTYPE
  5
155
330
132
100
AcDbSymbolTableRecord
100
AcDbLinetypeTableRecord
  2
DASHED
 70
     0
  3
__ __ __ __ __
 72
    65
 73
     2
 40
4.586842105263156
 49
3.057894736842103
 74
     0
 49
-1.528947368421051
 74
     0
  0
LTYPE
  5
156
330
132
100
AcDbSymbolTableRecord
100
AcDbLinetypeTableRecord
  2
DIVIDE
 70
     0
  3
__ . . __ . . 
 72
    65
 73
     6
 40
7.644736842105261
 49
3.057894736842103
 74
     0
 49
-1.528947368421051
 74
     0
 49
0.0
 74
     0
 49
-1.528947368421051
 74
     0
 49
0.0
 74
     0
 49
-1.528947368421051
 74
     0
  0
LTYPE
  5
157
330
132
100
AcDbSymbolTableRecord
100
AcDbLinetypeTableRecord
  2
DOT
 70
     0
  3
..............
 72
    65
 73
     4
 40
3.057894736842103
 49
0.0
 74
     0
 49
-1.528947368421051
 74
     0
 49
0.0
 74
     0
 49
-1.528947368421051
 74
     0
  0
LTYPE
  5
158
330
132
100
AcDbSymbolTableRecord
100
AcDbLinetypeTableRecord
  2
HIDDEN
 70
     0
  3
_ _ _ _ _ _ _
 72
    65
 73
     2
 40
2.293421052631578
 49
1.528947368421051
 74
     0
 49
-0.7644736842105261
 74
     0
  0
LTYPE
  5
159
330
132
100
AcDbSymbolTableRecord
100
AcDbLinetypeTableRecord
  2
PHANTOM
 70
     0
  3
_____ _ _ _____ _ _ 
 72
    65
 73
     6
 40
15.28947368421052
 49
7.644736842105261
 74
     0
 49
-1.528947368421051
 74
     0
 49
1.528947368421051
 74
     0
 49
-1.528947368421051
 74
     0
 49
1.528947368421051
 74
     0
 49
-1.528947368421051
 74
     0
  0
ENDTAB
  0
TABLE
  2
LAYER
  5
12F
330
0
100
AcDbSymbolTable
 70
     2
  0
LAYER
  5
13D
330
12F
100
AcDbSymbolTableRecord
100
AcDbLayerTableRecord
  2
0
 70
     0
 62
     7
  6
CONTINUOUS
370
    -3
390
13C
  0
LAYER
  5
15A
330
12F
100
AcDbSymbolTableRecord
100
AcDbLayerTableRecord
  2
1
 70
     0
 62
     7
  6
CONTINUOUS
370
    -3
390
13C
  0
ENDTAB
  0
TABLE
  2
STYLE
  5
130
330
0
100
AcDbSymbolTable
 70
     4
  0
STYLE
  5
13E
330
130
100
AcDbSymbolTableRecord
100
AcDbTextStyleTableRecord
  2
STANDARD
 70
     0
 40
0.0
 41
1.0
 50
0.0
 71
     0
 42
3.5
  3
txt
  4

  0
STYLE
  5
15B
330
130
100
AcDbSymbolTableRecord
100
AcDbTextStyleTableRecord
  2
SIMPLEX
 70
     0
 40
0.0
 41
1.0
 50
0.0
 71
     0
 42
3.5
  3
simplex
  4

  0
STYLE
  5
15C
330
130
100
AcDbSymbolTableRecord
100
AcDbTextStyleTableRecord
  2
COMPLEX
 70
     0
 40
0.0
 41
1.0
 50
0.0
 71
     0
 42
3.5
  3
complex
  4

  0
STYLE
  5
15D
330
130
100
AcDbSymbolTableRecord
100
AcDbTextStyleTableRecord
  2
ITALIC
 70
     0
 40
0.0
 41
1.0
 50
0.0
 71
     0
 42
3.5
  3
italic
  4

  0
ENDTAB
  0
TABLE
  2
VIEW
  5
133
330
0
100
AcDbSymbolTable
 70
     0
  0
ENDTAB
  0
TABLE
  2
UCS
  5
134
330
0
100
AcDbSymbolTable
 70
     0
  0
ENDTAB
  0
TABLE
  2
APPID
  5
136
330
0
100
AcDbSymbolTable
 70
     1
  0
APPID
  5
13F
330
136
100
AcDbSymbolTableRecord
100
AcDbRegAppTableRecord
  2
ACAD
 70
     0
  0
ENDTAB
  0
TABLE
  2
DIMSTYLE
  5
137
330
0
100
AcDbSymbolTable
 70
     1
100
AcDbDimStyleTable
 71
     0
  0
DIMSTYLE
105
15E
330
137
100
AcDbSymbolTableRecord
100
AcDbDimStyleTableRecord
  2
STANDARD
 70
     0
279
     2
340
13E
  0
ENDTAB
  0
TABLE
  2
BLOCK_RECORD
  5
12E
330
0
100
AcDbSymbolTable
 70
     2
  0
BLOCK_RECORD
  5
14D
330
12E
100
AcDbSymbolTableRecord
100
AcDbBlockTableRecord
  2
*Model_Space
340
150
  0
BLOCK_RECORD
  5
149
330
12E
100
AcDbSymbolTableRecord
100
AcDbBlockTableRecord
  2
*Paper_Space
340
14C
  0
BLOCK_RECORD
  5
163
330
12E
100
AcDbSymbolTableRecord
100
AcDbBlockTableRecord
  2
$MODEL_SPACE
340
0
  0
BLOCK_RECORD
  5
165
330
12E
100
AcDbSymbolTableRecord
100
AcDbBlockTableRecord
  2
$PAPER_SPACE
340
0
  0
ENDTAB
  0
ENDSEC
  0
SECTION
  2
BLOCKS
  0
BLOCK
  5
14E
330
14D
100
AcDbEntity
  8
0
100
AcDbBlockBegin
  2
*Model_Space
 70
     0
 10
0.0
 20
0.0
 30
0.0
  3
*Model_Space
  1

  0
ENDBLK
  5
14F
330
14D
100
AcDbEntity
  8
0
100
AcDbBlockEnd
  0
BLOCK
  5
14A
330
149
100
AcDbEntity
 67
     1
  8
0
100
AcDbBlockBegin
  2
*Paper_Space
 70
     0
 10
0.0
 20
0.0
 30
0.0
  3
*Paper_Space
  1

  0
ENDBLK
  5
14B
330
149
100
AcDbEntity
 67
     1
  8
0
100
AcDbBlockEnd
  0
BLOCK
  5
164
330
163
100
AcDbEntity
  8
0
100
AcDbBlockBegin
  2
$MODEL_SPACE
 70
     0
 10
0.0
 20
0.0
 30
0.0
  3
$MODEL_SPACE
  1

  0
ENDBLK
  5
20
330
163
100
AcDbEntity
  8
0
100
AcDbBlockEnd
  0
BLOCK
  5
166
330
165
100
AcDbEntity
  8
0
100
AcDbBlockBegin
  2
$PAPER_SPACE
 70
     0
 10
0.0
 20
0.0
 30
0.0
  3
$PAPER_SPACE
  1

  0
ENDBLK
  5
1C
330
165
100
AcDbEntity
  8
0
100
AcDbBlockEnd
  0
ENDSEC
  0
SECTION
  2
ENTITIES
  0
LINE
  5
33
330
14D
100
AcDbEntity
  8
1
 62
     7
100
AcDbLine
 10
262.925
 20
136.4999999999998
 30
0.0
 11
265.925
 21
136.4999999999998
 31
0.0
  0
LINE
  5
34
330
14D
100
AcDbEntity
  8
1
 62
     7
100
AcDbLine
 10
276.9249999999999
 20
153.0825756949558
 30
0.0
 11
276.9249999999999
 21
143.5
 31
0.0
  0
LINE
  5
35
330
14D
100
AcDbEntity
  8
1
 62
     7
100
AcDbLine
 10
276.9249999999999
 20
143.5
 30
0.0
 11
276.9249999999999
 21
133.0
 31
0.0
  0
LINE
  5
36
330
14D
100
AcDbEntity
  8
1
 62
     7
100
AcDbLine
 10
262.675
 20
137.5
 30
0.0
 11
262.675
 21
123.0
 31
0.0
  0
LINE
  5
37
330
14D
100
AcDbEntity
  8
1
 62
     7
100
AcDbLine
 10
262.925
 20
137.5
 30
0.0
 11
262.925
 21
143.5
 31
0.0
  0
LINE
  5
38
330
14D
100
AcDbEntity
  8
1
 62
     7
100
AcDbLine
 10
262.925
 20
159.4999999999998
 30
0.0
 11
262.925
 21
174.15
 31
0.0
  0
LINE
  5
39
330
14D
100
AcDbEntity
  8
1
 62
     7
100
AcDbLine
 10
262.675
 20
159.4999999999998
 30
0.0
 11
262.675
 21
137.5
 31
0.0
  0
LINE
  5
3A
330
14D
100
AcDbEntity
  8
1
 62
     7
100
AcDbLine
 10
262.925
 20
143.5
 30
0.0
 11
262.925
 21
153.0825756949558
 31
0.0
  0
LINE
  5
3B
330
14D
100
AcDbEntity
  8
1
 62
     7
100
AcDbLine
 10
262.925
 20
153.0825756949558
 30
0.0
 11
262.925
 21
159.4999999999998
 31
0.0
  0
LINE
  5
3C
330
14D
100
AcDbEntity
  8
1
 62
     7
100
AcDbLine
 10
261.8249999999999
 20
159.4999999999998
 30
0.0
 11
261.8249999999999
 21
137.5
 31
0.0
  0
LINE
  5
3D
330
14D
100
AcDbEntity
  8
1
 62
     7
100
AcDbLine
 10
261.8249999999999
 20
137.5
 30
0.0
 11
261.8249999999999
 21
133.1999999999999
 31
0.0
  0
LINE
  5
3E
330
14D
100
AcDbEntity
  8
1
 62
     7
100
AcDbLine
 10
254.325
 20
137.5
 30
0.0
 11
254.325
 21
136.05
 31
0.0
  0
LINE
  5
3F
330
14D
100
AcDbEntity
  8
1
 62
     7
100
AcDbLine
 10
254.325
 20
159.4999999999998
 30
0.0
 11
254.325
 21
137.5
 31
0.0
  0
LINE
  5
40
330
14D
100
AcDbEntity
  8
1
 62
     7
100
AcDbLine
 10
236.8249999999999
 20
161.5
 30
0.0
 11
236.8249999999999
 21
135.4999999999998
 31
0.0
  0
LINE
  5
41
330
14D
100
AcDbEntity
  8
1
 62
     7
100
AcDbLine
 10
235.475
 20
161.5
 30
0.0
 11
235.475
 21
135.4999999999998
 31
0.0
  0
LINE
  5
42
330
14D
100
AcDbEntity
  8
1
 62
     7
100
AcDbLine
 10
236.8249999999999
 20
135.4999999999998
 30
0.0
 11
236.8249999999999
 21
134.8999999999998
 31
0.0
  0
LINE
  5
43
330
14D
100
AcDbEntity
  8
1
 62
     7
100
AcDbLine
 10
235.475
 20
135.4999999999998
 30
0.0
 11
235.475
 21
134.8999999999998
 31
0.0
  0
LINE
  5
44
330
14D
100
AcDbEntity
  8
1
 62
     7
100
AcDbLine
 10
234.025
 20
161.5
 30
0.0
 11
234.025
 21
135.4999999999998
 31
0.0
  0
LINE
  5
45
330
14D
100
AcDbEntity
  8
1
 62
     7
100
AcDbLine
 10
234.025
 20
135.4999999999998
 30
0.0
 11
234.025
 21
122.0
 31
0.0
  0
LINE
  5
46
330
14D
100
AcDbEntity
  8
1
 62
     7
100
AcDbLine
 10
232.6249999999999
 20
135.4999999999998
 30
0.0
 11
232.6249999999999
 21
122.0
 31
0.0
  0
LINE
  5
47
330
14D
100
AcDbEntity
  8
1
 62
     7
100
AcDbLine
 10
232.6249999999999
 20
161.5
 30
0.0
 11
232.6249999999999
 21
135.4999999999998
 31
0.0
  0
LINE
  5
48
330
14D
100
AcDbEntity
  8
1
 62
     7
100
AcDbLine
 10
273.5459999999999
 20
162.5
 30
0.0
 11
273.925
 21
162.121
 31
0.0
  0
LINE
  5
49
330
14D
100
AcDbEntity
  8
1
 62
     3
100
AcDbLine
 10
266.8077832284728
 20
158.4999999999998
 30
0.0
 11
267.4642304845414
 21
158.8789999999999
 31
0.0
  0
LINE
  5
4A
330
14D
100
AcDbEntity
  8
1
 62
     3
100
AcDbLine
 10
266.8077832284728
 20
162.5
 30
0.0
 11
267.4642304845414
 21
162.121
 31
0.0
  0
LINE
  5
4B
330
14D
100
AcDbEntity
  8
1
 62
     3
100
AcDbLine
 10
269.925
 20
143.5
 30
0.0
 11
269.925
 21
133.0
 31
0.0
  0
LINE
  5
4C
330
14D
100
AcDbEntity
  8
1
 62
     7
100
AcDbLine
 10
270.304
 20
143.5
 30
0.0
 11
270.304
 21
133.0
 31
0.0
  0
LINE
  5
4D
330
14D
100
AcDbEntity
  8
1
 62
     7
100
AcDbLine
 10
273.5459999999999
 20
143.5
 30
0.0
 11
273.5459999999999
 21
133.0
 31
0.0
  0
LINE
  5
4E
330
14D
100
AcDbEntity
  8
1
 62
     3
100
AcDbLine
 10
273.925
 20
143.5
 30
0.0
 11
273.925
 21
133.0
 31
0.0
  0
LINE
  5
4F
330
14D
100
AcDbEntity
  8
1
 62
     7
100
AcDbLine
 10
265.925
 20
140.0
 30
0.0
 11
265.925
 21
127.75
 31
0.0
  0
LINE
  5
50
330
14D
100
AcDbEntity
  8
1
 62
     7
100
AcDbLine
 10
262.925
 20
140.0
 30
0.0
 11
266.225
 21
140.0
 31
0.0
  0
LINE
  5
51
330
14D
100
AcDbEntity
  8
1
 62
     7
100
AcDbLine
 10
276.9249999999999
 20
143.5
 30
0.0
 11
262.925
 21
143.5
 31
0.0
  0
LINE
  5
52
330
14D
100
AcDbEntity
  8
1
  6
DASHDOT
 62
     3
100
AcDbLine
 10
268.925
 20
148.5
 30
0.0
 11
279.925
 21
148.5
 31
0.0
  0
LINE
  5
53
330
14D
100
AcDbEntity
  8
1
  6
CENTER
 62
     3
100
AcDbLine
 10
271.925
 20
151.5
 30
0.0
 11
271.925
 21
132.0
 31
0.0
  0
LINE
  5
54
330
14D
100
AcDbEntity
  8
1
 62
     7
100
AcDbLine
 10
256.225
 20
124.55
 30
0.0
 11
256.225
 21
136.05
 31
0.0
  0
LINE
  5
55
330
14D
100
AcDbEntity
  8
1
 62
     7
100
AcDbLine
 10
256.225
 20
124.55
 30
0.0
 11
262.675
 21
124.55
 31
0.0
  0
LINE
  5
56
330
14D
100
AcDbEntity
  8
1
 62
     7
100
AcDbLine
 10
256.625
 20
124.55
 30
0.0
 11
256.625
 21
136.05
 31
0.0
  0
LINE
  5
57
330
14D
100
AcDbEntity
  8
1
 62
     7
100
AcDbLine
 10
254.325
 20
136.05
 30
0.0
 11
256.625
 21
136.05
 31
0.0
  0
LINE
  5
58
330
14D
100
AcDbEntity
  8
1
 62
     7
100
AcDbLine
 10
256.625
 20
135.7499999999998
 30
0.0
 11
256.225
 21
135.7499999999998
 31
0.0
  0
LINE
  5
59
330
14D
100
AcDbEntity
  8
1
 62
     7
100
AcDbLine
 10
256.625
 20
129.4999999999998
 30
0.0
 11
256.225
 21
129.4999999999998
 31
0.0
  0
LINE
  5
5A
330
14D
100
AcDbEntity
  8
1
 62
     7
100
AcDbLine
 10
262.675
 20
132.3499999999999
 30
0.0
 11
261.8249999999999
 21
133.1999999999999
 31
0.0
  0
LINE
  5
5B
330
14D
100
AcDbEntity
  8
1
 62
     7
100
AcDbLine
 10
261.225
 20
130.4999999999998
 30
0.0
 11
261.225
 21
124.55
 31
0.0
  0
LINE
  5
5C
330
14D
100
AcDbEntity
  8
1
 62
     7
100
AcDbLine
 10
256.625
 20
130.4999999999998
 30
0.0
 11
262.675
 21
130.4999999999998
 31
0.0
  0
LINE
  5
5D
330
14D
100
AcDbEntity
  8
1
 62
     7
100
AcDbLine
 10
261.8249999999999
 20
137.5
 30
0.0
 11
254.325
 21
137.5
 31
0.0
  0
LINE
  5
5E
330
14D
100
AcDbEntity
  8
1
 62
     7
100
AcDbLine
 10
256.225
 20
135.4999999999998
 30
0.0
 11
236.8249999999999
 21
135.4999999999998
 31
0.0
  0
LINE
  5
5F
330
14D
100
AcDbEntity
  8
1
 62
     7
100
AcDbLine
 10
236.8249999999999
 20
134.8999999999998
 30
0.0
 11
235.475
 21
134.8999999999998
 31
0.0
  0
LINE
  5
60
330
14D
100
AcDbEntity
  8
1
 62
     7
100
AcDbLine
 10
235.475
 20
135.4999999999998
 30
0.0
 11
232.6249999999999
 21
135.4999999999998
 31
0.0
  0
LINE
  5
61
330
14D
100
AcDbEntity
  8
1
 62
     7
100
AcDbLine
 10
239.65
 20
175.0
 30
0.0
 11
239.65
 21
195.0
 31
0.0
  0
LINE
  5
62
330
14D
100
AcDbEntity
  8
1
 62
     7
100
AcDbLine
 10
241.4
 20
175.0
 30
0.0
 11
241.4
 21
195.0
 31
0.0
  0
LINE
  5
63
330
14D
100
AcDbEntity
  8
1
  6
DASHDOT
 62
     3
100
AcDbLine
 10
187.375
 20
148.5
 30
0.0
 11
190.375
 21
148.5
 31
0.0
  0
LINE
  5
64
330
14D
100
AcDbEntity
  8
1
 62
     7
100
AcDbLine
 10
143.0749999999999
 20
122.0
 30
0.0
 11
143.0749999999999
 21
175.0
 31
0.0
  0
LINE
  5
65
330
14D
100
AcDbEntity
  8
1
 62
     7
100
AcDbLine
 10
151.8499999999999
 20
175.0
 30
0.0
 11
151.8499999999999
 21
195.0
 31
0.0
  0
LINE
  5
66
330
14D
100
AcDbEntity
  8
1
 62
     7
100
AcDbLine
 10
173.125
 20
174.0
 30
0.0
 11
145.4749999999999
 21
174.0
 31
0.0
  0
LINE
  5
67
330
14D
100
AcDbEntity
  8
1
 62
     7
100
AcDbLine
 10
173.125
 20
123.0
 30
0.0
 11
145.4749999999999
 21
123.0
 31
0.0
  0
LINE
  5
68
330
14D
100
AcDbEntity
  8
1
 62
     7
100
AcDbLine
 10
173.125
 20
123.0
 30
0.0
 11
173.125
 21
174.0
 31
0.0
  0
LINE
  5
69
330
14D
100
AcDbEntity
  8
1
 62
     7
100
AcDbLine
 10
145.4749999999999
 20
123.0
 30
0.0
 11
145.4749999999999
 21
174.0
 31
0.0
  0
LINE
  5
6A
330
14D
100
AcDbEntity
  8
1
 62
     7
100
AcDbLine
 10
150.0999999999999
 20
195.0
 30
0.0
 11
151.8499999999999
 21
195.0
 31
0.0
  0
LINE
  5
6B
330
14D
100
AcDbEntity
  8
1
 62
     7
100
AcDbLine
 10
150.0999999999999
 20
175.0
 30
0.0
 11
150.0999999999999
 21
195.0
 31
0.0
  0
LINE
  5
6C
330
14D
100
AcDbEntity
  8
1
 62
     7
100
AcDbLine
 10
148.475
 20
175.0
 30
0.0
 11
153.475
 21
175.0
 31
0.0
  0
LINE
  5
6D
330
14D
100
AcDbEntity
  8
1
 62
     7
100
AcDbLine
 10
153.9749999999999
 20
174.5
 30
0.0
 11
153.475
 21
175.0
 31
0.0
  0
LINE
  5
6E
330
14D
100
AcDbEntity
  8
1
 62
     7
100
AcDbLine
 10
153.9749999999999
 20
174.0
 30
0.0
 11
153.9749999999999
 21
174.5
 31
0.0
  0
LINE
  5
6F
330
14D
100
AcDbEntity
  8
1
 62
     7
100
AcDbLine
 10
147.9749999999999
 20
174.5
 30
0.0
 11
147.9749999999999
 21
174.0
 31
0.0
  0
LINE
  5
70
330
14D
100
AcDbEntity
  8
1
 62
     7
100
AcDbLine
 10
148.475
 20
175.0
 30
0.0
 11
147.9749999999999
 21
174.5
 31
0.0
  0
LINE
  5
71
330
14D
100
AcDbEntity
  8
1
 62
     7
100
AcDbLine
 10
344.2249999999999
 20
195.0
 30
0.0
 11
347.725
 21
195.0
 31
0.0
  0
LINE
  5
72
330
14D
100
AcDbEntity
  8
1
 62
     7
100
AcDbLine
 10
344.2249999999999
 20
175.0
 30
0.0
 11
344.2249999999999
 21
195.0
 31
0.0
  0
LINE
  5
73
330
14D
100
AcDbEntity
  8
1
 62
     7
100
AcDbLine
 10
345.9749999999999
 20
175.0
 30
0.0
 11
345.9749999999999
 21
195.0
 31
0.0
  0
LINE
  5
74
330
14D
100
AcDbEntity
  8
1
 62
     7
100
AcDbLine
 10
347.7249999999998
 20
175.0
 30
0.0
 11
347.725
 21
195.0
 31
0.0
  0
LINE
  5
75
330
14D
100
AcDbEntity
  8
1
 62
     3
100
AcDbLine
 10
346.5149999999999
 20
195.0
 30
0.0
 11
346.5149999999999
 21
198.0
 31
0.0
  0
LINE
  5
76
330
14D
100
AcDbEntity
  8
1
 62
     3
100
AcDbLine
 10
347.1849999999998
 20
198.0
 30
0.0
 11
347.1849999999998
 21
195.0
 31
0.0
  0
LINE
  5
77
330
14D
100
AcDbEntity
  8
1
 62
     3
100
AcDbLine
 10
344.7649999999999
 20
195.0
 30
0.0
 11
344.7649999999999
 21
198.0
 31
0.0
  0
LINE
  5
78
330
14D
100
AcDbEntity
  8
1
 62
     3
100
AcDbLine
 10
345.4350000000001
 20
198.0
 30
0.0
 11
345.4349999999998
 21
195.0
 31
0.0
  0
LINE
  5
79
330
14D
100
AcDbEntity
  8
1
 62
     3
100
AcDbLine
 10
150.64
 20
195.0
 30
0.0
 11
150.64
 21
198.0
 31
0.0
  0
LINE
  5
7A
330
14D
100
AcDbEntity
  8
1
 62
     3
100
AcDbLine
 10
151.31
 20
198.0
 30
0.0
 11
151.31
 21
195.0
 31
0.0
  0
LINE
  5
7B
330
14D
100
AcDbEntity
  8
1
 62
     7
100
AcDbLine
 10
348.9749999999999
 20
174.5
 30
0.0
 11
342.9749999999998
 21
174.5
 31
0.0
  0
LINE
  5
7C
330
14D
100
AcDbEntity
  8
1
 62
     7
100
AcDbLine
 10
342.9749999999998
 20
174.5
 30
0.0
 11
343.4749999999999
 21
175.0
 31
0.0
  0
LINE
  5
7D
330
14D
100
AcDbEntity
  8
1
 62
     7
100
AcDbLine
 10
342.9749999999998
 20
174.0
 30
0.0
 11
342.9749999999998
 21
174.5
 31
0.0
  0
LINE
  5
7E
330
14D
100
AcDbEntity
  8
1
 62
     7
100
AcDbLine
 10
348.9749999999999
 20
174.5
 30
0.0
 11
348.9749999999999
 21
174.0
 31
0.0
  0
LINE
  5
7F
330
14D
100
AcDbEntity
  8
1
 62
     7
100
AcDbLine
 10
348.4749999999999
 20
175.0
 30
0.0
 11
348.9749999999999
 21
174.5
 31
0.0
  0
LINE
  5
80
330
14D
100
AcDbEntity
  8
1
  6
DASHDOT
 62
     3
100
AcDbLine
 10
140.0749999999999
 20
148.5
 30
0.0
 11
143.0749999999999
 21
148.5
 31
0.0
  0
LINE
  5
81
330
14D
100
AcDbEntity
  8
1
 62
     7
100
AcDbLine
 10
144.4749999999999
 20
124.0
 30
0.0
 11
145.4749999999999
 21
123.0
 31
0.0
  0
LINE
  5
82
330
14D
100
AcDbEntity
  8
1
 62
     7
100
AcDbLine
 10
145.4749999999999
 20
174.0
 30
0.0
 11
144.4749999999999
 21
173.0
 31
0.0
  0
LINE
  5
83
330
14D
100
AcDbEntity
  8
1
 62
     7
100
AcDbLine
 10
144.4749999999999
 20
175.0
 30
0.0
 11
144.4749999999999
 21
122.0
 31
0.0
  0
LINE
  5
84
330
14D
100
AcDbEntity
  8
1
 62
     7
100
AcDbLine
 10
144.4749999999999
 20
175.0
 30
0.0
 11
143.0749999999999
 21
175.0
 31
0.0
  0
LINE
  5
85
330
14D
100
AcDbEntity
  8
1
 62
     7
100
AcDbLine
 10
143.0749999999999
 20
122.0
 30
0.0
 11
144.4749999999999
 21
122.0
 31
0.0
  0
LINE
  5
86
330
14D
100
AcDbEntity
  8
1
 62
     7
100
AcDbLine
 10
371.4369814625649
 20
175.0
 30
0.0
 11
320.5130185374351
 21
175.0
 31
0.0
  0
LINE
  5
87
330
14D
100
AcDbEntity
  8
1
 62
     7
100
AcDbLine
 10
319.4749999999999
 20
173.9619814625648
 30
0.0
 11
319.4749999999999
 21
123.0380185374351
 31
0.0
  0
LINE
  5
88
330
14D
100
AcDbEntity
  8
1
 62
     7
100
AcDbLine
 10
320.5130185374351
 20
122.0
 30
0.0
 11
371.4369814625649
 21
122.0
 31
0.0
  0
LINE
  5
89
330
14D
100
AcDbEntity
  8
1
 62
     7
100
AcDbLine
 10
372.4749999999998
 20
123.0380185374351
 30
0.0
 11
372.4749999999998
 21
173.9619814625648
 31
0.0
  0
LINE
  5
8A
330
14D
100
AcDbEntity
  8
1
 62
     7
100
AcDbLine
 10
177.475
 20
128.2249999999999
 30
0.0
 11
177.475
 21
123.9749999999999
 31
0.0
  0
LINE
  5
8B
330
14D
100
AcDbEntity
  8
1
 62
     7
100
AcDbLine
 10
177.475
 20
128.2249999999999
 30
0.0
 11
176.675
 21
128.2249999999999
 31
0.0
  0
LINE
  5
8C
330
14D
100
AcDbEntity
  8
1
 62
     7
100
AcDbLine
 10
177.475
 20
123.9749999999999
 30
0.0
 11
176.675
 21
123.9749999999999
 31
0.0
  0
LINE
  5
8D
330
14D
100
AcDbEntity
  8
1
 62
     7
100
AcDbLine
 10
173.375
 20
174.15
 30
0.0
 11
176.3749999999999
 21
174.15
 31
0.0
  0
LINE
  5
8E
330
14D
100
AcDbEntity
  8
1
 62
     7
100
AcDbLine
 10
176.3749999999999
 20
122.8499999999998
 30
0.0
 11
173.375
 21
122.8499999999998
 31
0.0
  0
LINE
  5
8F
330
14D
100
AcDbEntity
  8
1
 62
     7
100
AcDbLine
 10
173.375
 20
122.8499999999998
 30
0.0
 11
173.375
 21
174.15
 31
0.0
  0
LINE
  5
90
330
14D
100
AcDbEntity
  8
1
 62
     7
100
AcDbLine
 10
176.3749999999999
 20
173.5
 30
0.0
 11
176.675
 21
173.5
 31
0.0
  0
LINE
  5
91
330
14D
100
AcDbEntity
  8
1
 62
     7
100
AcDbLine
 10
176.675
 20
123.5
 30
0.0
 11
176.3749999999999
 21
123.5
 31
0.0
  0
LINE
  5
92
330
14D
100
AcDbEntity
  8
1
 62
     7
100
AcDbLine
 10
176.675
 20
164.0
 30
0.0
 11
187.375
 21
164.0
 31
0.0
  0
LINE
  5
93
330
14D
100
AcDbEntity
  8
1
 62
     7
100
AcDbLine
 10
187.375
 20
164.0
 30
0.0
 11
187.375
 21
133.0
 31
0.0
  0
LINE
  5
94
330
14D
100
AcDbEntity
  8
1
 62
     7
100
AcDbLine
 10
187.375
 20
133.0
 30
0.0
 11
176.675
 21
133.0
 31
0.0
  0
LINE
  5
95
330
14D
100
AcDbEntity
  8
1
 62
     7
100
AcDbLine
 10
343.9749999999999
 20
153.0825756949558
 30
0.0
 11
343.9749999999999
 21
155.0
 31
0.0
  0
LINE
  5
96
330
14D
100
AcDbEntity
  8
1
 62
     7
100
AcDbLine
 10
343.9749999999999
 20
155.0
 30
0.0
 11
347.9749999999999
 21
155.0
 31
0.0
  0
LINE
  5
97
330
14D
100
AcDbEntity
  8
1
 62
     7
100
AcDbLine
 10
347.9749999999999
 20
155.0
 30
0.0
 11
347.9749999999999
 21
153.0825756949558
 31
0.0
  0
LINE
  5
98
330
14D
100
AcDbEntity
  8
1
 62
     7
100
AcDbLine
 10
176.3749999999999
 20
174.15
 30
0.0
 11
176.3749999999999
 21
122.8499999999998
 31
0.0
  0
LINE
  5
99
330
14D
100
AcDbEntity
  8
1
 62
     7
100
AcDbLine
 10
176.675
 20
173.5
 30
0.0
 11
176.675
 21
123.5
 31
0.0
  0
LINE
  5
9A
330
14D
100
AcDbEntity
  8
1
 62
     7
100
AcDbLine
 10
348.9749999999999
 20
164.5078105935821
 30
0.0
 11
348.9749999999999
 21
166.8695400051281
 31
0.0
  0
LINE
  5
9B
330
14D
100
AcDbEntity
  8
1
 62
     7
100
AcDbLine
 10
342.9749999999998
 20
166.8695400051281
 30
0.0
 11
342.9749999999998
 21
164.5078105935821
 31
0.0
  0
LINE
  5
9C
330
14D
100
AcDbEntity
  8
1
 62
     7
100
AcDbLine
 10
328.5665116997244
 20
141.9133062087892
 30
0.0
 11
330.6118293669882
 21
143.0941709145623
 31
0.0
  0
LINE
  5
9D
330
14D
100
AcDbEntity
  8
1
 62
     7
100
AcDbLine
 10
333.6118293669882
 20
137.8980184918555
 30
0.0
 11
331.5665116997242
 21
136.7171537860827
 31
0.0
  0
LINE
  5
9E
330
14D
100
AcDbEntity
  8
1
 62
     7
100
AcDbLine
 10
361.3381706330116
 20
143.0941709145623
 30
0.0
 11
363.3834883002754
 21
141.9133062087892
 31
0.0
  0
LINE
  5
9F
330
14D
100
AcDbEntity
  8
1
 62
     7
100
AcDbLine
 10
358.3381706330115
 20
137.8980184918555
 30
0.0
 11
360.3834883002754
 21
136.7171537860827
 31
0.0
  0
LINE
  5
A0
330
14D
100
AcDbEntity
  8
1
 62
     7
100
AcDbLine
 10
235.0249999999999
 20
174.0
 30
0.0
 11
262.675
 21
174.0
 31
0.0
  0
LINE
  5
A1
330
14D
100
AcDbEntity
  8
1
 62
     7
100
AcDbLine
 10
266.225
 20
157.0
 30
0.0
 11
262.925
 21
157.0
 31
0.0
  0
LINE
  5
A2
330
14D
100
AcDbEntity
  8
1
 62
     7
100
AcDbLine
 10
266.225
 20
123.5
 30
0.0
 11
266.225
 21
124.45
 31
0.0
  0
LINE
  5
A3
330
14D
100
AcDbEntity
  8
1
 62
     7
100
AcDbLine
 10
266.225
 20
173.5
 30
0.0
 11
266.225
 21
162.5
 31
0.0
  0
LINE
  5
A4
330
14D
100
AcDbEntity
  8
1
 62
     7
100
AcDbLine
 10
265.925
 20
174.15
 30
0.0
 11
265.925
 21
157.0
 31
0.0
  0
LINE
  5
A5
330
14D
100
AcDbEntity
  8
1
 62
     3
100
AcDbLine
 10
273.5459999999999
 20
158.4999999999998
 30
0.0
 11
276.9249999999999
 21
158.4999999999998
 31
0.0
  0
LINE
  5
A6
330
14D
100
AcDbEntity
  8
1
 62
     3
100
AcDbLine
 10
273.5459999999999
 20
162.5
 30
0.0
 11
276.9249999999999
 21
162.5
 31
0.0
  0
LINE
  5
A7
330
14D
100
AcDbEntity
  8
1
 62
     7
100
AcDbLine
 10
262.925
 20
153.0825756949558
 30
0.0
 11
276.9249999999999
 21
153.0825756949558
 31
0.0
  0
LINE
  5
A8
330
14D
100
AcDbEntity
  8
1
 62
     7
100
AcDbLine
 10
262.925
 20
155.0
 30
0.0
 11
276.9249999999999
 21
155.0
 31
0.0
  0
LINE
  5
A9
330
14D
100
AcDbEntity
  8
1
 62
     7
100
AcDbLine
 10
276.9249999999999
 20
133.0
 30
0.0
 11
266.225
 21
133.0
 31
0.0
  0
LINE
  5
AA
330
14D
100
AcDbEntity
  8
1
 62
     7
100
AcDbLine
 10
276.9249999999999
 20
164.0
 30
0.0
 11
276.9249999999999
 21
153.0825756949558
 31
0.0
  0
LINE
  5
AB
330
14D
100
AcDbEntity
  8
1
 62
     7
100
AcDbLine
 10
266.225
 20
164.0
 30
0.0
 11
276.9249999999999
 21
164.0
 31
0.0
  0
LINE
  5
AC
330
14D
100
AcDbEntity
  8
1
 62
     7
100
AcDbLine
 10
266.225
 20
123.5
 30
0.0
 11
265.925
 21
123.5
 31
0.0
  0
LINE
  5
AD
330
14D
100
AcDbEntity
  8
1
 62
     7
100
AcDbLine
 10
265.925
 20
173.5
 30
0.0
 11
266.225
 21
173.5
 31
0.0
  0
LINE
  5
AE
330
14D
100
AcDbEntity
  8
1
 62
     7
100
AcDbLine
 10
265.925
 20
164.7
 30
0.0
 11
262.925
 21
164.7
 31
0.0
  0
LINE
  5
AF
330
14D
100
AcDbEntity
  8
1
 62
     7
100
AcDbLine
 10
262.925
 20
122.8499999999998
 30
0.0
 11
262.925
 21
137.5
 31
0.0
  0
LINE
  5
B0
330
14D
100
AcDbEntity
  8
1
 62
     7
100
AcDbLine
 10
265.925
 20
122.8499999999998
 30
0.0
 11
262.925
 21
122.8499999999998
 31
0.0
  0
LINE
  5
B1
330
14D
100
AcDbEntity
  8
1
 62
     7
100
AcDbLine
 10
262.925
 20
174.15
 30
0.0
 11
265.925
 21
174.15
 31
0.0
  0
LINE
  5
B2
330
14D
100
AcDbEntity
  8
1
 62
     7
100
AcDbLine
 10
265.625
 20
164.0
 30
0.0
 11
264.9459756742507
 21
164.0
 31
0.0
  0
LINE
  5
B3
330
14D
100
AcDbEntity
  8
1
 62
     7
100
AcDbLine
 10
266.225
 20
158.4999999999998
 30
0.0
 11
265.925
 21
158.4999999999998
 31
0.0
  0
LINE
  5
B4
330
14D
100
AcDbEntity
  8
1
 62
     7
100
AcDbLine
 10
273.925
 20
158.8789999999999
 30
0.0
 11
273.5459999999999
 21
158.4999999999998
 31
0.0
  0
LINE
  5
B5
330
14D
100
AcDbEntity
  8
1
 62
     7
100
AcDbLine
 10
273.925
 20
162.121
 30
0.0
 11
273.925
 21
158.8789999999999
 31
0.0
  0
LINE
  5
B6
330
14D
100
AcDbEntity
  8
1
 62
     7
100
AcDbLine
 10
266.225
 20
162.5
 30
0.0
 11
273.5459999999999
 21
162.5
 31
0.0
  0
LINE
  5
B7
330
14D
100
AcDbEntity
  8
1
 62
     7
100
AcDbLine
 10
273.5459999999999
 20
162.5
 30
0.0
 11
273.5459999999999
 21
158.4999999999998
 31
0.0
  0
LINE
  5
B8
330
14D
100
AcDbEntity
  8
1
 62
     7
100
AcDbLine
 10
267.4642304845414
 20
162.5
 30
0.0
 11
267.4642304845414
 21
158.4999999999998
 31
0.0
  0
LINE
  5
B9
330
14D
100
AcDbEntity
  8
1
 62
     3
100
AcDbLine
 10
267.4642304845414
 20
158.8789999999999
 30
0.0
 11
273.925
 21
158.8789999999999
 31
0.0
  0
LINE
  5
BA
330
14D
100
AcDbEntity
  8
1
 62
     3
100
AcDbLine
 10
267.4642304845414
 20
162.121
 30
0.0
 11
273.925
 21
162.121
 31
0.0
  0
LINE
  5
BB
330
14D
100
AcDbEntity
  8
1
 62
     7
100
AcDbLine
 10
273.5459999999999
 20
158.4999999999998
 30
0.0
 11
266.225
 21
158.4999999999998
 31
0.0
  0
LINE
  5
BC
330
14D
100
AcDbEntity
  8
1
 62
     7
100
AcDbLine
 10
265.925
 20
162.5
 30
0.0
 11
266.225
 21
162.5
 31
0.0
  0
LINE
  5
BD
330
14D
100
AcDbEntity
  8
1
 62
     7
100
AcDbLine
 10
273.925
 20
158.8789999999999
 30
0.0
 11
276.9249999999999
 21
158.8789999999999
 31
0.0
  0
LINE
  5
BE
330
14D
100
AcDbEntity
  8
1
 62
     7
100
AcDbLine
 10
273.925
 20
162.121
 30
0.0
 11
276.9249999999999
 21
162.121
 31
0.0
  0
LINE
  5
BF
330
14D
100
AcDbEntity
  8
1
 62
     7
100
AcDbLine
 10
266.225
 20
158.4999999999998
 30
0.0
 11
266.225
 21
157.0
 31
0.0
  0
LINE
  5
C0
330
14D
100
AcDbEntity
  8
1
 62
     7
100
AcDbLine
 10
267.0250000000001
 20
123.9749999999999
 30
0.0
 11
266.225
 21
123.9749999999999
 31
0.0
  0
LINE
  5
C1
330
14D
100
AcDbEntity
  8
1
 62
     7
100
AcDbLine
 10
267.0250000000001
 20
128.2249999999999
 30
0.0
 11
266.225
 21
128.2249999999999
 31
0.0
  0
LINE
  5
C2
330
14D
100
AcDbEntity
  8
1
 62
     7
100
AcDbLine
 10
267.0250000000001
 20
128.2249999999999
 30
0.0
 11
267.0250000000001
 21
123.9749999999999
 31
0.0
  0
LINE
  5
C3
330
14D
100
AcDbEntity
  8
1
 62
     7
100
AcDbLine
 10
236.8249999999999
 20
162.0999999999999
 30
0.0
 11
236.8249999999999
 21
161.5
 31
0.0
  0
LINE
  5
C4
330
14D
100
AcDbEntity
  8
1
 62
     7
100
AcDbLine
 10
236.8249999999999
 20
161.5
 30
0.0
 11
256.225
 21
161.5
 31
0.0
  0
LINE
  5
C5
330
14D
100
AcDbEntity
  8
1
 62
     7
100
AcDbLine
 10
235.475
 20
162.0999999999999
 30
0.0
 11
236.8249999999999
 21
162.0999999999999
 31
0.0
  0
LINE
  5
C6
330
14D
100
AcDbEntity
  8
1
 62
     7
100
AcDbLine
 10
232.6249999999999
 20
161.5
 30
0.0
 11
235.475
 21
161.5
 31
0.0
  0
LINE
  5
C7
330
14D
100
AcDbEntity
  8
1
 62
     7
100
AcDbLine
 10
232.6249999999999
 20
122.0
 30
0.0
 11
234.025
 21
122.0
 31
0.0
  0
LINE
  5
C8
330
14D
100
AcDbEntity
  8
1
 62
     7
100
AcDbLine
 10
232.6249999999999
 20
175.0
 30
0.0
 11
232.6249999999999
 21
161.5
 31
0.0
  0
LINE
  5
C9
330
14D
100
AcDbEntity
  8
1
 62
     7
100
AcDbLine
 10
234.025
 20
175.0
 30
0.0
 11
232.6249999999999
 21
175.0
 31
0.0
  0
LINE
  5
CA
330
14D
100
AcDbEntity
  8
1
 62
     7
100
AcDbLine
 10
234.025
 20
175.0
 30
0.0
 11
234.025
 21
161.5
 31
0.0
  0
LINE
  5
CB
330
14D
100
AcDbEntity
  8
1
 62
     7
100
AcDbLine
 10
235.0249999999999
 20
174.0
 30
0.0
 11
234.025
 21
173.0
 31
0.0
  0
LINE
  5
CC
330
14D
100
AcDbEntity
  8
1
 62
     7
100
AcDbLine
 10
234.025
 20
124.0
 30
0.0
 11
235.0249999999999
 21
123.0
 31
0.0
  0
LINE
  5
CD
330
14D
100
AcDbEntity
  8
1
  6
DASHDOT
 62
     3
100
AcDbLine
 10
229.625
 20
148.5
 30
0.0
 11
232.6249999999999
 21
148.5
 31
0.0
  0
LINE
  5
CE
330
14D
100
AcDbEntity
  8
1
 62
     3
100
AcDbLine
 10
240.86
 20
198.0
 30
0.0
 11
240.86
 21
195.0
 31
0.0
  0
LINE
  5
CF
330
14D
100
AcDbEntity
  8
1
 62
     3
100
AcDbLine
 10
240.1899999999999
 20
195.0
 30
0.0
 11
240.1899999999999
 21
198.0
 31
0.0
  0
LINE
  5
D0
330
14D
100
AcDbEntity
  8
1
 62
     7
100
AcDbLine
 10
238.025
 20
175.0
 30
0.0
 11
237.525
 21
174.5
 31
0.0
  0
LINE
  5
D1
330
14D
100
AcDbEntity
  8
1
 62
     7
100
AcDbLine
 10
237.525
 20
174.5
 30
0.0
 11
237.525
 21
174.0
 31
0.0
  0
LINE
  5
D2
330
14D
100
AcDbEntity
  8
1
 62
     7
100
AcDbLine
 10
243.5249999999999
 20
174.0
 30
0.0
 11
243.5249999999999
 21
174.5
 31
0.0
  0
LINE
  5
D3
330
14D
100
AcDbEntity
  8
1
 62
     7
100
AcDbLine
 10
243.5249999999999
 20
174.5
 30
0.0
 11
243.025
 21
175.0
 31
0.0
  0
LINE
  5
D4
330
14D
100
AcDbEntity
  8
1
 62
     7
100
AcDbLine
 10
238.025
 20
175.0
 30
0.0
 11
243.025
 21
175.0
 31
0.0
  0
LINE
  5
D5
330
14D
100
AcDbEntity
  8
1
 62
     7
100
AcDbLine
 10
239.65
 20
195.0
 30
0.0
 11
241.4
 21
195.0
 31
0.0
  0
LINE
  5
D6
330
14D
100
AcDbEntity
  8
1
 62
     7
100
AcDbLine
 10
235.475
 20
162.0999999999999
 30
0.0
 11
235.475
 21
161.5
 31
0.0
  0
LINE
  5
D7
330
14D
100
AcDbEntity
  8
1
 62
     7
100
AcDbLine
 10
256.225
 20
167.5
 30
0.0
 11
256.625
 21
167.5
 31
0.0
  0
LINE
  5
D8
330
14D
100
AcDbEntity
  8
1
 62
     7
100
AcDbLine
 10
256.225
 20
161.25
 30
0.0
 11
256.625
 21
161.25
 31
0.0
  0
LINE
  5
D9
330
14D
100
AcDbEntity
  8
1
 62
     7
100
AcDbLine
 10
256.225
 20
160.9499999999999
 30
0.0
 11
256.225
 21
172.4499999999999
 31
0.0
  0
LINE
  5
DA
330
14D
100
AcDbEntity
  8
1
 62
     7
100
AcDbLine
 10
254.325
 20
159.4999999999998
 30
0.0
 11
261.8249999999999
 21
159.4999999999998
 31
0.0
  0
LINE
  5
DB
330
14D
100
AcDbEntity
  8
1
 62
     7
100
AcDbLine
 10
261.8249999999999
 20
163.8
 30
0.0
 11
262.675
 21
164.65
 31
0.0
  0
LINE
  5
DC
330
14D
100
AcDbEntity
  8
1
 62
     7
100
AcDbLine
 10
261.8249999999999
 20
163.8
 30
0.0
 11
261.8249999999999
 21
159.4999999999998
 31
0.0
  0
LINE
  5
DD
330
14D
100
AcDbEntity
  8
1
 62
     7
100
AcDbLine
 10
254.325
 20
160.9499999999999
 30
0.0
 11
254.325
 21
159.4999999999998
 31
0.0
  0
LINE
  5
DE
330
14D
100
AcDbEntity
  8
1
 62
     7
100
AcDbLine
 10
256.625
 20
160.9499999999999
 30
0.0
 11
254.325
 21
160.9499999999999
 31
0.0
  0
LINE
  5
DF
330
14D
100
AcDbEntity
  8
1
 62
     7
100
AcDbLine
 10
256.625
 20
160.9499999999999
 30
0.0
 11
256.625
 21
172.4499999999999
 31
0.0
  0
LINE
  5
E0
330
14D
100
AcDbEntity
  8
1
 62
     7
100
AcDbLine
 10
261.225
 20
172.4499999999999
 30
0.0
 11
261.225
 21
166.5
 31
0.0
  0
LINE
  5
E1
330
14D
100
AcDbEntity
  8
1
 62
     7
100
AcDbLine
 10
262.675
 20
174.0
 30
0.0
 11
262.675
 21
159.4999999999998
 31
0.0
  0
LINE
  5
E2
330
14D
100
AcDbEntity
  8
1
 62
     7
100
AcDbLine
 10
262.675
 20
123.0
 30
0.0
 11
235.0249999999999
 21
123.0
 31
0.0
  0
LINE
  5
E3
330
14D
100
AcDbEntity
  8
1
 62
     7
100
AcDbLine
 10
262.675
 20
166.5
 30
0.0
 11
256.625
 21
166.5
 31
0.0
  0
LINE
  5
E4
330
14D
100
AcDbEntity
  8
1
 62
     7
100
AcDbLine
 10
262.675
 20
172.4499999999999
 30
0.0
 11
256.225
 21
172.4499999999999
 31
0.0
  0
LINE
  5
E5
330
14D
100
AcDbEntity
  8
1
  6
DASHDOT
 62
     3
100
AcDbLine
 10
344.4749999999999
 20
148.5
 30
0.0
 11
347.4749999999998
 21
148.5
 31
0.0
  0
LINE
  5
E6
330
14D
100
AcDbEntity
  8
1
  6
DASHDOT
 62
     3
100
AcDbLine
 10
345.9749999999999
 20
147.0
 30
0.0
 11
345.9749999999999
 21
150.0
 31
0.0
  0
LINE
  5
E7
330
14D
100
AcDbEntity
  8
1
  6
DASHDOT
 62
     3
100
AcDbLine
 10
370.5469606462323
 20
173.0719606462324
 30
0.0
 11
365.9507665685199
 21
168.4757665685199
 31
0.0
  0
LINE
  5
E8
330
14D
100
AcDbEntity
  8
1
  6
DASHDOT
 62
     3
100
AcDbLine
 10
321.4030393537673
 20
173.0719606462324
 30
0.0
 11
325.9992334314799
 21
168.4757665685199
 31
0.0
  0
LINE
  5
E9
330
14D
100
AcDbEntity
  8
1
  6
DASHDOT
 62
     3
100
AcDbLine
 10
321.4030393537673
 20
123.9280393537675
 30
0.0
 11
325.9992334314799
 21
128.52423343148
 31
0.0
  0
LINE
  5
EA
330
14D
100
AcDbEntity
  8
1
  6
DASHDOT
 62
     3
100
AcDbLine
 10
370.5469606462323
 20
123.9280393537675
 30
0.0
 11
365.9507665685199
 21
128.52423343148
 31
0.0
  0
LINE
  5
EB
330
14D
100
AcDbEntity
  8
1
 62
     7
100
AcDbLine
 10
177.475
 20
161.8249999999999
 30
0.0
 11
177.475
 21
157.575
 31
0.0
  0
LINE
  5
EC
330
14D
100
AcDbEntity
  8
1
 62
     7
100
AcDbLine
 10
177.475
 20
161.8249999999999
 30
0.0
 11
176.675
 21
161.8249999999999
 31
0.0
  0
LINE
  5
ED
330
14D
100
AcDbEntity
  8
1
 62
     7
100
AcDbLine
 10
177.475
 20
157.575
 30
0.0
 11
176.675
 21
157.575
 31
0.0
  0
LINE
  5
EE
330
14D
100
AcDbEntity
  8
1
 62
     7
100
AcDbLine
 10
265.925
 20
127.75
 30
0.0
 11
266.225
 21
127.75
 31
0.0
  0
LINE
  5
EF
330
14D
100
AcDbEntity
  8
1
 62
     7
100
AcDbLine
 10
265.925
 20
124.45
 30
0.0
 11
266.225
 21
124.45
 31
0.0
  0
LINE
  5
F0
330
14D
100
AcDbEntity
  8
1
 62
     7
100
AcDbLine
 10
266.225
 20
127.75
 30
0.0
 11
266.225
 21
140.0
 31
0.0
  0
LINE
  5
F1
330
14D
100
AcDbEntity
  8
1
 62
     7
100
AcDbLine
 10
265.925
 20
124.45
 30
0.0
 11
265.925
 21
122.8499999999998
 31
0.0
  0
LINE
  5
F2
330
14D
100
AcDbEntity
  8
1
 62
     3
100
AcDbLine
 10
346.8499999999999
 20
195.0
 30
0.0
 11
346.8499999999999
 21
198.0
 31
0.0
  0
LINE
  5
F3
330
14D
100
AcDbEntity
  8
1
 62
     3
100
AcDbLine
 10
345.1000000000005
 20
195.0
 30
0.0
 11
345.1
 21
198.0
 31
0.0
  0
LINE
  5
F4
330
14D
100
AcDbEntity
  8
1
 62
     3
100
AcDbLine
 10
240.525
 20
195.0
 30
0.0
 11
240.525
 21
198.0
 31
0.0
  0
LINE
  5
F5
330
14D
100
AcDbEntity
  8
1
 62
     3
100
AcDbLine
 10
150.9749999999999
 20
195.0
 30
0.0
 11
150.9749999999999
 21
198.0
 31
0.0
  0
ARC
  5
F6
330
14D
100
AcDbEntity
  8
1
 62
     7
100
AcDbCircle
 10
345.9749999999999
 20
148.5
 30
0.0
 40
36.74999999999993
100
AcDbArc
 50
133.8555830586549
 51
136.144416941345
  0
ARC
  5
F7
330
14D
100
AcDbEntity
  8
1
 62
     7
100
AcDbCircle
 10
345.9749999999999
 20
148.5
 30
0.0
 40
36.74999999999999
100
AcDbArc
 50
223.855583058655
 51
226.1444169413451
  0
ARC
  5
F8
330
14D
100
AcDbEntity
  8
1
 62
     7
100
AcDbCircle
 10
345.9749999999988
 20
148.4999999999988
 30
0.0
 40
36.75000000000002
100
AcDbArc
 50
313.8555830586576
 51
316.1444169413476
  0
ARC
  5
F9
330
14D
100
AcDbEntity
  8
1
 62
     7
100
AcDbCircle
 10
345.9749999999985
 20
148.5000000000014
 30
0.0
 40
36.75000000000002
100
AcDbArc
 50
43.85558305865188
 51
46.14441694134177
  0
ARC
  5
FA
330
14D
100
AcDbEntity
  8
1
 62
     7
100
AcDbCircle
 10
345.9749999999999
 20
148.5
 30
0.0
 40
4.999999999999968
100
AcDbArc
 50
113.578178478202
 51
66.42182152179803
  0
ARC
  5
FB
330
14D
100
AcDbEntity
  8
1
 62
     7
100
AcDbCircle
 10
345.9749999999999
 20
148.5
 30
0.0
 40
19.8
100
AcDbArc
 50
342.2844938563478
 51
77.71550614365222
  0
ARC
  5
FC
330
14D
100
AcDbEntity
  8
1
 62
     7
100
AcDbCircle
 10
345.9749999999999
 20
148.5
 30
0.0
 40
19.79999999999993
100
AcDbArc
 50
222.284493856348
 51
317.7155061436523
  0
ARC
  5
FD
330
14D
100
AcDbEntity
  8
1
 62
     7
100
AcDbCircle
 10
345.9749999999999
 20
148.5
 30
0.0
 40
19.80000000000001
100
AcDbArc
 50
102.2844938563478
 51
197.715506143652
  0
ARC
  5
FE
330
14D
100
AcDbEntity
  8
1
 62
     7
100
AcDbCircle
 10
272.3249999999999
 20
160.4999999999998
 30
0.0
 40
9.000000000000008
100
AcDbArc
 50
163.3984504009795
 51
196.6015495990197
  0
ARC
  5
FF
330
14D
100
AcDbEntity
  8
1
  6
DASHDOT
 62
     3
100
AcDbCircle
 10
345.9749999999999
 20
148.5
 30
0.0
 40
31.50000000000002
100
AcDbArc
 50
39.08590555754551
 51
50.91409444245449
  0
ARC
  5
100
330
14D
100
AcDbEntity
  8
1
  6
DASHDOT
 62
     3
100
AcDbCircle
 10
345.9749999999999
 20
148.5
 30
0.0
 40
31.50000000000002
100
AcDbArc
 50
129.0859055575455
 51
140.9140944424544
  0
ARC
  5
101
330
14D
100
AcDbEntity
  8
1
  6
DASHDOT
 62
     3
100
AcDbCircle
 10
345.9749999999999
 20
148.5
 30
0.0
 40
31.50000000000002
100
AcDbArc
 50
219.0859055575455
 51
230.9140944424544
  0
ARC
  5
102
330
14D
100
AcDbEntity
  8
1
  6
DASHDOT
 62
     3
100
AcDbCircle
 10
345.9749999999999
 20
148.5
 30
0.0
 40
31.49999999999996
100
AcDbArc
 50
309.0859055575452
 51
320.9140944424543
  0
ARC
  5
103
330
14D
100
AcDbEntity
  8
1
 62
     7
100
AcDbCircle
 10
341.9749999999999
 20
166.8695400051281
 30
0.0
 40
1.0
100
AcDbArc
 50
0.0
 51
102.2844938563497
  0
ARC
  5
104
330
14D
100
AcDbEntity
  8
1
 62
     7
100
AcDbCircle
 10
341.9749999999999
 20
164.5078105935821
 30
0.0
 40
1.000000000000031
100
AcDbArc
 50
284.029665401292
 51
0.0
  0
ARC
  5
105
330
14D
100
AcDbEntity
  8
1
 62
     7
100
AcDbCircle
 10
349.9749999999999
 20
164.5078105935821
 30
0.0
 40
1.0
100
AcDbArc
 50
180.0
 51
255.9703345987141
  0
ARC
  5
106
330
14D
100
AcDbEntity
  8
1
 62
     7
100
AcDbCircle
 10
349.9749999999999
 20
166.8695400051281
 30
0.0
 40
0.9999999999999607
100
AcDbArc
 50
77.7155061436535
 51
180.0
  0
ARC
  5
107
330
14D
100
AcDbEntity
  8
1
 62
     7
100
AcDbCircle
 10
361.8381706330116
 20
143.9601963183467
 30
0.0
 40
0.9999999999997882
100
AcDbArc
 50
164.0296654012854
 51
239.9999999999986
  0
ARC
  5
108
330
14D
100
AcDbEntity
  8
1
 62
     7
100
AcDbCircle
 10
363.8834883002754
 20
142.7793316125735
 30
0.0
 40
0.9999999999999836
100
AcDbArc
 50
239.9999999999995
 51
342.2844938563482
  0
ARC
  5
109
330
14D
100
AcDbEntity
  8
1
 62
     7
100
AcDbCircle
 10
357.8381706330115
 20
137.0319930880712
 30
0.0
 40
0.9999999999999593
100
AcDbArc
 50
59.99999999999864
 51
135.970334598708
  0
ARC
  5
10A
330
14D
100
AcDbEntity
  8
1
 62
     7
100
AcDbCircle
 10
359.8834883002754
 20
135.8511283822982
 30
0.0
 40
0.9999999999999568
100
AcDbArc
 50
317.7155061436592
 51
60.00000000000109
  0
ARC
  5
10B
330
14D
100
AcDbEntity
  8
1
 62
     7
100
AcDbCircle
 10
334.1118293669882
 20
137.0319930880712
 30
0.0
 40
1.000000000000054
100
AcDbArc
 50
44.02966540128728
 51
120.0000000000014
  0
ARC
  5
10C
330
14D
100
AcDbEntity
  8
1
 62
     7
100
AcDbCircle
 10
332.0665116997242
 20
135.8511283822982
 30
0.0
 40
1.000000000000031
100
AcDbArc
 50
119.9999999999988
 51
222.2844938563544
  0
ARC
  5
10D
330
14D
100
AcDbEntity
  8
1
 62
     7
100
AcDbCircle
 10
328.0665116997245
 20
142.7793316125735
 30
0.0
 40
1.000000000000073
100
AcDbArc
 50
197.7155061436508
 51
299.9999999999948
  0
ARC
  5
10E
330
14D
100
AcDbEntity
  8
1
 62
     7
100
AcDbCircle
 10
330.1118293669881
 20
143.9601963183467
 30
0.0
 40
0.9999999999999593
100
AcDbArc
 50
300.0000000000012
 51
15.97033459870478
  0
ARC
  5
10F
330
14D
100
AcDbEntity
  8
1
 62
     7
100
AcDbCircle
 10
264.9459756742507
 20
158.3
 30
0.0
 40
1.299999999999984
100
AcDbArc
 50
196.6015495990176
 51
270.0
  0
ARC
  5
110
330
14D
100
AcDbEntity
  8
1
 62
     7
100
AcDbCircle
 10
264.9459756742507
 20
162.6999999999999
 30
0.0
 40
1.30000000000001
100
AcDbArc
 50
90.0
 51
163.3984504009776
  0
ARC
  5
111
330
14D
100
AcDbEntity
  8
1
 62
     7
100
AcDbCircle
 10
265.625
 20
157.3
 30
0.0
 40
0.3000000000000114
100
AcDbArc
 50
270.0
 51
0.0
  0
ARC
  5
112
330
14D
100
AcDbEntity
  8
1
 62
     7
100
AcDbCircle
 10
265.625
 20
163.7
 30
0.0
 40
0.3000000000000114
100
AcDbArc
 50
0.0
 51
90.0
  0
CIRCLE
  5
113
330
14D
100
AcDbEntity
  8
1
 62
     7
100
AcDbCircle
 10
326.5760309552284
 20
159.6999999999999
 30
0.0
 40
2.124999999999943
  0
CIRCLE
  5
114
330
14D
100
AcDbEntity
  8
1
 62
     7
100
AcDbCircle
 10
365.3739690447713
 20
159.6999999999999
 30
0.0
 40
2.125
  0
CIRCLE
  5
115
330
14D
100
AcDbEntity
  8
1
 62
     7
100
AcDbCircle
 10
356.3673048454132
 20
142.5
 30
0.0
 40
1.621000000000038
  0
CIRCLE
  5
116
330
14D
100
AcDbEntity
  8
1
 62
     7
100
AcDbCircle
 10
335.5826951545866
 20
142.5
 30
0.0
 40
1.621000000000038
  0
CIRCLE
  5
117
330
14D
100
AcDbEntity
  8
1
 62
     7
100
AcDbCircle
 10
345.9749999999999
 20
160.4999999999998
 30
0.0
 40
1.62099999999998
  0
CIRCLE
  5
118
330
14D
100
AcDbEntity
  8
1
 62
     7
100
AcDbCircle
 10
271.925
 20
148.5
 30
0.0
 40
1.62099999999998
  0
CIRCLE
  5
119
330
14D
100
AcDbEntity
  8
1
 62
     3
100
AcDbCircle
 10
271.925
 20
148.5
 30
0.0
 40
2.0
  0
CIRCLE
  5
11A
330
14D
100
AcDbEntity
  8
1
 62
     7
100
AcDbCircle
 10
368.2488636073763
 20
170.7738636073763
 30
0.0
 40
2.25
  0
CIRCLE
  5
11B
330
14D
100
AcDbEntity
  8
1
 62
     7
100
AcDbCircle
 10
323.7011363926238
 20
170.7738636073763
 30
0.0
 40
2.25
  0
CIRCLE
  5
11C
330
14D
100
AcDbEntity
  8
1
 62
     7
100
AcDbCircle
 10
323.7011363926237
 20
126.2261363926238
 30
0.0
 40
2.25
  0
CIRCLE
  5
11D
330
14D
100
AcDbEntity
  8
1
 62
     7
100
AcDbCircle
 10
368.2488636073761
 20
126.2261363926237
 30
0.0
 40
2.25
  0
CIRCLE
  5
11E
330
14D
100
AcDbEntity
  8
1
 62
     7
100
AcDbCircle
 10
345.9749999999999
 20
148.5
 30
0.0
 40
25.64999999999998
  0
CIRCLE
  5
11F
330
14D
100
AcDbEntity
  8
1
 62
     7
100
AcDbCircle
 10
345.9749999999999
 20
148.5
 30
0.0
 40
15.5
  0
CIRCLE
  5
120
330
14D
100
AcDbEntity
  8
1
 62
     3
100
AcDbCircle
 10
345.9749999999999
 20
160.4999999999998
 30
0.0
 40
2.0
  0
CIRCLE
  5
121
330
14D
100
AcDbEntity
  8
1
 62
     7
100
AcDbCircle
 10
345.9749999999999
 20
126.0999999999999
 30
0.0
 40
2.125
  0
CIRCLE
  5
122
330
14D
100
AcDbEntity
  8
1
 62
     3
100
AcDbCircle
 10
335.5826951545866
 20
142.5
 30
0.0
 40
2.0
  0
CIRCLE
  5
123
330
14D
100
AcDbEntity
  8
1
 62
     3
100
AcDbCircle
 10
356.3673048454132
 20
142.5
 30
0.0
 40
2.0
  0
CIRCLE
  5
124
330
14D
100
AcDbEntity
  8
1
 62
     7
100
AcDbCircle
 10
345.9749999999999
 20
148.5
 30
0.0
 40
25.0
  0
TEXT
  5
125
330
14D
100
AcDbEntity
  8
1
 62
     7
100
AcDbText
 10
151.7567073170731
 20
218.554284199364
 30
0.0
 40
3.5
  1
AMB 20
 41
0.9
  7
SIMPLEX
100
AcDbText
  0
ENDSEC
  0
SECTION
  2
OBJECTS
  0
DICTIONARY
  5
139
330
0
100
AcDbDictionary
281
     1
  3
ACAD_COLOR
350
148
  3
ACAD_GROUP
350
13A
  3
ACAD_LAYOUT
350
146
  3
ACAD_MATERIAL
350
147
  3
ACAD_MLINESTYLE
350
143
  3
ACAD_PLOTSETTINGS
350
145
  3
ACAD_PLOTSTYLENAME
350
13B
  0
DICTIONARY
  5
148
102
{ACAD_REACTORS
330
139
102
}
330
139
100
AcDbDictionary
281
     1
  0
DICTIONARY
  5
13A
102
{ACAD_REACTORS
330
139
102
}
330
139
100
AcDbDictionary
281
     1
  0
DICTIONARY
  5
146
102
{ACAD_REACTORS
330
139
102
}
330
139
100
AcDbDictionary
281
     1
  3
Layout1
350
14C
  3
Model
350
150
  0
DICTIONARY
  5
147
102
{ACAD_REACTORS
330
139
102
}
330
139
100
AcDbDictionary
281
     1
  0
DICTIONARY
  5
143
102
{ACAD_REACTORS
330
139
102
}
330
139
100
AcDbDictionary
281
     1
  3
Standard
350
144
  0
DICTIONARY
  5
145
102
{ACAD_REACTORS
330
139
102
}
330
139
100
AcDbDictionary
281
     1
  0
ACDBDICTIONARYWDFLT
  5
13B
102
{ACAD_REACTORS
330
139
102
}
330
139
100
AcDbDictionary
281
     1
  3
Normal
350
13C
100
AcDbDictionaryWithDefault
340
13C
  0
LAYOUT
  5
14C
102
{ACAD_REACTORS
330
146
102
}
330
146
100
AcDbPlotSettings
  1

  2
Microsoft Office Document Image Writer
  4

  6

 40
0.0
 41
0.0
 42
0.0
 43
0.0
 44
0.0
 45
0.0
 46
0.0
 47
0.0
 48
0.0
 49
0.0
140
0.0
141
0.0
142
1.0
143
1.0
 70
   688
 72
     0
 73
     0
 74
     5
  7

 75
    16
147
1.0
 76
     0
 77
     2
 78
   300
148
0.0
149
0.0
100
AcDbLayout
  1
Layout1
 70
     1
 71
     1
 10
0.0
 20
0.0
 11
12.0
 21
9.0
 12
0.0
 22
0.0
 32
0.0
 14
1.000000000000000E+20
 24
1.000000000000000E+20
 34
1.000000000000000E+20
 15
-1.000000000000000E+20
 25
-1.000000000000000E+20
 35
-1.000000000000000E+20
146
0.0
 13
0.0
 23
0.0
 33
0.0
 16
1.0
 26
0.0
 36
0.0
 17
0.0
 27
1.0
 37
0.0
 76
     0
330
149
  0
LAYOUT
  5
150
102
{ACAD_REACTORS
330
146
102
}
330
146
100
AcDbPlotSettings
  1

  2
Microsoft Office Document Image Writer
  4

  6

 40
0.0
 41
0.0
 42
0.0
 43
0.0
 44
0.0
 45
0.0
 46
0.0
 47
0.0
 48
0.0
 49
0.0
140
0.0
141
0.0
142
1.0
143
1.0
 70
  1712
 72
     0
 73
     0
 74
     0
  7

 75
     0
147
1.0
 76
     0
 77
     2
 78
   300
148
0.0
149
0.0
100
AcDbLayout
  1
Model
 70
     1
 71
     0
 10
0.0
 20
0.0
 11
12.0
 21
9.0
 12
0.0
 22
0.0
 32
0.0
 14
0.0
 24
0.0
 34
0.0
 15
0.0
 25
0.0
 35
0.0
146
0.0
 13
0.0
 23
0.0
 33
0.0
 16
1.0
 26
0.0
 36
0.0
 17
0.0
 27
1.0
 37
0.0
 76
     0
330
14D
  0
MLINESTYLE
  5
144
102
{ACAD_REACTORS
330
143
102
}
330
143
100
AcDbMlineStyle
  2
STANDARD
 70
     0
  3

 62
   256
 51
90.0
 52
90.0
 71
     2
 49
0.5
 62
   256
  6
BYLAYER
 49
-0.5
 62
   256
  6
BYLAYER
  0
ACDBPLACEHOLDER
  5
13C
102
{ACAD_REACTORS
330
13B
102
}
330
13B
  0
ENDSEC
  0
EOF
