  0
SECTION
  2
HEADER
  9
$ACADVER
  1
AC1018
  9
$ACADMAINTVER
 70
     0
  9
$DWGCODEPAGE
  3
ANSI_932
  9
$INSBASE
 10
0.0
 20
0.0
 30
0.0
  9
$EXTMIN
 10
150.4187102540615
 20
128.7465822237054
 30
-0.0015258207003583
  9
$EXTMAX
 10
356.5494109431808
 20
212.4961810869667
 30
0.0000000349246037
  9
$LIMMIN
 10
150.425
 20
130.8499999999999
  9
$LIMMAX
 10
352.975
 20
212.4936252130408
  9
$ORTHOMODE
 70
     0
  9
$REGENMODE
 70
     1
  9
$FILLMODE
 70
     1
  9
$QTEXTMODE
 70
     0
  9
$MIRRTEXT
 70
     1
  9
$LTSCALE
 40
1.0
  9
$ATTMODE
 70
     1
  9
$TEXTSIZE
 40
3.5
  9
$TRACEWID
 40
0.5
  9
$TEXTSTYLE
  7
STANDARD
  9
$CLAYER
  8
0
  9
$CELTYPE
  6
ByLayer
  9
$CECOLOR
 62
   256
  9
$CELTSCALE
 40
1.0
  9
$DISPSILH
 70
     0
  9
$DIMSCALE
 40
1.0
  9
$DIMASZ
 40
0.18
  9
$DIMEXO
 40
0.0625
  9
$DIMDLI
 40
0.38
  9
$DIMRND
 40
0.0
  9
$DIMDLE
 40
0.0
  9
$DIMEXE
 40
0.18
  9
$DIMTP
 40
0.0
  9
$DIMTM
 40
0.0
  9
$DIMTXT
 40
0.18
  9
$DIMCEN
 40
0.09
  9
$DIMTSZ
 40
0.0
  9
$DIMTOL
 70
     0
  9
$DIMLIM
 70
     0
  9
$DIMTIH
 70
     1
  9
$DIMTOH
 70
     1
  9
$DIMSE1
 70
     0
  9
$DIMSE2
 70
     0
  9
$DIMTAD
 70
     0
  9
$DIMZIN
 70
     0
  9
$DIMBLK
  1

  9
$DIMASO
 70
     1
  9
$DIMSHO
 70
     1
  9
$DIMPOST
  1

  9
$DIMAPOST
  1

  9
$DIMALT
 70
     0
  9
$DIMALTD
 70
     2
  9
$DIMALTF
 40
25.4
  9
$DIMLFAC
 40
1.0
  9
$DIMTOFL
 70
     0
  9
$DIMTVP
 40
0.0
  9
$DIMTIX
 70
     0
  9
$DIMSOXD
 70
     0
  9
$DIMSAH
 70
     0
  9
$DIMBLK1
  1

  9
$DIMBLK2
  1

  9
$DIMSTYLE
  2
STANDARD
  9
$DIMCLRD
 70
     0
  9
$DIMCLRE
 70
     0
  9
$DIMCLRT
 70
     0
  9
$DIMTFAC
 40
1.0
  9
$DIMGAP
 40
0.09
  9
$DIMJUST
 70
     0
  9
$DIMSD1
 70
     0
  9
$DIMSD2
 70
     0
  9
$DIMTOLJ
 70
     1
  9
$DIMTZIN
 70
     0
  9
$DIMALTZ
 70
     0
  9
$DIMALTTZ
 70
     0
  9
$DIMUPT
 70
     0
  9
$DIMDEC
 70
     4
  9
$DIMTDEC
 70
     4
  9
$DIMALTU
 70
     2
  9
$DIMALTTD
 70
     2
  9
$DIMTXSTY
  7
STANDARD
  9
$DIMAUNIT
 70
     0
  9
$DIMADEC
 70
     0
  9
$DIMALTRND
 40
0.0
  9
$DIMAZIN
 70
     0
  9
$DIMDSEP
 70
    46
  9
$DIMATFIT
 70
     3
  9
$DIMFRAC
 70
     0
  9
$DIMLDRBLK
  1

  9
$DIMLUNIT
 70
     2
  9
$DIMLWD
 70
    -2
  9
$DIMLWE
 70
    -2
  9
$DIMTMOVE
 70
     0
  9
$LUNITS
 70
     2
  9
$LUPREC
 70
     4
  9
$SKETCHINC
 40
0.1
  9
$FILLETRAD
 40
2.0
  9
$AUNITS
 70
     0
  9
$AUPREC
 70
     0
  9
$MENU
  1
ACAD
  9
$ELEVATION
 40
0.0
  9
$PELEVATION
 40
0.0
  9
$THICKNESS
 40
0.0
  9
$LIMCHECK
 70
     0
  9
$CHAMFERA
 40
0.0
  9
$CHAMFERB
 40
0.0
  9
$CHAMFERC
 40
0.0
  9
$CHAMFERD
 40
0.0
  9
$SKPOLY
 70
     0
  9
$TDCREATE
 40
2452093.895395486
  9
$TDUCREATE
 40
2452094.062062153
  9
$TDUPDATE
 40
2453209.433250799
  9
$TDUUPDATE
 40
2453209.599917466
  9
$TDINDWG
 40
0.0009020833
  9
$TDUSRTIMER
 40
0.0009018981
  9
$USRTIMER
 70
     1
  9
$ANGBASE
 50
0.0
  9
$ANGDIR
 70
     0
  9
$PDMODE
 70
     0
  9
$PDSIZE
 40
0.0
  9
$PLINEWID
 40
0.0
  9
$SPLFRAME
 70
     0
  9
$SPLINETYPE
 70
     6
  9
$SPLINESEGS
 70
     8
  9
$HANDSEED
  5
17D
  9
$SURFTAB1
 70
     6
  9
$SURFTAB2
 70
     6
  9
$SURFTYPE
 70
     6
  9
$SURFU
 70
     6
  9
$SURFV
 70
     6
  9
$UCSBASE
  2

  9
$UCSNAME
  2

  9
$UCSORG
 10
0.0
 20
0.0
 30
0.0
  9
$UCSXDIR
 10
1.0
 20
0.0
 30
0.0
  9
$UCSYDIR
 10
0.0
 20
1.0
 30
0.0
  9
$UCSORTHOREF
  2

  9
$UCSORTHOVIEW
 70
     0
  9
$UCSORGTOP
 10
0.0
 20
0.0
 30
0.0
  9
$UCSORGBOTTOM
 10
0.0
 20
0.0
 30
0.0
  9
$UCSORGLEFT
 10
0.0
 20
0.0
 30
0.0
  9
$UCSORGRIGHT
 10
0.0
 20
0.0
 30
0.0
  9
$UCSORGFRONT
 10
0.0
 20
0.0
 30
0.0
  9
$UCSORGBACK
 10
0.0
 20
0.0
 30
0.0
  9
$PUCSBASE
  2

  9
$PUCSNAME
  2

  9
$PUCSORG
 10
0.0
 20
0.0
 30
0.0
  9
$PUCSXDIR
 10
1.0
 20
0.0
 30
0.0
  9
$PUCSYDIR
 10
0.0
 20
1.0
 30
0.0
  9
$PUCSORTHOREF
  2

  9
$PUCSORTHOVIEW
 70
     0
  9
$PUCSORGTOP
 10
0.0
 20
0.0
 30
0.0
  9
$PUCSORGBOTTOM
 10
0.0
 20
0.0
 30
0.0
  9
$PUCSORGLEFT
 10
0.0
 20
0.0
 30
0.0
  9
$PUCSORGRIGHT
 10
0.0
 20
0.0
 30
0.0
  9
$PUCSORGFRONT
 10
0.0
 20
0.0
 30
0.0
  9
$PUCSORGBACK
 10
0.0
 20
0.0
 30
0.0
  9
$USERI1
 70
     0
  9
$USERI2
 70
     0
  9
$USERI3
 70
     0
  9
$USERI4
 70
     0
  9
$USERI5
 70
     0
  9
$USERR1
 40
0.0
  9
$USERR2
 40
0.0
  9
$USERR3
 40
0.0
  9
$USERR4
 40
0.0
  9
$USERR5
 40
0.0
  9
$WORLDVIEW
 70
     1
  9
$SHADEDGE
 70
     3
  9
$SHADEDIF
 70
    70
  9
$TILEMODE
 70
     1
  9
$MAXACTVP
 70
    64
  9
$PINSBASE
 10
0.0
 20
0.0
 30
0.0
  9
$PLIMCHECK
 70
     0
  9
$PEXTMIN
 10
1.000000000000000E+20
 20
1.000000000000000E+20
 30
1.000000000000000E+20
  9
$PEXTMAX
 10
-1.000000000000000E+20
 20
-1.000000000000000E+20
 30
-1.000000000000000E+20
  9
$PLIMMIN
 10
0.0
 20
0.0
  9
$PLIMMAX
 10
12.0
 20
9.0
  9
$UNITMODE
 70
     0
  9
$VISRETAIN
 70
     1
  9
$PLINEGEN
 70
     0
  9
$PSLTSCALE
 70
     1
  9
$TREEDEPTH
 70
  3020
  9
$CMLSTYLE
  2
Standard
  9
$CMLJUST
 70
     0
  9
$CMLSCALE
 40
1.0
  9
$PROXYGRAPHICS
 70
     1
  9
$MEASUREMENT
 70
     0
  9
$CELWEIGHT
370
    -1
  9
$ENDCAPS
280
     0
  9
$JOINSTYLE
280
     0
  9
$LWDISPLAY
290
     0
  9
$INSUNITS
 70
     0
  9
$HYPERLINKBASE
  1

  9
$STYLESHEET
  1

  9
$XEDIT
290
     1
  9
$CEPSNTYPE
380
     0
  9
$PSTYLEMODE
290
     1
  9
$FINGERPRINTGUID
  2
{6A2D4784-5A2F-4410-8C24-925A08121768}
  9
$VERSIONGUID
  2
{54C1E2B9-1F8E-465F-8322-551B85DA5976}
  9
$EXTNAMES
290
     1
  9
$PSVPSCALE
 40
0.0
  9
$OLESTARTUP
290
     0
  9
$SORTENTS
280
   127
  9
$INDEXCTL
280
     0
  9
$HIDETEXT
280
     0
  9
$XCLIPFRAME
290
     0
  9
$HALOGAP
280
     0
  9
$OBSCOLOR
 70
   257
  9
$OBSLTYPE
280
     0
  9
$INTERSECTIONDISPLAY
280
     0
  9
$INTERSECTIONCOLOR
 70
   257
  9
$DIMASSOC
280
     1
  9
$PROJECTNAME
  1

  0
ENDSEC
  0
SECTION
  2
CLASSES
  0
CLASS
  1
ACDBDICTIONARYWDFLT
  2
AcDbDictionaryWithDefault
  3
ObjectDBX Classes
 90
        0
 91
        1
280
     0
281
     0
  0
ENDSEC
  0
SECTION
  2
TABLES
  0
TABLE
  2
VPORT
  5
14A
330
0
100
AcDbSymbolTable
 70
     2
  0
VPORT
  5
17C
330
14A
100
AcDbSymbolTableRecord
100
AcDbViewportTableRecord
  2
*Active
 70
     0
 10
0.0
 20
0.0
 11
1.0
 21
1.0
 12
253.4840605986212
 22
170.621381655336
 13
0.0
 23
0.0
 14
1.0
 24
1.0
 15
0.0
 25
0.0
 16
0.0
 26
0.0
 36
1.0
 17
0.0
 27
0.0
 37
0.0
 40
127.5539747183709
 41
1.625
 42
50.0
 43
0.0
 44
0.0
 50
0.0
 51
0.0
 71
     0
 72
   100
 73
     1
 74
     1
 75
     0
 76
     0
 77
     0
 78
     0
281
     0
 65
     1
110
0.0
120
0.0
130
0.0
111
1.0
121
0.0
131
0.0
112
0.0
122
1.0
132
0.0
 79
     0
146
0.0
  0
ENDTAB
  0
TABLE
  2
LTYPE
  5
147
330
0
100
AcDbSymbolTable
 70
     9
  0
LTYPE
  5
155
330
147
100
AcDbSymbolTableRecord
100
AcDbLinetypeTableRecord
  2
ByBlock
 70
     0
  3

 72
    65
 73
     0
 40
0.0
  0
LTYPE
  5
156
330
147
100
AcDbSymbolTableRecord
100
AcDbLinetypeTableRecord
  2
ByLayer
 70
     0
  3

 72
    65
 73
     0
 40
0.0
  0
LTYPE
  5
157
330
147
100
AcDbSymbolTableRecord
100
AcDbLinetypeTableRecord
  2
CONTINUOUS
 70
     0
  3
Solid line
 72
    65
 73
     0
 40
0.0
  0
LTYPE
  5
167
330
147
100
AcDbSymbolTableRecord
100
AcDbLinetypeTableRecord
  2
BORDER
 70
     0
  3
__ __ . __ __ .
 72
    65
 73
     6
 40
9.32796052631579
 49
2.665131578947368
 74
     0
 49
-1.332565789473684
 74
     0
 49
2.665131578947368
 74
     0
 49
-1.332565789473684
 74
     0
 49
0.0
 74
     0
 49
-1.332565789473684
 74
     0
  0
LTYPE
  5
168
330
147
100
AcDbSymbolTableRecord
100
AcDbLinetypeTableRecord
  2
CENTER
 70
     0
  3
____ _ ____ _
 72
    65
 73
     4
 40
10.66052631578947
 49
6.662828947368421
 74
     0
 49
-1.332565789473684
 74
     0
 49
1.332565789473684
 74
     0
 49
-1.332565789473684
 74
     0
  0
LTYPE
  5
169
330
147
100
AcDbSymbolTableRecord
100
AcDbLinetypeTableRecord
  2
DASHDOT
 70
     0
  3
__ . __ . __ .
 72
    65
 73
     4
 40
5.330263157894735
 49
2.665131578947368
 74
     0
 49
-1.332565789473684
 74
     0
 49
0.0
 74
     0
 49
-1.332565789473684
 74
     0
  0
LTYPE
  5
16A
330
147
100
AcDbSymbolTableRecord
100
AcDbLinetypeTableRecord
  2
DASHED
 70
     0
  3
__ __ __ __ __
 72
    65
 73
     2
 40
3.99769736842105
 49
2.665131578947368
 74
     0
 49
-1.332565789473684
 74
     0
  0
LTYPE
  5
16B
330
147
100
AcDbSymbolTableRecord
100
AcDbLinetypeTableRecord
  2
DIVIDE
 70
     0
  3
__ . . __ . . 
 72
    65
 73
     6
 40
6.662828947368421
 49
2.665131578947368
 74
     0
 49
-1.332565789473684
 74
     0
 49
0.0
 74
     0
 49
-1.332565789473684
 74
     0
 49
0.0
 74
     0
 49
-1.332565789473684
 74
     0
  0
LTYPE
  5
16C
330
147
100
AcDbSymbolTableRecord
100
AcDbLinetypeTableRecord
  2
DOT
 70
     0
  3
..............
 72
    65
 73
     4
 40
2.665131578947368
 49
0.0
 74
     0
 49
-1.332565789473684
 74
     0
 49
0.0
 74
     0
 49
-1.332565789473684
 74
     0
  0
LTYPE
  5
16D
330
147
100
AcDbSymbolTableRecord
100
AcDbLinetypeTableRecord
  2
HIDDEN
 70
     0
  3
_ _ _ _ _ _ _
 72
    65
 73
     2
 40
1.998848684210524
 49
1.332565789473684
 74
     0
 49
-0.6662828947368423
 74
     0
  0
LTYPE
  5
16E
330
147
100
AcDbSymbolTableRecord
100
AcDbLinetypeTableRecord
  2
PHANTOM
 70
     0
  3
_____ _ _ _____ _ _ 
 72
    65
 73
     6
 40
13.32565789473684
 49
6.662828947368421
 74
     0
 49
-1.332565789473684
 74
     0
 49
1.332565789473684
 74
     0
 49
-1.332565789473684
 74
     0
 49
1.332565789473684
 74
     0
 49
-1.332565789473684
 74
     0
  0
ENDTAB
  0
TABLE
  2
LAYER
  5
144
330
0
100
AcDbSymbolTable
 70
     2
  0
LAYER
  5
152
330
144
100
AcDbSymbolTableRecord
100
AcDbLayerTableRecord
  2
0
 70
     0
 62
     7
  6
CONTINUOUS
370
    -3
390
151
  0
LAYER
  5
16F
330
144
100
AcDbSymbolTableRecord
100
AcDbLayerTableRecord
  2
1
 70
     0
 62
     7
  6
CONTINUOUS
370
    -3
390
151
  0
ENDTAB
  0
TABLE
  2
STYLE
  5
145
330
0
100
AcDbSymbolTable
 70
     4
  0
STYLE
  5
153
330
145
100
AcDbSymbolTableRecord
100
AcDbTextStyleTableRecord
  2
STANDARD
 70
     0
 40
0.0
 41
1.0
 50
0.0
 71
     0
 42
3.5
  3
txt
  4

  0
STYLE
  5
170
330
145
100
AcDbSymbolTableRecord
100
AcDbTextStyleTableRecord
  2
SIMPLEX
 70
     0
 40
0.0
 41
1.0
 50
0.0
 71
     0
 42
3.5
  3
simplex
  4

  0
STYLE
  5
171
330
145
100
AcDbSymbolTableRecord
100
AcDbTextStyleTableRecord
  2
COMPLEX
 70
     0
 40
0.0
 41
1.0
 50
0.0
 71
     0
 42
3.5
  3
complex
  4

  0
STYLE
  5
172
330
145
100
AcDbSymbolTableRecord
100
AcDbTextStyleTableRecord
  2
ITALIC
 70
     0
 40
0.0
 41
1.0
 50
0.0
 71
     0
 42
3.5
  3
italic
  4

  0
ENDTAB
  0
TABLE
  2
VIEW
  5
148
330
0
100
AcDbSymbolTable
 70
     0
  0
ENDTAB
  0
TABLE
  2
UCS
  5
149
330
0
100
AcDbSymbolTable
 70
     0
  0
ENDTAB
  0
TABLE
  2
APPID
  5
14B
330
0
100
AcDbSymbolTable
 70
     1
  0
APPID
  5
154
330
14B
100
AcDbSymbolTableRecord
100
AcDbRegAppTableRecord
  2
ACAD
 70
     0
  0
ENDTAB
  0
TABLE
  2
DIMSTYLE
  5
14C
330
0
100
AcDbSymbolTable
 70
     1
100
AcDbDimStyleTable
 71
     0
  0
DIMSTYLE
105
173
330
14C
100
AcDbSymbolTableRecord
100
AcDbDimStyleTableRecord
  2
STANDARD
 70
     0
279
     2
340
153
  0
ENDTAB
  0
TABLE
  2
BLOCK_RECORD
  5
143
330
0
100
AcDbSymbolTable
 70
     2
  0
BLOCK_RECORD
  5
162
330
143
100
AcDbSymbolTableRecord
100
AcDbBlockTableRecord
  2
*Model_Space
340
165
  0
BLOCK_RECORD
  5
15E
330
143
100
AcDbSymbolTableRecord
100
AcDbBlockTableRecord
  2
*Paper_Space
340
161
  0
BLOCK_RECORD
  5
178
330
143
100
AcDbSymbolTableRecord
100
AcDbBlockTableRecord
  2
$MODEL_SPACE
340
0
  0
BLOCK_RECORD
  5
17A
330
143
100
AcDbSymbolTableRecord
100
AcDbBlockTableRecord
  2
$PAPER_SPACE
340
0
  0
ENDTAB
  0
ENDSEC
  0
SECTION
  2
BLOCKS
  0
BLOCK
  5
163
330
162
100
AcDbEntity
  8
0
100
AcDbBlockBegin
  2
*Model_Space
 70
     0
 10
0.0
 20
0.0
 30
0.0
  3
*Model_Space
  1

  0
ENDBLK
  5
164
330
162
100
AcDbEntity
  8
0
100
AcDbBlockEnd
  0
BLOCK
  5
15F
330
15E
100
AcDbEntity
 67
     1
  8
0
100
AcDbBlockBegin
  2
*Paper_Space
 70
     0
 10
0.0
 20
0.0
 30
0.0
  3
*Paper_Space
  1

  0
ENDBLK
  5
160
330
15E
100
AcDbEntity
 67
     1
  8
0
100
AcDbBlockEnd
  0
BLOCK
  5
179
330
178
100
AcDbEntity
  8
0
100
AcDbBlockBegin
  2
$MODEL_SPACE
 70
     0
 10
0.0
 20
0.0
 30
0.0
  3
$MODEL_SPACE
  1

  0
ENDBLK
  5
20
330
178
100
AcDbEntity
  8
0
100
AcDbBlockEnd
  0
BLOCK
  5
17B
330
17A
100
AcDbEntity
  8
0
100
AcDbBlockBegin
  2
$PAPER_SPACE
 70
     0
 10
0.0
 20
0.0
 30
0.0
  3
$PAPER_SPACE
  1

  0
ENDBLK
  5
1C
330
17A
100
AcDbEntity
  8
0
100
AcDbBlockEnd
  0
ENDSEC
  0
SECTION
  2
ENTITIES
  0
LINE
  5
33
330
162
100
AcDbEntity
  8
1
 62
     7
100
AcDbLine
 10
155.8249999999999
 20
166.0
 30
0.0
 11
155.8249999999999
 21
131.0
 31
0.0
  0
LINE
  5
34
330
162
100
AcDbEntity
  8
1
 62
     7
100
AcDbLine
 10
257.6249999999999
 20
140.2499999999998
 30
0.0
 11
260.0749999999999
 21
140.2499999999998
 31
0.0
  0
LINE
  5
35
330
162
100
AcDbEntity
  8
1
 62
     7
100
AcDbLine
 10
153.425
 20
131.7127280358004
 30
0.0
 11
154.8249999999999
 21
131.7127280358004
 31
0.0
  0
LINE
  5
36
330
162
100
AcDbEntity
  8
1
 62
     7
100
AcDbLine
 10
153.425
 20
165.2872719641995
 30
0.0
 11
154.8249999999999
 21
165.2872719641995
 31
0.0
  0
LINE
  5
37
330
162
100
AcDbEntity
  8
1
 62
     7
100
AcDbLine
 10
352.8249999999999
 20
131.7127280358004
 30
0.0
 11
352.8249999999999
 21
146.2038074993589
 31
0.0
  0
LINE
  5
38
330
162
100
AcDbEntity
  8
1
 62
     7
100
AcDbLine
 10
318.5377280358002
 20
131.0
 30
0.0
 11
333.0288074993589
 21
131.0
 31
0.0
  0
LINE
  5
39
330
162
100
AcDbEntity
  8
1
 62
     7
100
AcDbLine
 10
317.8249999999999
 20
165.2872719641995
 30
0.0
 11
317.8249999999999
 21
150.796192500641
 31
0.0
  0
LINE
  5
3A
330
162
100
AcDbEntity
  8
1
 62
     7
100
AcDbLine
 10
352.1122719641995
 20
166.0
 30
0.0
 11
337.6211925006409
 21
166.0
 31
0.0
  0
LINE
  5
3B
330
162
100
AcDbEntity
  8
1
 62
     7
100
AcDbLine
 10
318.5377280358002
 20
166.0
 30
0.0
 11
333.0288074993589
 21
166.0
 31
0.0
  0
LINE
  5
3C
330
162
100
AcDbEntity
  8
1
 62
     7
100
AcDbLine
 10
337.075
 20
179.2847864007398
 30
0.0
 11
337.075
 21
167.0
 31
0.0
  0
LINE
  5
3D
330
162
100
AcDbEntity
  8
1
 62
     7
100
AcDbLine
 10
333.5749999999999
 20
179.2847864007398
 30
0.0
 11
333.5749999999999
 21
167.0
 31
0.0
  0
LINE
  5
3E
330
162
100
AcDbEntity
  8
1
 62
     7
100
AcDbLine
 10
335.325
 20
179.2847864007398
 30
0.0
 11
335.325
 21
167.0
 31
0.0
  0
LINE
  5
3F
330
162
100
AcDbEntity
  8
1
 62
     7
100
AcDbLine
 10
337.6211925006409
 20
131.0
 30
0.0
 11
352.1122719641995
 21
131.0
 31
0.0
  0
LINE
  5
40
330
162
100
AcDbEntity
  8
1
 62
     7
100
AcDbLine
 10
352.8249999999999
 20
150.796192500641
 30
0.0
 11
352.8249999999999
 21
165.2872719641995
 31
0.0
  0
LINE
  5
41
330
162
100
AcDbEntity
  8
1
 62
     7
100
AcDbLine
 10
317.8249999999999
 20
146.2038074993589
 30
0.0
 11
317.8249999999999
 21
131.7127280358004
 31
0.0
  0
LINE
  5
42
330
162
100
AcDbEntity
  8
1
 62
     7
100
AcDbLine
 10
345.330171184315
 20
140.7027857812837
 30
0.0
 11
344.3578567308979
 21
141.264151792701
 31
0.0
  0
LINE
  5
43
330
162
100
AcDbEntity
  8
1
 62
     7
100
AcDbLine
 10
347.080171184315
 20
143.7338746945291
 30
0.0
 11
346.1078567308979
 21
144.2952407059466
 31
0.0
  0
LINE
  5
44
330
162
100
AcDbEntity
  8
1
 62
     7
100
AcDbLine
 10
325.3198288156848
 20
140.7027857812837
 30
0.0
 11
326.2921432691019
 21
141.264151792701
 31
0.0
  0
LINE
  5
45
330
162
100
AcDbEntity
  8
1
 62
     7
100
AcDbLine
 10
323.5698288156849
 20
143.7338746945293
 30
0.0
 11
324.5421432691019
 21
144.2952407059466
 31
0.0
  0
LINE
  5
46
330
162
100
AcDbEntity
  8
1
 62
     7
100
AcDbLine
 10
333.5749999999999
 20
161.0633395241871
 30
0.0
 11
333.5749999999999
 21
159.9406075013524
 31
0.0
  0
LINE
  5
47
330
162
100
AcDbEntity
  8
1
 62
     7
100
AcDbLine
 10
337.075
 20
161.0633395241871
 30
0.0
 11
337.075
 21
159.9406075013524
 31
0.0
  0
LINE
  5
48
330
162
100
AcDbEntity
  8
1
  6
DASHDOT
 62
     3
100
AcDbLine
 10
352.0480753750617
 20
131.776924624938
 30
0.0
 11
348.300409434773
 21
135.5245905652268
 31
0.0
  0
LINE
  5
49
330
162
100
AcDbEntity
  8
1
  6
DASHDOT
 62
     3
100
AcDbLine
 10
318.601924624938
 20
131.7769246249381
 30
0.0
 11
322.3495905652268
 21
135.5245905652268
 31
0.0
  0
LINE
  5
4A
330
162
100
AcDbEntity
  8
1
  6
DASHDOT
 62
     3
100
AcDbLine
 10
318.601924624938
 20
165.2230753750619
 30
0.0
 11
322.3495905652268
 21
161.4754094347731
 31
0.0
  0
LINE
  5
4B
330
162
100
AcDbEntity
  8
1
  6
DASHDOT
 62
     3
100
AcDbLine
 10
352.0480753750617
 20
165.2230753750619
 30
0.0
 11
348.300409434773
 21
161.4754094347731
 31
0.0
  0
LINE
  5
4C
330
162
100
AcDbEntity
  8
1
 62
     7
100
AcDbLine
 10
336.3249999999999
 20
152.4
 30
0.0
 11
336.3249999999999
 21
151.3284271247461
 31
0.0
  0
LINE
  5
4D
330
162
100
AcDbEntity
  8
1
 62
     7
100
AcDbLine
 10
334.3249999999999
 20
152.4
 30
0.0
 11
336.3249999999999
 21
152.4
 31
0.0
  0
LINE
  5
4E
330
162
100
AcDbEntity
  8
1
 62
     7
100
AcDbLine
 10
334.3249999999999
 20
151.3284271247461
 30
0.0
 11
334.3249999999999
 21
152.4
 31
0.0
  0
LINE
  5
4F
330
162
100
AcDbEntity
  8
1
  6
DASHDOT
 62
     3
100
AcDbLine
 10
333.8249999999999
 20
148.5
 30
0.0
 11
336.8249999999999
 21
148.5
 31
0.0
  0
LINE
  5
50
330
162
100
AcDbEntity
  8
1
  6
DASHDOT
 62
     3
100
AcDbLine
 10
335.325
 20
150.0
 30
0.0
 11
335.325
 21
147.0
 31
0.0
  0
LINE
  5
51
330
162
100
AcDbEntity
  8
1
 62
     7
100
AcDbLine
 10
260.2749999999999
 20
135.05
 30
0.0
 11
260.2749999999999
 21
143.0
 31
0.0
  0
LINE
  5
52
330
162
100
AcDbEntity
  8
1
 62
     7
100
AcDbLine
 10
260.0749999999999
 20
132.9499999999999
 30
0.0
 11
260.2749999999999
 21
132.9499999999999
 31
0.0
  0
LINE
  5
53
330
162
100
AcDbEntity
  8
1
 62
     7
100
AcDbLine
 10
260.0749999999999
 20
135.05
 30
0.0
 11
260.2749999999999
 21
135.05
 31
0.0
  0
LINE
  5
54
330
162
100
AcDbEntity
  8
1
 62
     7
100
AcDbLine
 10
257.675
 20
152.4
 30
0.0
 11
266.575
 21
152.4
 31
0.0
  0
LINE
  5
55
330
162
100
AcDbEntity
  8
1
 62
     7
100
AcDbLine
 10
260.2749999999999
 20
137.5
 30
0.0
 11
266.575
 21
137.5
 31
0.0
  0
LINE
  5
56
330
162
100
AcDbEntity
  8
1
 62
     7
100
AcDbLine
 10
260.2749999999999
 20
159.4999999999998
 30
0.0
 11
260.2749999999999
 21
158.25
 31
0.0
  0
LINE
  5
57
330
162
100
AcDbEntity
  8
1
 62
     7
100
AcDbLine
 10
260.2749999999999
 20
154.0
 30
0.0
 11
257.675
 21
154.0
 31
0.0
  0
LINE
  5
58
330
162
100
AcDbEntity
  8
1
 62
     7
100
AcDbLine
 10
260.2749999999999
 20
159.4999999999998
 30
0.0
 11
266.575
 21
159.4999999999998
 31
0.0
  0
LINE
  5
59
330
162
100
AcDbEntity
  8
1
 62
     7
100
AcDbLine
 10
260.7749999999999
 20
136.0
 30
0.0
 11
260.2749999999999
 21
136.0
 31
0.0
  0
LINE
  5
5A
330
162
100
AcDbEntity
  8
1
 62
     7
100
AcDbLine
 10
260.7749999999999
 20
136.0
 30
0.0
 11
260.7749999999999
 21
132.0
 31
0.0
  0
LINE
  5
5B
330
162
100
AcDbEntity
  8
1
 62
     7
100
AcDbLine
 10
260.7749999999999
 20
132.0
 30
0.0
 11
260.2749999999999
 21
132.0
 31
0.0
  0
LINE
  5
5C
330
162
100
AcDbEntity
  8
1
 62
     7
100
AcDbLine
 10
260.2749999999999
 20
165.5
 30
0.0
 11
260.0749999999999
 21
165.5
 31
0.0
  0
LINE
  5
5D
330
162
100
AcDbEntity
  8
1
 62
     7
100
AcDbLine
 10
260.2749999999999
 20
165.5
 30
0.0
 11
260.2749999999999
 21
159.4999999999998
 31
0.0
  0
LINE
  5
5E
330
162
100
AcDbEntity
  8
1
 62
     7
100
AcDbLine
 10
260.2749999999999
 20
131.4999999999998
 30
0.0
 11
260.0749999999999
 21
131.4999999999998
 31
0.0
  0
LINE
  5
5F
330
162
100
AcDbEntity
  8
1
 62
     7
100
AcDbLine
 10
260.0749999999999
 20
160.05
 30
0.0
 11
257.6249999999999
 21
160.05
 31
0.0
  0
LINE
  5
60
330
162
100
AcDbEntity
  8
1
 62
     7
100
AcDbLine
 10
260.0749999999999
 20
166.15
 30
0.0
 11
260.0749999999999
 21
154.0
 31
0.0
  0
LINE
  5
61
330
162
100
AcDbEntity
  8
1
 62
     7
100
AcDbLine
 10
257.6249999999999
 20
130.8499999999999
 30
0.0
 11
257.6249999999999
 21
142.5
 31
0.0
  0
LINE
  5
62
330
162
100
AcDbEntity
  8
1
 62
     7
100
AcDbLine
 10
257.6249999999999
 20
166.15
 30
0.0
 11
260.0749999999999
 21
166.15
 31
0.0
  0
LINE
  5
63
330
162
100
AcDbEntity
  8
1
 62
     7
100
AcDbLine
 10
260.0749999999999
 20
130.8499999999999
 30
0.0
 11
257.6249999999999
 21
130.8499999999999
 31
0.0
  0
LINE
  5
64
330
162
100
AcDbEntity
  8
1
 62
     7
100
AcDbLine
 10
259.3358798583754
 20
159.4999999999998
 30
0.0
 11
259.775
 21
159.4999999999998
 31
0.0
  0
LINE
  5
65
330
162
100
AcDbEntity
  8
1
 62
     7
100
AcDbLine
 10
265.0749999999999
 20
155.5204999999999
 30
0.0
 11
264.8045
 21
155.25
 31
0.0
  0
LINE
  5
66
330
162
100
AcDbEntity
  8
1
 62
     7
100
AcDbLine
 10
264.8045
 20
158.25
 30
0.0
 11
264.8045
 21
155.25
 31
0.0
  0
LINE
  5
67
330
162
100
AcDbEntity
  8
1
 62
     7
100
AcDbLine
 10
261.3544228634058
 20
158.25
 30
0.0
 11
261.3544228634058
 21
155.25
 31
0.0
  0
LINE
  5
68
330
162
100
AcDbEntity
  8
1
 62
     3
100
AcDbLine
 10
265.0749999999999
 20
157.9795
 30
0.0
 11
261.3544228634058
 21
157.9795
 31
0.0
  0
LINE
  5
69
330
162
100
AcDbEntity
  8
1
 62
     3
100
AcDbLine
 10
261.3544228634058
 20
157.9795
 30
0.0
 11
260.8859031199584
 21
158.25
 31
0.0
  0
LINE
  5
6A
330
162
100
AcDbEntity
  8
1
 62
     3
100
AcDbLine
 10
265.0749999999999
 20
155.5204999999999
 30
0.0
 11
261.3544228634058
 21
155.5204999999999
 31
0.0
  0
LINE
  5
6B
330
162
100
AcDbEntity
  8
1
 62
     3
100
AcDbLine
 10
261.3544228634058
 20
155.5204999999999
 30
0.0
 11
260.8859031199584
 21
155.25
 31
0.0
  0
LINE
  5
6C
330
162
100
AcDbEntity
  8
1
 62
     3
100
AcDbLine
 10
264.8045
 20
158.25
 30
0.0
 11
266.575
 21
158.25
 31
0.0
  0
LINE
  5
6D
330
162
100
AcDbEntity
  8
1
 62
     3
100
AcDbLine
 10
264.8045
 20
155.25
 30
0.0
 11
266.575
 21
155.25
 31
0.0
  0
LINE
  5
6E
330
162
100
AcDbEntity
  8
1
 62
     7
100
AcDbLine
 10
264.8045
 20
158.25
 30
0.0
 11
260.0749999999999
 21
158.25
 31
0.0
  0
LINE
  5
6F
330
162
100
AcDbEntity
  8
1
 62
     7
100
AcDbLine
 10
264.8045
 20
155.25
 30
0.0
 11
260.0749999999999
 21
155.25
 31
0.0
  0
LINE
  5
70
330
162
100
AcDbEntity
  8
1
 62
     7
100
AcDbLine
 10
260.2749999999999
 20
155.25
 30
0.0
 11
260.2749999999999
 21
154.0
 31
0.0
  0
LINE
  5
71
330
162
100
AcDbEntity
  8
1
 62
     7
100
AcDbLine
 10
260.0749999999999
 20
130.8499999999999
 30
0.0
 11
260.0749999999999
 21
132.9499999999999
 31
0.0
  0
LINE
  5
72
330
162
100
AcDbEntity
  8
1
 62
     7
100
AcDbLine
 10
260.2749999999999
 20
131.4999999999998
 30
0.0
 11
260.2749999999999
 21
132.9499999999999
 31
0.0
  0
LINE
  5
73
330
162
100
AcDbEntity
  8
1
 62
     7
100
AcDbLine
 10
265.0749999999999
 20
157.9795
 30
0.0
 11
266.575
 21
157.9795
 31
0.0
  0
LINE
  5
74
330
162
100
AcDbEntity
  8
1
 62
     7
100
AcDbLine
 10
265.0749999999999
 20
155.5204999999999
 30
0.0
 11
266.575
 21
155.5204999999999
 31
0.0
  0
LINE
  5
75
330
162
100
AcDbEntity
  8
1
 62
     7
100
AcDbLine
 10
265.0749999999999
 20
157.9795
 30
0.0
 11
265.0749999999999
 21
155.5204999999999
 31
0.0
  0
LINE
  5
76
330
162
100
AcDbEntity
  8
1
  6
CENTER
 62
     3
100
AcDbLine
 10
263.5749999999999
 20
136.4999999999998
 30
0.0
 11
263.5749999999999
 21
150.9999993164023
 31
0.0
  0
LINE
  5
77
330
162
100
AcDbEntity
  8
1
 62
     7
100
AcDbLine
 10
257.675
 20
151.3284271247461
 30
0.0
 11
266.575
 21
151.3284271247461
 31
0.0
  0
LINE
  5
78
330
162
100
AcDbEntity
  8
1
 62
     7
100
AcDbLine
 10
257.675
 20
145.4992456657334
 30
0.0
 11
266.575
 21
145.4992456657334
 31
0.0
  0
LINE
  5
79
330
162
100
AcDbEntity
  8
1
 62
     3
100
AcDbLine
 10
265.0749999999999
 20
145.4992456657334
 30
0.0
 11
265.0749999999999
 21
137.5
 31
0.0
  0
LINE
  5
7A
330
162
100
AcDbEntity
  8
1
 62
     3
100
AcDbLine
 10
262.0749999999999
 20
145.4992456657334
 30
0.0
 11
262.0749999999999
 21
137.5
 31
0.0
  0
LINE
  5
7B
330
162
100
AcDbEntity
  8
1
 62
     7
100
AcDbLine
 10
264.8045
 20
145.4992456657334
 30
0.0
 11
264.8045
 21
137.5
 31
0.0
  0
LINE
  5
7C
330
162
100
AcDbEntity
  8
1
 62
     7
100
AcDbLine
 10
262.3455
 20
145.4992456657334
 30
0.0
 11
262.3455
 21
137.5
 31
0.0
  0
LINE
  5
7D
330
162
100
AcDbEntity
  8
1
 62
     7
100
AcDbLine
 10
257.675
 20
143.0
 30
0.0
 11
260.2749999999999
 21
143.0
 31
0.0
  0
LINE
  5
7E
330
162
100
AcDbEntity
  8
1
 62
     7
100
AcDbLine
 10
266.575
 20
159.4999999999998
 30
0.0
 11
266.575
 21
151.3284271247461
 31
0.0
  0
LINE
  5
7F
330
162
100
AcDbEntity
  8
1
  6
DASHDOT
 62
     3
100
AcDbLine
 10
232.6249999999999
 20
148.5
 30
0.0
 11
235.625
 21
148.5
 31
0.0
  0
LINE
  5
80
330
162
100
AcDbEntity
  8
1
  6
DASHDOT
 62
     3
100
AcDbLine
 10
261.0750006835975
 20
148.5
 30
0.0
 11
269.5749999999999
 21
148.5
 31
0.0
  0
LINE
  5
81
330
162
100
AcDbEntity
  8
1
 62
     7
100
AcDbLine
 10
240.525
 20
167.0
 30
0.0
 11
245.5249999999999
 21
167.0
 31
0.0
  0
LINE
  5
82
330
162
100
AcDbEntity
  8
1
 62
     7
100
AcDbLine
 10
238.025
 20
166.0
 30
0.0
 11
257.425
 21
166.0
 31
0.0
  0
LINE
  5
83
330
162
100
AcDbEntity
  8
1
 62
     7
100
AcDbLine
 10
246.025
 20
166.0
 30
0.0
 11
246.025
 21
166.5
 31
0.0
  0
LINE
  5
84
330
162
100
AcDbEntity
  8
1
 62
     7
100
AcDbLine
 10
240.025
 20
166.0
 30
0.0
 11
240.025
 21
166.5
 31
0.0
  0
LINE
  5
85
330
162
100
AcDbEntity
  8
1
 62
     7
100
AcDbLine
 10
245.5249999999999
 20
167.0
 30
0.0
 11
246.025
 21
166.5
 31
0.0
  0
LINE
  5
86
330
162
100
AcDbEntity
  8
1
 62
     7
100
AcDbLine
 10
240.025
 20
166.5
 30
0.0
 11
240.525
 21
167.0
 31
0.0
  0
LINE
  5
87
330
162
100
AcDbEntity
  8
1
 62
     7
100
AcDbLine
 10
257.425
 20
159.75
 30
0.0
 11
256.425
 21
158.75
 31
0.0
  0
LINE
  5
88
330
162
100
AcDbEntity
  8
1
 62
     7
100
AcDbLine
 10
256.425
 20
158.75
 30
0.0
 11
256.425
 21
154.4999999999998
 31
0.0
  0
LINE
  5
89
330
162
100
AcDbEntity
  8
1
 62
     7
100
AcDbLine
 10
250.7249999999999
 20
155.75
 30
0.0
 11
250.7249999999999
 21
154.4999999999998
 31
0.0
  0
LINE
  5
8A
330
162
100
AcDbEntity
  8
1
 62
     7
100
AcDbLine
 10
257.425
 20
160.4999999999998
 30
0.0
 11
252.225
 21
160.4999999999998
 31
0.0
  0
LINE
  5
8B
330
162
100
AcDbEntity
  8
1
 62
     7
100
AcDbLine
 10
250.7249999999999
 20
154.4999999999998
 30
0.0
 11
256.425
 21
154.4999999999998
 31
0.0
  0
LINE
  5
8C
330
162
100
AcDbEntity
  8
1
 62
     7
100
AcDbLine
 10
252.225
 20
155.75
 30
0.0
 11
250.7249999999999
 21
155.75
 31
0.0
  0
LINE
  5
8D
330
162
100
AcDbEntity
  8
1
 62
     7
100
AcDbLine
 10
252.225
 20
155.8
 30
0.0
 11
252.025
 21
155.8
 31
0.0
  0
LINE
  5
8E
330
162
100
AcDbEntity
  8
1
 62
     7
100
AcDbLine
 10
252.225
 20
155.75
 30
0.0
 11
252.225
 21
165.1999999999999
 31
0.0
  0
LINE
  5
8F
330
162
100
AcDbEntity
  8
1
 62
     7
100
AcDbLine
 10
252.025
 20
162.5
 30
0.0
 11
252.225
 21
162.5
 31
0.0
  0
LINE
  5
90
330
162
100
AcDbEntity
  8
1
 62
     7
100
AcDbLine
 10
243.9
 20
179.2839745962155
 30
0.0
 11
243.9
 21
167.0
 31
0.0
  0
LINE
  5
91
330
162
100
AcDbEntity
  8
1
 62
     7
100
AcDbLine
 10
242.1499999999999
 20
179.2839745962155
 30
0.0
 11
243.9
 21
179.2839745962155
 31
0.0
  0
LINE
  5
92
330
162
100
AcDbEntity
  8
1
 62
     7
100
AcDbLine
 10
242.1499999999999
 20
179.2839745962155
 30
0.0
 11
242.1499999999999
 21
167.0
 31
0.0
  0
LINE
  5
93
330
162
100
AcDbEntity
  8
1
 62
     7
100
AcDbLine
 10
237.975
 20
156.3499999999999
 30
0.0
 11
237.975
 21
156.0
 31
0.0
  0
LINE
  5
94
330
162
100
AcDbEntity
  8
1
 62
     7
100
AcDbLine
 10
239.1249999999999
 20
156.3499999999999
 30
0.0
 11
239.1249999999999
 21
156.0
 31
0.0
  0
LINE
  5
95
330
162
100
AcDbEntity
  8
1
 62
     7
100
AcDbLine
 10
252.025
 20
165.1999999999999
 30
0.0
 11
257.425
 21
165.1999999999999
 31
0.0
  0
LINE
  5
96
330
162
100
AcDbEntity
  8
1
 62
     7
100
AcDbLine
 10
252.025
 20
165.1999999999999
 30
0.0
 11
252.025
 21
155.75
 31
0.0
  0
LINE
  5
97
330
162
100
AcDbEntity
  8
1
 62
     7
100
AcDbLine
 10
237.0249999999999
 20
165.0
 30
0.0
 11
238.025
 21
166.0
 31
0.0
  0
LINE
  5
98
330
162
100
AcDbEntity
  8
1
 62
     7
100
AcDbLine
 10
238.025
 20
131.0
 30
0.0
 11
237.0249999999999
 21
132.0
 31
0.0
  0
LINE
  5
99
330
162
100
AcDbEntity
  8
1
 62
     7
100
AcDbLine
 10
238.025
 20
131.0
 30
0.0
 11
257.425
 21
131.0
 31
0.0
  0
LINE
  5
9A
330
162
100
AcDbEntity
  8
1
 62
     7
100
AcDbLine
 10
237.0249999999999
 20
166.0
 30
0.0
 11
235.625
 21
166.0
 31
0.0
  0
LINE
  5
9B
330
162
100
AcDbEntity
  8
1
 62
     7
100
AcDbLine
 10
235.625
 20
131.0
 30
0.0
 11
237.0249999999999
 21
131.0
 31
0.0
  0
LINE
  5
9C
330
162
100
AcDbEntity
  8
1
 62
     7
100
AcDbLine
 10
237.975
 20
156.3499999999999
 30
0.0
 11
239.1249999999999
 21
156.3499999999999
 31
0.0
  0
LINE
  5
9D
330
162
100
AcDbEntity
  8
1
 62
     7
100
AcDbLine
 10
239.1249999999999
 20
156.0
 30
0.0
 11
252.025
 21
156.0
 31
0.0
  0
LINE
  5
9E
330
162
100
AcDbEntity
  8
1
 62
     7
100
AcDbLine
 10
235.625
 20
156.0
 30
0.0
 11
237.975
 21
156.0
 31
0.0
  0
LINE
  5
9F
330
162
100
AcDbEntity
  8
1
 62
     7
100
AcDbLine
 10
235.625
 20
131.0
 30
0.0
 11
235.625
 21
141.0
 31
0.0
  0
LINE
  5
A0
330
162
100
AcDbEntity
  8
1
 62
     3
100
AcDbLine
 10
242.6899999999999
 20
179.2839745962155
 30
0.0
 11
242.6899999999999
 21
182.2847864007397
 31
0.0
  0
LINE
  5
A1
330
162
100
AcDbEntity
  8
1
 62
     3
100
AcDbLine
 10
243.36
 20
182.2847864007397
 30
0.0
 11
243.36
 21
179.2839745962155
 31
0.0
  0
LINE
  5
A2
330
162
100
AcDbEntity
  8
1
 62
     7
100
AcDbLine
 10
256.225
 20
136.4999999999998
 30
0.0
 11
256.225
 21
131.8
 31
0.0
  0
LINE
  5
A3
330
162
100
AcDbEntity
  8
1
 62
     7
100
AcDbLine
 10
256.425
 20
138.25
 30
0.0
 11
257.425
 21
137.25
 31
0.0
  0
LINE
  5
A4
330
162
100
AcDbEntity
  8
1
 62
     7
100
AcDbLine
 10
252.225
 20
136.4999999999998
 30
0.0
 11
257.425
 21
136.4999999999998
 31
0.0
  0
LINE
  5
A5
330
162
100
AcDbEntity
  8
1
 62
     7
100
AcDbLine
 10
256.425
 20
142.5
 30
0.0
 11
250.7249999999999
 21
142.5
 31
0.0
  0
LINE
  5
A6
330
162
100
AcDbEntity
  8
1
 62
     7
100
AcDbLine
 10
250.7249999999999
 20
141.25
 30
0.0
 11
252.225
 21
141.25
 31
0.0
  0
LINE
  5
A7
330
162
100
AcDbEntity
  8
1
 62
     7
100
AcDbLine
 10
252.025
 20
141.1999999999999
 30
0.0
 11
252.225
 21
141.1999999999999
 31
0.0
  0
LINE
  5
A8
330
162
100
AcDbEntity
  8
1
 62
     7
100
AcDbLine
 10
252.225
 20
141.25
 30
0.0
 11
252.225
 21
131.8
 31
0.0
  0
LINE
  5
A9
330
162
100
AcDbEntity
  8
1
 62
     7
100
AcDbLine
 10
252.225
 20
134.4999999999998
 30
0.0
 11
252.025
 21
134.4999999999998
 31
0.0
  0
LINE
  5
AA
330
162
100
AcDbEntity
  8
1
 62
     7
100
AcDbLine
 10
257.425
 20
131.8
 30
0.0
 11
252.025
 21
131.8
 31
0.0
  0
LINE
  5
AB
330
162
100
AcDbEntity
  8
1
 62
     7
100
AcDbLine
 10
252.025
 20
141.25
 30
0.0
 11
252.025
 21
131.8
 31
0.0
  0
LINE
  5
AC
330
162
100
AcDbEntity
  8
1
 62
     7
100
AcDbLine
 10
239.1249999999999
 20
140.65
 30
0.0
 11
237.975
 21
140.65
 31
0.0
  0
LINE
  5
AD
330
162
100
AcDbEntity
  8
1
 62
     7
100
AcDbLine
 10
252.025
 20
141.0
 30
0.0
 11
239.1249999999999
 21
141.0
 31
0.0
  0
LINE
  5
AE
330
162
100
AcDbEntity
  8
1
 62
     7
100
AcDbLine
 10
237.975
 20
141.0
 30
0.0
 11
235.625
 21
141.0
 31
0.0
  0
LINE
  5
AF
330
162
100
AcDbEntity
  8
1
 62
     7
100
AcDbLine
 10
237.0249999999999
 20
166.0
 30
0.0
 11
237.0249999999999
 21
156.0
 31
0.0
  0
LINE
  5
B0
330
162
100
AcDbEntity
  8
1
 62
     7
100
AcDbLine
 10
332.825
 20
167.0
 30
0.0
 11
337.8249999999999
 21
167.0
 31
0.0
  0
LINE
  5
B1
330
162
100
AcDbEntity
  8
1
 62
     7
100
AcDbLine
 10
332.3249999999999
 20
166.5
 30
0.0
 11
338.3249999999999
 21
166.5
 31
0.0
  0
LINE
  5
B2
330
162
100
AcDbEntity
  8
1
 62
     7
100
AcDbLine
 10
337.8249999999999
 20
167.0
 30
0.0
 11
338.3249999999999
 21
166.5
 31
0.0
  0
LINE
  5
B3
330
162
100
AcDbEntity
  8
1
 62
     7
100
AcDbLine
 10
332.825
 20
167.0
 30
0.0
 11
332.3249999999999
 21
166.5
 31
0.0
  0
LINE
  5
B4
330
162
100
AcDbEntity
  8
1
 62
     7
100
AcDbLine
 10
332.3249999999999
 20
166.5
 30
0.0
 11
332.3249999999999
 21
166.0
 31
0.0
  0
LINE
  5
B5
330
162
100
AcDbEntity
  8
1
 62
     7
100
AcDbLine
 10
338.3249999999999
 20
166.5
 30
0.0
 11
338.3249999999999
 21
166.0
 31
0.0
  0
LINE
  5
B6
330
162
100
AcDbEntity
  8
1
 62
     7
100
AcDbLine
 10
337.8749999999997
 20
166.0
 30
0.0
 11
337.8749999999997
 21
165.9648217855208
 31
0.0
  0
LINE
  5
B7
330
162
100
AcDbEntity
  8
1
 62
     7
100
AcDbLine
 10
332.7749999999999
 20
166.0
 30
0.0
 11
332.7749999999999
 21
165.9648217855208
 31
0.0
  0
LINE
  5
B8
330
162
100
AcDbEntity
  8
1
 62
     7
100
AcDbLine
 10
178.0749999999999
 20
137.5
 30
0.0
 11
184.375
 21
137.5
 31
0.0
  0
LINE
  5
B9
330
162
100
AcDbEntity
  8
1
 62
     7
100
AcDbLine
 10
178.0749999999999
 20
159.4999999999998
 30
0.0
 11
184.375
 21
159.4999999999998
 31
0.0
  0
LINE
  5
BA
330
162
100
AcDbEntity
  8
1
 62
     7
100
AcDbLine
 10
178.5749999999999
 20
136.0
 30
0.0
 11
178.0749999999999
 21
136.0
 31
0.0
  0
LINE
  5
BB
330
162
100
AcDbEntity
  8
1
 62
     7
100
AcDbLine
 10
178.5749999999999
 20
136.0
 30
0.0
 11
178.5749999999999
 21
132.0
 31
0.0
  0
LINE
  5
BC
330
162
100
AcDbEntity
  8
1
 62
     7
100
AcDbLine
 10
178.5749999999999
 20
132.0
 30
0.0
 11
178.0749999999999
 21
132.0
 31
0.0
  0
LINE
  5
BD
330
162
100
AcDbEntity
  8
1
 62
     7
100
AcDbLine
 10
178.0749999999999
 20
165.5
 30
0.0
 11
177.875
 21
165.5
 31
0.0
  0
LINE
  5
BE
330
162
100
AcDbEntity
  8
1
 62
     7
100
AcDbLine
 10
178.0749999999999
 20
165.5
 30
0.0
 11
178.0749999999999
 21
131.4999999999998
 31
0.0
  0
LINE
  5
BF
330
162
100
AcDbEntity
  8
1
 62
     7
100
AcDbLine
 10
178.0749999999999
 20
131.4999999999998
 30
0.0
 11
177.875
 21
131.4999999999998
 31
0.0
  0
LINE
  5
C0
330
162
100
AcDbEntity
  8
1
 62
     7
100
AcDbLine
 10
177.875
 20
166.15
 30
0.0
 11
177.875
 21
130.8499999999999
 31
0.0
  0
LINE
  5
C1
330
162
100
AcDbEntity
  8
1
 62
     7
100
AcDbLine
 10
175.425
 20
130.8499999999999
 30
0.0
 11
175.425
 21
166.15
 31
0.0
  0
LINE
  5
C2
330
162
100
AcDbEntity
  8
1
 62
     7
100
AcDbLine
 10
175.425
 20
166.15
 30
0.0
 11
177.875
 21
166.15
 31
0.0
  0
LINE
  5
C3
330
162
100
AcDbEntity
  8
1
 62
     7
100
AcDbLine
 10
177.875
 20
130.8499999999999
 30
0.0
 11
175.425
 21
130.8499999999999
 31
0.0
  0
LINE
  5
C4
330
162
100
AcDbEntity
  8
1
 62
     7
100
AcDbLine
 10
177.875
 20
154.0
 30
0.0
 11
177.875
 21
159.1999999999999
 31
0.0
  0
LINE
  5
C5
330
162
100
AcDbEntity
  8
1
 62
     7
100
AcDbLine
 10
184.375
 20
159.4999999999998
 30
0.0
 11
184.375
 21
137.5
 31
0.0
  0
LINE
  5
C6
330
162
100
AcDbEntity
  8
1
  6
DASHDOT
 62
     3
100
AcDbLine
 10
150.425
 20
148.5
 30
0.0
 11
153.425
 21
148.5
 31
0.0
  0
LINE
  5
C7
330
162
100
AcDbEntity
  8
1
 62
     7
100
AcDbLine
 10
158.3249999999999
 20
167.0
 30
0.0
 11
163.3249999999999
 21
167.0
 31
0.0
  0
LINE
  5
C8
330
162
100
AcDbEntity
  8
1
 62
     7
100
AcDbLine
 10
155.8249999999999
 20
166.0
 30
0.0
 11
175.225
 21
166.0
 31
0.0
  0
LINE
  5
C9
330
162
100
AcDbEntity
  8
1
 62
     7
100
AcDbLine
 10
163.825
 20
166.0
 30
0.0
 11
163.825
 21
166.5
 31
0.0
  0
LINE
  5
CA
330
162
100
AcDbEntity
  8
1
 62
     7
100
AcDbLine
 10
157.8249999999999
 20
166.0
 30
0.0
 11
157.8249999999999
 21
166.5
 31
0.0
  0
LINE
  5
CB
330
162
100
AcDbEntity
  8
1
 62
     7
100
AcDbLine
 10
163.3249999999999
 20
167.0
 30
0.0
 11
163.825
 21
166.5
 31
0.0
  0
LINE
  5
CC
330
162
100
AcDbEntity
  8
1
 62
     7
100
AcDbLine
 10
157.8249999999999
 20
166.5
 30
0.0
 11
158.3249999999999
 21
167.0
 31
0.0
  0
LINE
  5
CD
330
162
100
AcDbEntity
  8
1
 62
     7
100
AcDbLine
 10
161.6999999999999
 20
179.2839745962155
 30
0.0
 11
161.6999999999999
 21
167.0
 31
0.0
  0
LINE
  5
CE
330
162
100
AcDbEntity
  8
1
 62
     7
100
AcDbLine
 10
159.9499999999999
 20
179.2839745962155
 30
0.0
 11
159.9499999999999
 21
167.0
 31
0.0
  0
LINE
  5
CF
330
162
100
AcDbEntity
  8
1
 62
     7
100
AcDbLine
 10
175.225
 20
166.0
 30
0.0
 11
175.225
 21
131.0
 31
0.0
  0
LINE
  5
D0
330
162
100
AcDbEntity
  8
1
 62
     7
100
AcDbLine
 10
154.8249999999999
 20
165.0
 30
0.0
 11
155.8249999999999
 21
166.0
 31
0.0
  0
LINE
  5
D1
330
162
100
AcDbEntity
  8
1
 62
     7
100
AcDbLine
 10
155.8249999999999
 20
131.0
 30
0.0
 11
154.8249999999999
 21
132.0
 31
0.0
  0
LINE
  5
D2
330
162
100
AcDbEntity
  8
1
 62
     7
100
AcDbLine
 10
155.8249999999999
 20
131.0
 30
0.0
 11
175.225
 21
131.0
 31
0.0
  0
LINE
  5
D3
330
162
100
AcDbEntity
  8
1
 62
     7
100
AcDbLine
 10
154.8249999999999
 20
166.0
 30
0.0
 11
153.425
 21
166.0
 31
0.0
  0
LINE
  5
D4
330
162
100
AcDbEntity
  8
1
 62
     7
100
AcDbLine
 10
153.425
 20
131.0
 30
0.0
 11
154.8249999999999
 21
131.0
 31
0.0
  0
LINE
  5
D5
330
162
100
AcDbEntity
  8
1
 62
     7
100
AcDbLine
 10
153.425
 20
131.0
 30
0.0
 11
153.425
 21
166.0
 31
0.0
  0
LINE
  5
D6
330
162
100
AcDbEntity
  8
1
 62
     7
100
AcDbLine
 10
154.8249999999999
 20
166.0
 30
0.0
 11
154.8249999999999
 21
131.0
 31
0.0
  0
LINE
  5
D7
330
162
100
AcDbEntity
  8
1
  6
DASHDOT
 62
     3
100
AcDbLine
 10
184.375
 20
148.5
 30
0.0
 11
187.375
 21
148.5
 31
0.0
  0
LINE
  5
D8
330
162
100
AcDbEntity
  8
1
 62
     7
100
AcDbLine
 10
178.0749999999999
 20
157.5
 30
0.0
 11
178.5749999999999
 21
157.5
 31
0.0
  0
LINE
  5
D9
330
162
100
AcDbEntity
  8
1
 62
     7
100
AcDbLine
 10
178.0749999999999
 20
154.0
 30
0.0
 11
178.5749999999999
 21
154.0
 31
0.0
  0
LINE
  5
DA
330
162
100
AcDbEntity
  8
1
 62
     7
100
AcDbLine
 10
178.5749999999999
 20
157.5
 30
0.0
 11
178.5749999999999
 21
154.0
 31
0.0
  0
LINE
  5
DB
330
162
100
AcDbEntity
  8
1
 62
     7
100
AcDbLine
 10
157.8249999999999
 20
166.5
 30
0.0
 11
163.825
 21
166.5
 31
0.0
  0
LINE
  5
DC
330
162
100
AcDbEntity
  8
1
 62
     7
100
AcDbLine
 10
260.0749999999999
 20
135.05
 30
0.0
 11
260.0749999999999
 21
143.0
 31
0.0
  0
LINE
  5
DD
330
162
100
AcDbEntity
  8
1
 62
     7
100
AcDbLine
 10
257.675
 20
154.0
 30
0.0
 11
257.675
 21
151.3284271247461
 31
0.0
  0
LINE
  5
DE
330
162
100
AcDbEntity
  8
1
 62
     7
100
AcDbLine
 10
256.225
 20
160.4999999999998
 30
0.0
 11
256.225
 21
165.1999999999999
 31
0.0
  0
LINE
  5
DF
330
162
100
AcDbEntity
  8
1
 62
     7
100
AcDbLine
 10
264.8045
 20
158.25
 30
0.0
 11
265.0749999999999
 21
157.9795
 31
0.0
  0
LINE
  5
E0
330
162
100
AcDbEntity
  8
1
 62
     7
100
AcDbLine
 10
235.625
 20
156.0
 30
0.0
 11
235.625
 21
166.0
 31
0.0
  0
LINE
  5
E1
330
162
100
AcDbEntity
  8
1
 62
     7
100
AcDbLine
 10
235.625
 20
141.0
 30
0.0
 11
235.625
 21
156.0
 31
0.0
  0
LINE
  5
E2
330
162
100
AcDbEntity
  8
1
 62
     7
100
AcDbLine
 10
237.0249999999999
 20
156.0
 30
0.0
 11
237.0249999999999
 21
141.0
 31
0.0
  0
LINE
  5
E3
330
162
100
AcDbEntity
  8
1
 62
     7
100
AcDbLine
 10
237.0249999999999
 20
141.0
 30
0.0
 11
237.0249999999999
 21
131.0
 31
0.0
  0
LINE
  5
E4
330
162
100
AcDbEntity
  8
1
 62
     7
100
AcDbLine
 10
237.975
 20
156.0
 30
0.0
 11
237.975
 21
141.0
 31
0.0
  0
LINE
  5
E5
330
162
100
AcDbEntity
  8
1
 62
     7
100
AcDbLine
 10
237.975
 20
141.0
 30
0.0
 11
237.975
 21
140.65
 31
0.0
  0
LINE
  5
E6
330
162
100
AcDbEntity
  8
1
 62
     7
100
AcDbLine
 10
239.1249999999999
 20
156.0
 30
0.0
 11
239.1249999999999
 21
141.0
 31
0.0
  0
LINE
  5
E7
330
162
100
AcDbEntity
  8
1
 62
     7
100
AcDbLine
 10
239.1249999999999
 20
141.0
 30
0.0
 11
239.1249999999999
 21
140.65
 31
0.0
  0
LINE
  5
E8
330
162
100
AcDbEntity
  8
1
 62
     7
100
AcDbLine
 10
250.7249999999999
 20
154.4999999999998
 30
0.0
 11
250.7249999999999
 21
142.5
 31
0.0
  0
LINE
  5
E9
330
162
100
AcDbEntity
  8
1
 62
     7
100
AcDbLine
 10
250.7249999999999
 20
142.5
 30
0.0
 11
250.7249999999999
 21
141.25
 31
0.0
  0
LINE
  5
EA
330
162
100
AcDbEntity
  8
1
 62
     7
100
AcDbLine
 10
256.425
 20
154.4999999999998
 30
0.0
 11
256.425
 21
142.5
 31
0.0
  0
LINE
  5
EB
330
162
100
AcDbEntity
  8
1
 62
     7
100
AcDbLine
 10
257.425
 20
131.0
 30
0.0
 11
257.425
 21
142.5
 31
0.0
  0
LINE
  5
EC
330
162
100
AcDbEntity
  8
1
 62
     7
100
AcDbLine
 10
257.675
 20
151.3284271247461
 30
0.0
 11
257.675
 21
145.4992456657334
 31
0.0
  0
LINE
  5
ED
330
162
100
AcDbEntity
  8
1
 62
     7
100
AcDbLine
 10
257.675
 20
145.4992456657334
 30
0.0
 11
257.675
 21
143.0
 31
0.0
  0
LINE
  5
EE
330
162
100
AcDbEntity
  8
1
 62
     7
100
AcDbLine
 10
266.575
 20
145.4992456657334
 30
0.0
 11
266.575
 21
137.5
 31
0.0
  0
LINE
  5
EF
330
162
100
AcDbEntity
  8
1
 62
     7
100
AcDbLine
 10
266.575
 20
151.3284271247461
 30
0.0
 11
266.575
 21
145.4992456657334
 31
0.0
  0
LINE
  5
F0
330
162
100
AcDbEntity
  8
1
 62
     7
100
AcDbLine
 10
256.425
 20
142.5
 30
0.0
 11
256.425
 21
138.25
 31
0.0
  0
LINE
  5
F1
330
162
100
AcDbEntity
  8
1
 62
     7
100
AcDbLine
 10
257.425
 20
142.5
 30
0.0
 11
257.425
 21
154.4999999999998
 31
0.0
  0
LINE
  5
F2
330
162
100
AcDbEntity
  8
1
 62
     7
100
AcDbLine
 10
257.6249999999999
 20
142.5
 30
0.0
 11
257.6249999999999
 21
154.4999999999998
 31
0.0
  0
LINE
  5
F3
330
162
100
AcDbEntity
  8
1
 62
     7
100
AcDbLine
 10
257.425
 20
154.4999999999998
 30
0.0
 11
257.425
 21
166.0
 31
0.0
  0
LINE
  5
F4
330
162
100
AcDbEntity
  8
1
 62
     7
100
AcDbLine
 10
257.6249999999999
 20
154.4999999999998
 30
0.0
 11
257.6249999999999
 21
166.15
 31
0.0
  0
LINE
  5
F5
330
162
100
AcDbEntity
  8
1
 62
     3
100
AcDbLine
 10
243.025
 20
179.2839745962155
 30
0.0
 11
243.025
 21
182.2847864007397
 31
0.0
  0
LINE
  5
F6
330
162
100
AcDbEntity
  8
1
 62
     7
100
AcDbLine
 10
159.9499999999999
 20
179.2839745962155
 30
0.0
 11
161.6999999999999
 21
179.2839745962155
 31
0.0
  0
LINE
  5
F7
330
162
100
AcDbEntity
  8
1
 62
     3
100
AcDbLine
 10
160.49
 20
179.2839745962155
 30
0.0
 11
160.49
 21
182.2847864007397
 31
0.0
  0
LINE
  5
F8
330
162
100
AcDbEntity
  8
1
 62
     3
100
AcDbLine
 10
161.1599999999999
 20
182.2847864007397
 30
0.0
 11
161.1599999999999
 21
179.2839745962155
 31
0.0
  0
LINE
  5
F9
330
162
100
AcDbEntity
  8
1
 62
     3
100
AcDbLine
 10
160.8249999999999
 20
179.2839745962155
 30
0.0
 11
160.8249999999999
 21
182.2847864007397
 31
0.0
  0
LINE
  5
FA
330
162
100
AcDbEntity
  8
1
 62
     3
100
AcDbLine
 10
334.115
 20
179.2839745962155
 30
0.0
 11
334.115
 21
182.2847864007397
 31
0.0
  0
LINE
  5
FB
330
162
100
AcDbEntity
  8
1
 62
     3
100
AcDbLine
 10
334.7850000000001
 20
182.2847864007397
 30
0.0
 11
334.7850000000001
 21
179.2839745962155
 31
0.0
  0
LINE
  5
FC
330
162
100
AcDbEntity
  8
1
 62
     3
100
AcDbLine
 10
334.45
 20
179.2839745962155
 30
0.0
 11
334.45
 21
182.2847864007397
 31
0.0
  0
LINE
  5
FD
330
162
100
AcDbEntity
  8
1
 62
     7
100
AcDbLine
 10
337.075
 20
179.2839745962155
 30
0.0
 11
333.5749999999999
 21
179.2839745962155
 31
0.0
  0
LINE
  5
FE
330
162
100
AcDbEntity
  8
1
 62
     3
100
AcDbLine
 10
335.865
 20
179.2839745962155
 30
0.0
 11
335.865
 21
182.2847864007397
 31
0.0
  0
LINE
  5
FF
330
162
100
AcDbEntity
  8
1
 62
     3
100
AcDbLine
 10
336.5350000000001
 20
182.2847864007397
 30
0.0
 11
336.5350000000001
 21
179.2839745962155
 31
0.0
  0
LINE
  5
100
330
162
100
AcDbEntity
  8
1
 62
     3
100
AcDbLine
 10
336.2
 20
179.2839745962155
 30
0.0
 11
336.2
 21
182.2847864007397
 31
0.0
  0
ARC
  5
101
330
162
100
AcDbEntity
  8
1
 62
     7
100
AcDbCircle
 10
259.3358798583754
 20
158.4999999999998
 30
0.0
 40
1.0
100
AcDbArc
 50
90.0
 51
163.042236699994
  0
ARC
  5
102
330
162
100
AcDbEntity
  8
1
 62
     7
100
AcDbCircle
 10
259.3358798583754
 20
155.0
 30
0.0
 40
1.000000000000057
100
AcDbArc
 50
196.9577633000058
 51
270.0
  0
ARC
  5
103
330
162
100
AcDbEntity
  8
1
 62
     7
100
AcDbCircle
 10
259.775
 20
159.1999999999999
 30
0.0
 40
0.2999999999998977
100
AcDbArc
 50
0.0
 51
90.0
  0
ARC
  5
104
330
162
100
AcDbEntity
  8
1
 62
     7
100
AcDbCircle
 10
335.325
 20
148.5
 30
0.0
 40
24.24999999999998
100
AcDbArc
 50
313.8091666142884
 51
316.1908333857118
  0
ARC
  5
105
330
162
100
AcDbEntity
  8
1
 62
     7
100
AcDbCircle
 10
335.325000000001
 20
148.499999999999
 30
0.0
 40
24.25000000000002
100
AcDbArc
 50
223.8091666142848
 51
226.1908333857083
  0
ARC
  5
106
330
162
100
AcDbEntity
  8
1
 62
     7
100
AcDbCircle
 10
335.325
 20
148.5
 30
0.0
 40
24.25000000000004
100
AcDbArc
 50
133.8091666142884
 51
136.1908333857115
  0
ARC
  5
107
330
162
100
AcDbEntity
  8
1
 62
     7
100
AcDbCircle
 10
335.325
 20
148.5
 30
0.0
 40
24.25000000000004
100
AcDbArc
 50
43.80916661428837
 51
46.19083338571172
  0
ARC
  5
108
330
162
100
AcDbEntity
  8
1
 62
     7
100
AcDbCircle
 10
335.325
 20
148.5
 30
0.0
 40
17.00000000000001
100
AcDbArc
 50
40.1642486217236
 51
139.8357513782763
  0
ARC
  5
109
330
162
100
AcDbEntity
  8
1
 62
     7
100
AcDbCircle
 10
326.3893978404382
 20
153.6589723121944
 30
0.0
 40
7.082055375611224
100
AcDbArc
 50
124.9375506540884
 51
175.0624493459118
  0
ARC
  5
10A
330
162
100
AcDbEntity
  8
1
 62
     7
100
AcDbCircle
 10
344.2606021595619
 20
153.6589723121944
 30
0.0
 40
7.082055375611137
100
AcDbArc
 50
4.93755065408812
 51
55.06244934591199
  0
ARC
  5
10B
330
162
100
AcDbEntity
  8
1
 62
     7
100
AcDbCircle
 10
335.325
 20
148.5
 30
0.0
 40
17.00000000000001
100
AcDbArc
 50
160.1642486217236
 51
259.8357513782764
  0
ARC
  5
10C
330
162
100
AcDbEntity
  8
1
 62
     7
100
AcDbCircle
 10
335.325
 20
148.5
 30
0.0
 40
16.99999999999999
100
AcDbArc
 50
280.1642486217235
 51
19.83575137827639
  0
ARC
  5
10D
330
162
100
AcDbEntity
  8
1
 62
     7
100
AcDbCircle
 10
335.325
 20
138.1820553756112
 30
0.0
 40
7.082055375611203
100
AcDbArc
 50
244.9375506540886
 51
295.0624493459114
  0
ARC
  5
10E
330
162
100
AcDbEntity
  8
1
 62
     7
100
AcDbCircle
 10
335.325
 20
148.5
 30
0.0
 40
13.5000000000002
100
AcDbArc
 50
101.0348627215233
 51
142.9024233382506
  0
ARC
  5
10F
330
162
100
AcDbEntity
  8
1
 62
     7
100
AcDbCircle
 10
335.325
 20
148.5
 30
0.0
 40
13.50000000000002
100
AcDbArc
 50
157.0975766617494
 51
198.9651372784767
  0
ARC
  5
110
330
162
100
AcDbEntity
  8
1
 62
     7
100
AcDbCircle
 10
335.325
 20
148.5
 30
0.0
 40
13.5
100
AcDbArc
 50
37.09757666174934
 51
78.96513727847704
  0
ARC
  5
111
330
162
100
AcDbEntity
  8
1
 62
     7
100
AcDbCircle
 10
335.325
 20
148.5
 30
0.0
 40
13.49999999999988
100
AcDbArc
 50
341.0348627215229
 51
22.90242333825016
  0
ARC
  5
112
330
162
100
AcDbEntity
  8
1
 62
     7
100
AcDbCircle
 10
335.325
 20
148.5
 30
0.0
 40
13.49999999999997
100
AcDbArc
 50
277.0975766617493
 51
318.9651372784766
  0
ARC
  5
113
330
162
100
AcDbEntity
  8
1
 62
     7
100
AcDbCircle
 10
335.325
 20
148.5
 30
0.0
 40
13.50000000000002
100
AcDbArc
 50
221.034862721523
 51
262.902423338251
  0
ARC
  5
114
330
162
100
AcDbEntity
  8
1
 62
     7
100
AcDbCircle
 10
322.7676316451256
 20
155.75
 30
0.0
 40
1.999999999999995
100
AcDbArc
 50
273.4853766229921
 51
26.51462337701203
  0
ARC
  5
115
330
162
100
AcDbEntity
  8
1
 62
     7
100
AcDbCircle
 10
347.8823683548744
 20
155.75
 30
0.0
 40
2.000000000000035
100
AcDbArc
 50
153.4853766229938
 51
266.5146233770049
  0
ARC
  5
116
330
162
100
AcDbEntity
  8
1
 62
     7
100
AcDbCircle
 10
335.325
 20
134.0
 30
0.0
 40
1.99999999999997
100
AcDbArc
 50
33.4853766229938
 51
146.5146233770074
  0
ARC
  5
117
330
162
100
AcDbEntity
  8
1
 62
     7
100
AcDbCircle
 10
344.0078567308979
 20
140.6579340100518
 30
0.0
 40
0.7000000000000848
100
AcDbArc
 50
60.00000000000722
 51
137.9127067991348
  0
ARC
  5
118
330
162
100
AcDbEntity
  8
1
 62
     7
100
AcDbCircle
 10
344.980171184315
 20
140.0965679986345
 30
0.0
 40
0.6999999999998967
100
AcDbArc
 50
318.965137278466
 51
60.00000000000139
  0
ARC
  5
119
330
162
100
AcDbEntity
  8
1
 62
     7
100
AcDbCircle
 10
347.4301711843149
 20
144.3400924771783
 30
0.0
 40
0.7000000000000317
100
AcDbArc
 50
240.0000000000101
 51
341.0348627215233
  0
ARC
  5
11A
330
162
100
AcDbEntity
  8
1
 62
     7
100
AcDbCircle
 10
346.4578567308979
 20
144.9014584885957
 30
0.0
 40
0.700000000000065
100
AcDbArc
 50
162.0872932008635
 51
239.9999999999975
  0
ARC
  5
11B
330
162
100
AcDbEntity
  8
1
 62
     7
100
AcDbCircle
 10
325.6698288156848
 20
140.0965679986345
 30
0.0
 40
0.69999999999999
100
AcDbArc
 50
120.0000000000026
 51
221.0348627215247
  0
ARC
  5
11C
330
162
100
AcDbEntity
  8
1
 62
     7
100
AcDbCircle
 10
326.642143269102
 20
140.6579340100518
 30
0.0
 40
0.7000000000000748
100
AcDbArc
 50
42.0872932008682
 51
119.9999999999968
  0
ARC
  5
11D
330
162
100
AcDbEntity
  8
1
 62
     7
100
AcDbCircle
 10
324.1921432691019
 20
144.9014584885957
 30
0.0
 40
0.6999999999999618
100
AcDbArc
 50
299.9999999999985
 51
17.91270679913922
  0
ARC
  5
11E
330
162
100
AcDbEntity
  8
1
 62
     7
100
AcDbCircle
 10
323.2198288156848
 20
144.3400924771783
 30
0.0
 40
0.7000000000000626
100
AcDbArc
 50
198.9651372784734
 51
300.0000000000026
  0
ARC
  5
11F
330
162
100
AcDbEntity
  8
1
 62
     7
100
AcDbCircle
 10
332.8749999999997
 20
161.0633395241871
 30
0.0
 40
0.7000000000001024
100
AcDbArc
 50
0.0
 51
101.0348627215222
  0
ARC
  5
120
330
162
100
AcDbEntity
  8
1
 62
     7
100
AcDbCircle
 10
332.8749999999997
 20
159.9406075013524
 30
0.0
 40
0.7000000000000309
100
AcDbArc
 50
282.0872932008762
 51
0.0
  0
ARC
  5
121
330
162
100
AcDbEntity
  8
1
 62
     7
100
AcDbCircle
 10
337.7749999999999
 20
159.9406075013524
 30
0.0
 40
0.6999999999999888
100
AcDbArc
 50
180.0
 51
257.9127067991374
  0
ARC
  5
122
330
162
100
AcDbEntity
  8
1
 62
     7
100
AcDbCircle
 10
337.7749999999999
 20
161.0633395241871
 30
0.0
 40
0.6999999999999039
100
AcDbArc
 50
78.9651372784746
 51
180.0
  0
ARC
  5
123
330
162
100
AcDbEntity
  8
1
  6
DASHDOT
 62
     3
100
AcDbCircle
 10
335.325
 20
148.5
 30
0.0
 40
21.00000000000003
100
AcDbArc
 50
307.7650124486023
 51
322.2349875513981
  0
ARC
  5
124
330
162
100
AcDbEntity
  8
1
  6
DASHDOT
 62
     3
100
AcDbCircle
 10
335.325
 20
148.5
 30
0.0
 40
20.99999999999992
100
AcDbArc
 50
217.7650124486021
 51
232.2349875513974
  0
ARC
  5
125
330
162
100
AcDbEntity
  8
1
  6
DASHDOT
 62
     3
100
AcDbCircle
 10
335.325
 20
148.5
 30
0.0
 40
21.00000000000003
100
AcDbArc
 50
127.7650124486024
 51
142.2349875513975
  0
ARC
  5
126
330
162
100
AcDbEntity
  8
1
  6
DASHDOT
 62
     3
100
AcDbCircle
 10
335.325
 20
148.5
 30
0.0
 40
21.00000000000004
100
AcDbArc
 50
37.76501244860237
 51
52.23498755139758
  0
ARC
  5
127
330
162
100
AcDbEntity
  8
1
 62
     7
100
AcDbCircle
 10
335.325
 20
148.5
 30
0.0
 40
3.00000000000002
100
AcDbArc
 50
109.4712206344905
 51
70.52877936550948
  0
ARC
  5
128
330
162
100
AcDbEntity
  8
1
 62
     7
100
AcDbCircle
 10
265.0749999999999
 20
156.75
 30
0.0
 40
7.000000000000041
100
AcDbArc
 50
163.0422366999955
 51
196.9577633000044
  0
CIRCLE
  5
129
330
162
100
AcDbEntity
  8
1
 62
     7
100
AcDbCircle
 10
322.7676316451256
 20
155.75
 30
0.0
 40
1.75
  0
CIRCLE
  5
12A
330
162
100
AcDbEntity
  8
1
 62
     7
100
AcDbCircle
 10
347.8823683548744
 20
155.75
 30
0.0
 40
1.75
  0
CIRCLE
  5
12B
330
162
100
AcDbEntity
  8
1
 62
     7
100
AcDbCircle
 10
335.325
 20
134.0
 30
0.0
 40
1.75
  0
CIRCLE
  5
12C
330
162
100
AcDbEntity
  8
1
 62
     3
100
AcDbCircle
 10
342.4697095812216
 20
144.375
 30
0.0
 40
1.5
  0
CIRCLE
  5
12D
330
162
100
AcDbEntity
  8
1
 62
     3
100
AcDbCircle
 10
328.1802904187784
 20
144.375
 30
0.0
 40
1.5
  0
CIRCLE
  5
12E
330
162
100
AcDbEntity
  8
1
 62
     3
100
AcDbCircle
 10
335.325
 20
156.75
 30
0.0
 40
1.5
  0
CIRCLE
  5
12F
330
162
100
AcDbEntity
  8
1
 62
     7
100
AcDbCircle
 10
350.1742424049175
 20
133.6507575950824
 30
0.0
 40
1.650000000000034
  0
CIRCLE
  5
130
330
162
100
AcDbEntity
  8
1
 62
     7
100
AcDbCircle
 10
320.4757575950825
 20
133.6507575950824
 30
0.0
 40
1.650000000000034
  0
CIRCLE
  5
131
330
162
100
AcDbEntity
  8
1
 62
     7
100
AcDbCircle
 10
320.4757575950825
 20
163.3492424049175
 30
0.0
 40
1.650000000000034
  0
CIRCLE
  5
132
330
162
100
AcDbEntity
  8
1
 62
     7
100
AcDbCircle
 10
350.1742424049175
 20
163.3492424049175
 30
0.0
 40
1.650000000000034
  0
CIRCLE
  5
133
330
162
100
AcDbEntity
  8
1
 62
     7
100
AcDbCircle
 10
335.325
 20
148.5
 30
0.0
 40
17.65000000000003
  0
CIRCLE
  5
134
330
162
100
AcDbEntity
  8
1
 62
     7
100
AcDbCircle
 10
335.325
 20
148.5
 30
0.0
 40
11.0
  0
CIRCLE
  5
135
330
162
100
AcDbEntity
  8
1
 62
     3
100
AcDbCircle
 10
263.5749999999999
 20
148.5
 30
0.0
 40
1.5
  0
CIRCLE
  5
136
330
162
100
AcDbEntity
  8
1
 62
     7
100
AcDbCircle
 10
263.5749999999999
 20
148.5
 30
0.0
 40
1.22950000000003
  0
CIRCLE
  5
137
330
162
100
AcDbEntity
  8
1
 62
     7
100
AcDbCircle
 10
335.325
 20
156.75
 30
0.0
 40
1.22950000000003
  0
CIRCLE
  5
138
330
162
100
AcDbEntity
  8
1
 62
     7
100
AcDbCircle
 10
328.1802904187784
 20
144.375
 30
0.0
 40
1.229499999999914
  0
CIRCLE
  5
139
330
162
100
AcDbEntity
  8
1
 62
     7
100
AcDbCircle
 10
342.4697095812216
 20
144.375
 30
0.0
 40
1.22950000000003
  0
TEXT
  5
13B
330
162
100
AcDbEntity
  8
1
 62
     7
100
AcDbText
 10
156.5787751855779
 20
209.4936252130408
 30
0.0
 40
3.0
  1
AMB 2.5
 41
0.9
  7
SIMPLEX
100
AcDbText
  0
ENDSEC
  0
SECTION
  2
OBJECTS
  0
DICTIONARY
  5
14E
330
0
100
AcDbDictionary
281
     1
  3
ACAD_COLOR
350
15D
  3
ACAD_GROUP
350
14F
  3
ACAD_LAYOUT
350
15B
  3
ACAD_MATERIAL
350
15C
  3
ACAD_MLINESTYLE
350
158
  3
ACAD_PLOTSETTINGS
350
15A
  3
ACAD_PLOTSTYLENAME
350
150
  0
DICTIONARY
  5
15D
102
{ACAD_REACTORS
330
14E
102
}
330
14E
100
AcDbDictionary
281
     1
  0
DICTIONARY
  5
14F
102
{ACAD_REACTORS
330
14E
102
}
330
14E
100
AcDbDictionary
281
     1
  0
DICTIONARY
  5
15B
102
{ACAD_REACTORS
330
14E
102
}
330
14E
100
AcDbDictionary
281
     1
  3
Layout1
350
161
  3
Model
350
165
  0
DICTIONARY
  5
15C
102
{ACAD_REACTORS
330
14E
102
}
330
14E
100
AcDbDictionary
281
     1
  0
DICTIONARY
  5
158
102
{ACAD_REACTORS
330
14E
102
}
330
14E
100
AcDbDictionary
281
     1
  3
Standard
350
159
  0
DICTIONARY
  5
15A
102
{ACAD_REACTORS
330
14E
102
}
330
14E
100
AcDbDictionary
281
     1
  0
ACDBDICTIONARYWDFLT
  5
150
102
{ACAD_REACTORS
330
14E
102
}
330
14E
100
AcDbDictionary
281
     1
  3
Normal
350
151
100
AcDbDictionaryWithDefault
340
151
  0
LAYOUT
  5
161
102
{ACAD_REACTORS
330
15B
102
}
330
15B
100
AcDbPlotSettings
  1

  2
Microsoft Office Document Image Writer
  4

  6

 40
0.0
 41
0.0
 42
0.0
 43
0.0
 44
0.0
 45
0.0
 46
0.0
 47
0.0
 48
0.0
 49
0.0
140
0.0
141
0.0
142
1.0
143
1.0
 70
   688
 72
     0
 73
     0
 74
     5
  7

 75
    16
147
1.0
 76
     0
 77
     2
 78
   300
148
0.0
149
0.0
100
AcDbLayout
  1
Layout1
 70
     1
 71
     1
 10
0.0
 20
0.0
 11
12.0
 21
9.0
 12
0.0
 22
0.0
 32
0.0
 14
1.000000000000000E+20
 24
1.000000000000000E+20
 34
1.000000000000000E+20
 15
-1.000000000000000E+20
 25
-1.000000000000000E+20
 35
-1.000000000000000E+20
146
0.0
 13
0.0
 23
0.0
 33
0.0
 16
1.0
 26
0.0
 36
0.0
 17
0.0
 27
1.0
 37
0.0
 76
     0
330
15E
  0
LAYOUT
  5
165
102
{ACAD_REACTORS
330
15B
102
}
330
15B
100
AcDbPlotSettings
  1

  2
Microsoft Office Document Image Writer
  4

  6

 40
0.0
 41
0.0
 42
0.0
 43
0.0
 44
0.0
 45
0.0
 46
0.0
 47
0.0
 48
0.0
 49
0.0
140
0.0
141
0.0
142
1.0
143
1.0
 70
  1712
 72
     0
 73
     0
 74
     0
  7

 75
     0
147
1.0
 76
     0
 77
     2
 78
   300
148
0.0
149
0.0
100
AcDbLayout
  1
Model
 70
     1
 71
     0
 10
0.0
 20
0.0
 11
12.0
 21
9.0
 12
0.0
 22
0.0
 32
0.0
 14
0.0
 24
0.0
 34
0.0
 15
0.0
 25
0.0
 35
0.0
146
0.0
 13
0.0
 23
0.0
 33
0.0
 16
1.0
 26
0.0
 36
0.0
 17
0.0
 27
1.0
 37
0.0
 76
     0
330
162
  0
MLINESTYLE
  5
159
102
{ACAD_REACTORS
330
158
102
}
330
158
100
AcDbMlineStyle
  2
STANDARD
 70
     0
  3

 62
   256
 51
90.0
 52
90.0
 71
     2
 49
0.5
 62
   256
  6
BYLAYER
 49
-0.5
 62
   256
  6
BYLAYER
  0
ACDBPLACEHOLDER
  5
151
102
{ACAD_REACTORS
330
150
102
}
330
150
  0
ENDSEC
  0
EOF
