  0
SECTION
  2
HEADER
  9
$ACADVER
  1
AC1018
  9
$ACADMAINTVER
 70
     0
  9
$DWGCODEPAGE
  3
ANSI_932
  9
$INSBASE
 10
0.0
 20
0.0
 30
0.0
  9
$EXTMIN
 10
135.1176992264724
 20
125.3472177326156
 30
-0.0015258207003583
  9
$EXTMAX
 10
374.3823018876223
 20
216.5290764353291
 30
0.0000000349246037
  9
$LIMMIN
 10
135.125
 20
125.35
  9
$LIMMAX
 10
374.3749999999998
 20
216.526293743372
  9
$ORTHOMODE
 70
     0
  9
$REGENMODE
 70
     1
  9
$FILLMODE
 70
     1
  9
$QTEXTMODE
 70
     0
  9
$MIRRTEXT
 70
     1
  9
$LTSCALE
 40
1.0
  9
$ATTMODE
 70
     1
  9
$TEXTSIZE
 40
3.5
  9
$TRACEWID
 40
0.5
  9
$TEXTSTYLE
  7
STANDARD
  9
$CLAYER
  8
0
  9
$CELTYPE
  6
ByLayer
  9
$CECOLOR
 62
   256
  9
$CELTSCALE
 40
1.0
  9
$DISPSILH
 70
     0
  9
$DIMSCALE
 40
1.0
  9
$DIMASZ
 40
0.18
  9
$DIMEXO
 40
0.0625
  9
$DIMDLI
 40
0.38
  9
$DIMRND
 40
0.0
  9
$DIMDLE
 40
0.0
  9
$DIMEXE
 40
0.18
  9
$DIMTP
 40
0.0
  9
$DIMTM
 40
0.0
  9
$DIMTXT
 40
0.18
  9
$DIMCEN
 40
0.09
  9
$DIMTSZ
 40
0.0
  9
$DIMTOL
 70
     0
  9
$DIMLIM
 70
     0
  9
$DIMTIH
 70
     1
  9
$DIMTOH
 70
     1
  9
$DIMSE1
 70
     0
  9
$DIMSE2
 70
     0
  9
$DIMTAD
 70
     0
  9
$DIMZIN
 70
     0
  9
$DIMBLK
  1

  9
$DIMASO
 70
     1
  9
$DIMSHO
 70
     1
  9
$DIMPOST
  1

  9
$DIMAPOST
  1

  9
$DIMALT
 70
     0
  9
$DIMALTD
 70
     2
  9
$DIMALTF
 40
25.4
  9
$DIMLFAC
 40
1.0
  9
$DIMTOFL
 70
     0
  9
$DIMTVP
 40
0.0
  9
$DIMTIX
 70
     0
  9
$DIMSOXD
 70
     0
  9
$DIMSAH
 70
     0
  9
$DIMBLK1
  1

  9
$DIMBLK2
  1

  9
$DIMSTYLE
  2
STANDARD
  9
$DIMCLRD
 70
     0
  9
$DIMCLRE
 70
     0
  9
$DIMCLRT
 70
     0
  9
$DIMTFAC
 40
1.0
  9
$DIMGAP
 40
0.09
  9
$DIMJUST
 70
     0
  9
$DIMSD1
 70
     0
  9
$DIMSD2
 70
     0
  9
$DIMTOLJ
 70
     1
  9
$DIMTZIN
 70
     0
  9
$DIMALTZ
 70
     0
  9
$DIMALTTZ
 70
     0
  9
$DIMUPT
 70
     0
  9
$DIMDEC
 70
     4
  9
$DIMTDEC
 70
     4
  9
$DIMALTU
 70
     2
  9
$DIMALTTD
 70
     2
  9
$DIMTXSTY
  7
STANDARD
  9
$DIMAUNIT
 70
     0
  9
$DIMADEC
 70
     0
  9
$DIMALTRND
 40
0.0
  9
$DIMAZIN
 70
     0
  9
$DIMDSEP
 70
    46
  9
$DIMATFIT
 70
     3
  9
$DIMFRAC
 70
     0
  9
$DIMLDRBLK
  1

  9
$DIMLUNIT
 70
     2
  9
$DIMLWD
 70
    -2
  9
$DIMLWE
 70
    -2
  9
$DIMTMOVE
 70
     0
  9
$LUNITS
 70
     2
  9
$LUPREC
 70
     4
  9
$SKETCHINC
 40
0.1
  9
$FILLETRAD
 40
2.0
  9
$AUNITS
 70
     0
  9
$AUPREC
 70
     0
  9
$MENU
  1
ACAD
  9
$ELEVATION
 40
0.0
  9
$PELEVATION
 40
0.0
  9
$THICKNESS
 40
0.0
  9
$LIMCHECK
 70
     0
  9
$CHAMFERA
 40
0.0
  9
$CHAMFERB
 40
0.0
  9
$CHAMFERC
 40
0.0
  9
$CHAMFERD
 40
0.0
  9
$SKPOLY
 70
     0
  9
$TDCREATE
 40
2452093.897472338
  9
$TDUCREATE
 40
2452094.064139005
  9
$TDUPDATE
 40
2453209.432998044
  9
$TDUUPDATE
 40
2453209.599664710
  9
$TDINDWG
 40
0.0005079630
  9
$TDUSRTIMER
 40
0.0005079630
  9
$USRTIMER
 70
     1
  9
$ANGBASE
 50
0.0
  9
$ANGDIR
 70
     0
  9
$PDMODE
 70
     0
  9
$PDSIZE
 40
0.0
  9
$PLINEWID
 40
0.0
  9
$SPLFRAME
 70
     0
  9
$SPLINETYPE
 70
     6
  9
$SPLINESEGS
 70
     8
  9
$HANDSEED
  5
16E
  9
$SURFTAB1
 70
     6
  9
$SURFTAB2
 70
     6
  9
$SURFTYPE
 70
     6
  9
$SURFU
 70
     6
  9
$SURFV
 70
     6
  9
$UCSBASE
  2

  9
$UCSNAME
  2

  9
$UCSORG
 10
0.0
 20
0.0
 30
0.0
  9
$UCSXDIR
 10
1.0
 20
0.0
 30
0.0
  9
$UCSYDIR
 10
0.0
 20
1.0
 30
0.0
  9
$UCSORTHOREF
  2

  9
$UCSORTHOVIEW
 70
     0
  9
$UCSORGTOP
 10
0.0
 20
0.0
 30
0.0
  9
$UCSORGBOTTOM
 10
0.0
 20
0.0
 30
0.0
  9
$UCSORGLEFT
 10
0.0
 20
0.0
 30
0.0
  9
$UCSORGRIGHT
 10
0.0
 20
0.0
 30
0.0
  9
$UCSORGFRONT
 10
0.0
 20
0.0
 30
0.0
  9
$UCSORGBACK
 10
0.0
 20
0.0
 30
0.0
  9
$PUCSBASE
  2

  9
$PUCSNAME
  2

  9
$PUCSORG
 10
0.0
 20
0.0
 30
0.0
  9
$PUCSXDIR
 10
1.0
 20
0.0
 30
0.0
  9
$PUCSYDIR
 10
0.0
 20
1.0
 30
0.0
  9
$PUCSORTHOREF
  2

  9
$PUCSORTHOVIEW
 70
     0
  9
$PUCSORGTOP
 10
0.0
 20
0.0
 30
0.0
  9
$PUCSORGBOTTOM
 10
0.0
 20
0.0
 30
0.0
  9
$PUCSORGLEFT
 10
0.0
 20
0.0
 30
0.0
  9
$PUCSORGRIGHT
 10
0.0
 20
0.0
 30
0.0
  9
$PUCSORGFRONT
 10
0.0
 20
0.0
 30
0.0
  9
$PUCSORGBACK
 10
0.0
 20
0.0
 30
0.0
  9
$USERI1
 70
     0
  9
$USERI2
 70
     0
  9
$USERI3
 70
     0
  9
$USERI4
 70
     0
  9
$USERI5
 70
     0
  9
$USERR1
 40
0.0
  9
$USERR2
 40
0.0
  9
$USERR3
 40
0.0
  9
$USERR4
 40
0.0
  9
$USERR5
 40
0.0
  9
$WORLDVIEW
 70
     1
  9
$SHADEDGE
 70
     3
  9
$SHADEDIF
 70
    70
  9
$TILEMODE
 70
     1
  9
$MAXACTVP
 70
    64
  9
$PINSBASE
 10
0.0
 20
0.0
 30
0.0
  9
$PLIMCHECK
 70
     0
  9
$PEXTMIN
 10
1.000000000000000E+20
 20
1.000000000000000E+20
 30
1.000000000000000E+20
  9
$PEXTMAX
 10
-1.000000000000000E+20
 20
-1.000000000000000E+20
 30
-1.000000000000000E+20
  9
$PLIMMIN
 10
0.0
 20
0.0
  9
$PLIMMAX
 10
12.0
 20
9.0
  9
$UNITMODE
 70
     0
  9
$VISRETAIN
 70
     1
  9
$PLINEGEN
 70
     0
  9
$PSLTSCALE
 70
     1
  9
$TREEDEPTH
 70
  3020
  9
$CMLSTYLE
  2
Standard
  9
$CMLJUST
 70
     0
  9
$CMLSCALE
 40
1.0
  9
$PROXYGRAPHICS
 70
     1
  9
$MEASUREMENT
 70
     0
  9
$CELWEIGHT
370
    -1
  9
$ENDCAPS
280
     0
  9
$JOINSTYLE
280
     0
  9
$LWDISPLAY
290
     0
  9
$INSUNITS
 70
     0
  9
$HYPERLINKBASE
  1

  9
$STYLESHEET
  1

  9
$XEDIT
290
     1
  9
$CEPSNTYPE
380
     0
  9
$PSTYLEMODE
290
     1
  9
$FINGERPRINTGUID
  2
{CE16B0CA-DA5D-4128-BDC4-08ADB7641AB2}
  9
$VERSIONGUID
  2
{CD36D5E8-6C82-48C4-8602-7B044F84EF4E}
  9
$EXTNAMES
290
     1
  9
$PSVPSCALE
 40
0.0
  9
$OLESTARTUP
290
     0
  9
$SORTENTS
280
   127
  9
$INDEXCTL
280
     0
  9
$HIDETEXT
280
     0
  9
$XCLIPFRAME
290
     0
  9
$HALOGAP
280
     0
  9
$OBSCOLOR
 70
   257
  9
$OBSLTYPE
280
     0
  9
$INTERSECTIONDISPLAY
280
     0
  9
$INTERSECTIONCOLOR
 70
   257
  9
$DIMASSOC
280
     1
  9
$PROJECTNAME
  1

  0
ENDSEC
  0
SECTION
  2
CLASSES
  0
CLASS
  1
ACDBDICTIONARYWDFLT
  2
AcDbDictionaryWithDefault
  3
ObjectDBX Classes
 90
        0
 91
        1
280
     0
281
     0
  0
ENDSEC
  0
SECTION
  2
TABLES
  0
TABLE
  2
VPORT
  5
13B
330
0
100
AcDbSymbolTable
 70
     2
  0
VPORT
  5
16D
330
13B
100
AcDbSymbolTableRecord
100
AcDbViewportTableRecord
  2
*Active
 70
     0
 10
0.0
 20
0.0
 11
1.0
 21
1.0
 12
254.7500005570473
 22
170.9381470839723
 13
0.0
 23
0.0
 14
1.0
 24
1.0
 15
0.0
 25
0.0
 16
0.0
 26
0.0
 36
1.0
 17
0.0
 27
0.0
 37
0.0
 40
148.0572810203052
 41
1.625
 42
50.0
 43
0.0
 44
0.0
 50
0.0
 51
0.0
 71
     0
 72
   100
 73
     1
 74
     1
 75
     0
 76
     0
 77
     0
 78
     0
281
     0
 65
     1
110
0.0
120
0.0
130
0.0
111
1.0
121
0.0
131
0.0
112
0.0
122
1.0
132
0.0
 79
     0
146
0.0
  0
ENDTAB
  0
TABLE
  2
LTYPE
  5
138
330
0
100
AcDbSymbolTable
 70
     9
  0
LTYPE
  5
146
330
138
100
AcDbSymbolTableRecord
100
AcDbLinetypeTableRecord
  2
ByBlock
 70
     0
  3

 72
    65
 73
     0
 40
0.0
  0
LTYPE
  5
147
330
138
100
AcDbSymbolTableRecord
100
AcDbLinetypeTableRecord
  2
ByLayer
 70
     0
  3

 72
    65
 73
     0
 40
0.0
  0
LTYPE
  5
148
330
138
100
AcDbSymbolTableRecord
100
AcDbLinetypeTableRecord
  2
CONTINUOUS
 70
     0
  3
Solid line
 72
    65
 73
     0
 40
0.0
  0
LTYPE
  5
158
330
138
100
AcDbSymbolTableRecord
100
AcDbLinetypeTableRecord
  2
BORDER
 70
     0
  3
__ __ . __ __ .
 72
    65
 73
     6
 40
11.01809210526315
 49
3.14802631578947
 74
     0
 49
-1.574013157894734
 74
     0
 49
3.14802631578947
 74
     0
 49
-1.574013157894734
 74
     0
 49
0.0
 74
     0
 49
-1.574013157894734
 74
     0
  0
LTYPE
  5
159
330
138
100
AcDbSymbolTableRecord
100
AcDbLinetypeTableRecord
  2
CENTER
 70
     0
  3
____ _ ____ _
 72
    65
 73
     4
 40
12.59210526315789
 49
7.870065789473681
 74
     0
 49
-1.574013157894734
 74
     0
 49
1.574013157894734
 74
     0
 49
-1.574013157894734
 74
     0
  0
LTYPE
  5
15A
330
138
100
AcDbSymbolTableRecord
100
AcDbLinetypeTableRecord
  2
DASHDOT
 70
     0
  3
__ . __ . __ .
 72
    65
 73
     4
 40
6.296052631578943
 49
3.14802631578947
 74
     0
 49
-1.574013157894734
 74
     0
 49
0.0
 74
     0
 49
-1.574013157894734
 74
     0
  0
LTYPE
  5
15B
330
138
100
AcDbSymbolTableRecord
100
AcDbLinetypeTableRecord
  2
DASHED
 70
     0
  3
__ __ __ __ __
 72
    65
 73
     2
 40
4.722039473684207
 49
3.14802631578947
 74
     0
 49
-1.574013157894734
 74
     0
  0
LTYPE
  5
15C
330
138
100
AcDbSymbolTableRecord
100
AcDbLinetypeTableRecord
  2
DIVIDE
 70
     0
  3
__ . . __ . . 
 72
    65
 73
     6
 40
7.870065789473681
 49
3.14802631578947
 74
     0
 49
-1.574013157894734
 74
     0
 49
0.0
 74
     0
 49
-1.574013157894734
 74
     0
 49
0.0
 74
     0
 49
-1.574013157894734
 74
     0
  0
LTYPE
  5
15D
330
138
100
AcDbSymbolTableRecord
100
AcDbLinetypeTableRecord
  2
DOT
 70
     0
  3
..............
 72
    65
 73
     4
 40
3.14802631578947
 49
0.0
 74
     0
 49
-1.574013157894734
 74
     0
 49
0.0
 74
     0
 49
-1.574013157894734
 74
     0
  0
LTYPE
  5
15E
330
138
100
AcDbSymbolTableRecord
100
AcDbLinetypeTableRecord
  2
HIDDEN
 70
     0
  3
_ _ _ _ _ _ _
 72
    65
 73
     2
 40
2.361019736842103
 49
1.574013157894734
 74
     0
 49
-0.787006578947368
 74
     0
  0
LTYPE
  5
15F
330
138
100
AcDbSymbolTableRecord
100
AcDbLinetypeTableRecord
  2
PHANTOM
 70
     0
  3
_____ _ _ _____ _ _ 
 72
    65
 73
     6
 40
15.74013157894736
 49
7.870065789473681
 74
     0
 49
-1.574013157894734
 74
     0
 49
1.574013157894734
 74
     0
 49
-1.574013157894734
 74
     0
 49
1.574013157894734
 74
     0
 49
-1.574013157894734
 74
     0
  0
ENDTAB
  0
TABLE
  2
LAYER
  5
135
330
0
100
AcDbSymbolTable
 70
     2
  0
LAYER
  5
143
330
135
100
AcDbSymbolTableRecord
100
AcDbLayerTableRecord
  2
0
 70
     0
 62
     7
  6
CONTINUOUS
370
    -3
390
142
  0
LAYER
  5
160
330
135
100
AcDbSymbolTableRecord
100
AcDbLayerTableRecord
  2
1
 70
     0
 62
     7
  6
CONTINUOUS
370
    -3
390
142
  0
ENDTAB
  0
TABLE
  2
STYLE
  5
136
330
0
100
AcDbSymbolTable
 70
     4
  0
STYLE
  5
144
330
136
100
AcDbSymbolTableRecord
100
AcDbTextStyleTableRecord
  2
STANDARD
 70
     0
 40
0.0
 41
1.0
 50
0.0
 71
     0
 42
3.5
  3
txt
  4

  0
STYLE
  5
161
330
136
100
AcDbSymbolTableRecord
100
AcDbTextStyleTableRecord
  2
SIMPLEX
 70
     0
 40
0.0
 41
1.0
 50
0.0
 71
     0
 42
3.5
  3
simplex
  4

  0
STYLE
  5
162
330
136
100
AcDbSymbolTableRecord
100
AcDbTextStyleTableRecord
  2
COMPLEX
 70
     0
 40
0.0
 41
1.0
 50
0.0
 71
     0
 42
3.5
  3
complex
  4

  0
STYLE
  5
163
330
136
100
AcDbSymbolTableRecord
100
AcDbTextStyleTableRecord
  2
ITALIC
 70
     0
 40
0.0
 41
1.0
 50
0.0
 71
     0
 42
3.5
  3
italic
  4

  0
ENDTAB
  0
TABLE
  2
VIEW
  5
139
330
0
100
AcDbSymbolTable
 70
     0
  0
ENDTAB
  0
TABLE
  2
UCS
  5
13A
330
0
100
AcDbSymbolTable
 70
     0
  0
ENDTAB
  0
TABLE
  2
APPID
  5
13C
330
0
100
AcDbSymbolTable
 70
     1
  0
APPID
  5
145
330
13C
100
AcDbSymbolTableRecord
100
AcDbRegAppTableRecord
  2
ACAD
 70
     0
  0
ENDTAB
  0
TABLE
  2
DIMSTYLE
  5
13D
330
0
100
AcDbSymbolTable
 70
     1
100
AcDbDimStyleTable
 71
     0
  0
DIMSTYLE
105
164
330
13D
100
AcDbSymbolTableRecord
100
AcDbDimStyleTableRecord
  2
STANDARD
 70
     0
279
     2
340
144
  0
ENDTAB
  0
TABLE
  2
BLOCK_RECORD
  5
134
330
0
100
AcDbSymbolTable
 70
     2
  0
BLOCK_RECORD
  5
153
330
134
100
AcDbSymbolTableRecord
100
AcDbBlockTableRecord
  2
*Model_Space
340
156
  0
BLOCK_RECORD
  5
14F
330
134
100
AcDbSymbolTableRecord
100
AcDbBlockTableRecord
  2
*Paper_Space
340
152
  0
BLOCK_RECORD
  5
169
330
134
100
AcDbSymbolTableRecord
100
AcDbBlockTableRecord
  2
$MODEL_SPACE
340
0
  0
BLOCK_RECORD
  5
16B
330
134
100
AcDbSymbolTableRecord
100
AcDbBlockTableRecord
  2
$PAPER_SPACE
340
0
  0
ENDTAB
  0
ENDSEC
  0
SECTION
  2
BLOCKS
  0
BLOCK
  5
154
330
153
100
AcDbEntity
  8
0
100
AcDbBlockBegin
  2
*Model_Space
 70
     0
 10
0.0
 20
0.0
 30
0.0
  3
*Model_Space
  1

  0
ENDBLK
  5
155
330
153
100
AcDbEntity
  8
0
100
AcDbBlockEnd
  0
BLOCK
  5
150
330
14F
100
AcDbEntity
 67
     1
  8
0
100
AcDbBlockBegin
  2
*Paper_Space
 70
     0
 10
0.0
 20
0.0
 30
0.0
  3
*Paper_Space
  1

  0
ENDBLK
  5
151
330
14F
100
AcDbEntity
 67
     1
  8
0
100
AcDbBlockEnd
  0
BLOCK
  5
16A
330
169
100
AcDbEntity
  8
0
100
AcDbBlockBegin
  2
$MODEL_SPACE
 70
     0
 10
0.0
 20
0.0
 30
0.0
  3
$MODEL_SPACE
  1

  0
ENDBLK
  5
20
330
169
100
AcDbEntity
  8
0
100
AcDbBlockEnd
  0
BLOCK
  5
16C
330
16B
100
AcDbEntity
  8
0
100
AcDbBlockBegin
  2
$PAPER_SPACE
 70
     0
 10
0.0
 20
0.0
 30
0.0
  3
$PAPER_SPACE
  1

  0
ENDBLK
  5
1C
330
16B
100
AcDbEntity
  8
0
100
AcDbBlockEnd
  0
ENDSEC
  0
SECTION
  2
ENTITIES
  0
LINE
  5
33
330
153
100
AcDbEntity
  8
1
 62
     3
100
AcDbLine
 10
261.4823244210754
 20
157.2499999999998
 30
0.0
 11
261.9508441645227
 21
157.5204999999999
 31
0.0
  0
LINE
  5
34
330
153
100
AcDbEntity
  8
1
 62
     3
100
AcDbLine
 10
261.9508441645227
 20
157.5204999999999
 30
0.0
 11
266.875
 21
157.5204999999999
 31
0.0
  0
LINE
  5
35
330
153
100
AcDbEntity
  8
1
 62
     7
100
AcDbLine
 10
266.875
 20
157.5204999999999
 30
0.0
 11
270.3749999999999
 21
157.5204999999999
 31
0.0
  0
LINE
  5
36
330
153
100
AcDbEntity
  8
1
 62
     7
100
AcDbLine
 10
266.6044999999999
 20
160.25
 30
0.0
 11
266.875
 21
159.9795
 31
0.0
  0
LINE
  5
37
330
153
100
AcDbEntity
  8
1
 62
     7
100
AcDbLine
 10
266.875
 20
157.5204999999999
 30
0.0
 11
266.6044999999999
 21
157.2499999999998
 31
0.0
  0
LINE
  5
38
330
153
100
AcDbEntity
  8
1
 62
     7
100
AcDbLine
 10
348.225
 20
171.6
 30
0.0
 11
328.7205004499099
 21
171.6
 31
0.0
  0
LINE
  5
39
330
153
100
AcDbEntity
  8
1
 62
     7
100
AcDbLine
 10
348.225
 20
172.0
 30
0.0
 11
354.225
 21
172.0
 31
0.0
  0
LINE
  5
3A
330
153
100
AcDbEntity
  8
1
 62
     7
100
AcDbLine
 10
354.225
 20
172.0
 30
0.0
 11
353.725
 21
172.5
 31
0.0
  0
LINE
  5
3B
330
153
100
AcDbEntity
  8
1
 62
     7
100
AcDbLine
 10
348.725
 20
172.5
 30
0.0
 11
348.225
 21
172.0
 31
0.0
  0
LINE
  5
3C
330
153
100
AcDbEntity
  8
1
 62
     7
100
AcDbLine
 10
348.725
 20
172.5
 30
0.0
 11
353.725
 21
172.5
 31
0.0
  0
LINE
  5
3D
330
153
100
AcDbEntity
  8
1
 62
     7
100
AcDbLine
 10
143.025
 20
172.0
 30
0.0
 11
149.025
 21
172.0
 31
0.0
  0
LINE
  5
3E
330
153
100
AcDbEntity
  8
1
 62
     7
100
AcDbLine
 10
149.025
 20
172.0
 30
0.0
 11
148.525
 21
172.5
 31
0.0
  0
LINE
  5
3F
330
153
100
AcDbEntity
  8
1
 62
     7
100
AcDbLine
 10
143.525
 20
172.5
 30
0.0
 11
143.025
 21
172.0
 31
0.0
  0
LINE
  5
40
330
153
100
AcDbEntity
  8
1
 62
     7
100
AcDbLine
 10
149.025
 20
171.5
 30
0.0
 11
149.025
 21
172.0
 31
0.0
  0
LINE
  5
41
330
153
100
AcDbEntity
  8
1
 62
     7
100
AcDbLine
 10
143.525
 20
172.5
 30
0.0
 11
148.525
 21
172.5
 31
0.0
  0
LINE
  5
42
330
153
100
AcDbEntity
  8
1
 62
     7
100
AcDbLine
 10
143.025
 20
171.5
 30
0.0
 11
143.025
 21
172.0
 31
0.0
  0
LINE
  5
43
330
153
100
AcDbEntity
  8
1
  6
DASHDOT
 62
     3
100
AcDbLine
 10
180.875
 20
148.5
 30
0.0
 11
177.875
 21
148.5
 31
0.0
  0
LINE
  5
44
330
153
100
AcDbEntity
  8
1
 62
     7
100
AcDbLine
 10
177.875
 20
135.4999999999998
 30
0.0
 11
168.675
 21
135.4999999999998
 31
0.0
  0
LINE
  5
45
330
153
100
AcDbEntity
  8
1
 62
     7
100
AcDbLine
 10
168.675
 20
161.5
 30
0.0
 11
177.875
 21
161.5
 31
0.0
  0
LINE
  5
46
330
153
100
AcDbEntity
  8
1
 62
     7
100
AcDbLine
 10
352.475
 20
153.3999999999998
 30
0.0
 11
352.475
 21
152.2996710383926
 31
0.0
  0
LINE
  5
47
330
153
100
AcDbEntity
  8
1
 62
     7
100
AcDbLine
 10
349.975
 20
153.3999999999998
 30
0.0
 11
352.475
 21
153.3999999999998
 31
0.0
  0
LINE
  5
48
330
153
100
AcDbEntity
  8
1
 62
     7
100
AcDbLine
 10
349.975
 20
152.2996710383926
 30
0.0
 11
349.975
 21
153.3999999999998
 31
0.0
  0
LINE
  5
49
330
153
100
AcDbEntity
  8
1
 62
     7
100
AcDbLine
 10
169.175
 20
130.4499999999999
 30
0.0
 11
168.675
 21
130.4499999999999
 31
0.0
  0
LINE
  5
4A
330
153
100
AcDbEntity
  8
1
 62
     7
100
AcDbLine
 10
169.175
 20
130.4499999999999
 30
0.0
 11
169.175
 21
126.0499999999999
 31
0.0
  0
LINE
  5
4B
330
153
100
AcDbEntity
  8
1
 62
     7
100
AcDbLine
 10
169.175
 20
126.0499999999999
 30
0.0
 11
168.675
 21
126.0499999999999
 31
0.0
  0
LINE
  5
4C
330
153
100
AcDbEntity
  8
1
 62
     7
100
AcDbLine
 10
168.375
 20
171.0
 30
0.0
 11
168.675
 21
171.0
 31
0.0
  0
LINE
  5
4D
330
153
100
AcDbEntity
  8
1
 62
     7
100
AcDbLine
 10
168.675
 20
171.0
 30
0.0
 11
168.675
 21
126.0
 31
0.0
  0
LINE
  5
4E
330
153
100
AcDbEntity
  8
1
 62
     7
100
AcDbLine
 10
168.675
 20
126.0
 30
0.0
 11
168.375
 21
126.0
 31
0.0
  0
LINE
  5
4F
330
153
100
AcDbEntity
  8
1
 62
     7
100
AcDbLine
 10
348.725
 20
162.0554417117259
 30
0.0
 11
348.725
 21
165.135804759614
 31
0.0
  0
LINE
  5
50
330
153
100
AcDbEntity
  8
1
 62
     7
100
AcDbLine
 10
335.567970465776
 20
142.347161129654
 30
0.0
 11
338.2356431181261
 21
143.8873426535981
 31
0.0
  0
LINE
  5
51
330
153
100
AcDbEntity
  8
1
 62
     7
100
AcDbLine
 10
364.2143568818738
 20
143.8873426535981
 30
0.0
 11
366.8820295342237
 21
142.347161129654
 31
0.0
  0
LINE
  5
52
330
153
100
AcDbEntity
  8
1
 62
     7
100
AcDbLine
 10
340.735643118126
 20
139.5572156346759
 30
0.0
 11
338.0679704657761
 21
138.0170341107318
 31
0.0
  0
LINE
  5
53
330
153
100
AcDbEntity
  8
1
 62
     7
100
AcDbLine
 10
353.725
 20
165.135804759614
 30
0.0
 11
353.725
 21
162.0554417117259
 31
0.0
  0
LINE
  5
54
330
153
100
AcDbEntity
  8
1
 62
     7
100
AcDbLine
 10
364.3820295342238
 20
138.0170341107319
 30
0.0
 11
361.7143568818737
 21
139.5572156346759
 31
0.0
  0
LINE
  5
55
330
153
100
AcDbEntity
  8
1
 62
     7
100
AcDbLine
 10
165.925
 20
171.65
 30
0.0
 11
165.925
 21
125.35
 31
0.0
  0
LINE
  5
56
330
153
100
AcDbEntity
  8
1
 62
     7
100
AcDbLine
 10
168.375
 20
171.65
 30
0.0
 11
168.375
 21
125.35
 31
0.0
  0
LINE
  5
57
330
153
100
AcDbEntity
  8
1
 62
     7
100
AcDbLine
 10
165.925
 20
171.65
 30
0.0
 11
168.375
 21
171.65
 31
0.0
  0
LINE
  5
58
330
153
100
AcDbEntity
  8
1
 62
     7
100
AcDbLine
 10
168.375
 20
125.35
 30
0.0
 11
165.925
 21
125.35
 31
0.0
  0
LINE
  5
59
330
153
100
AcDbEntity
  8
1
 62
     7
100
AcDbLine
 10
165.675
 20
125.5
 30
0.0
 11
141.525
 21
125.5
 31
0.0
  0
LINE
  5
5A
330
153
100
AcDbEntity
  8
1
 62
     7
100
AcDbLine
 10
165.675
 20
171.5
 30
0.0
 11
165.675
 21
125.5
 31
0.0
  0
LINE
  5
5B
330
153
100
AcDbEntity
  8
1
 62
     7
100
AcDbLine
 10
373.7294995500897
 20
125.4
 30
0.0
 11
352.7456906325746
 21
125.4
 31
0.0
  0
LINE
  5
5C
330
153
100
AcDbEntity
  8
1
 62
     7
100
AcDbLine
 10
374.3249999999999
 20
171.00449955009
 30
0.0
 11
374.3249999999999
 21
150.0206906325745
 31
0.0
  0
LINE
  5
5D
330
153
100
AcDbEntity
  8
1
 62
     7
100
AcDbLine
 10
373.7294995500897
 20
171.6
 30
0.0
 11
354.225
 21
171.6
 31
0.0
  0
LINE
  5
5E
330
153
100
AcDbEntity
  8
1
 62
     7
100
AcDbLine
 10
138.125
 20
125.4
 30
0.0
 11
138.125
 21
171.6
 31
0.0
  0
LINE
  5
5F
330
153
100
AcDbEntity
  8
1
 62
     7
100
AcDbLine
 10
139.525
 20
125.4
 30
0.0
 11
139.525
 21
171.6
 31
0.0
  0
LINE
  5
60
330
153
100
AcDbEntity
  8
1
 62
     7
100
AcDbLine
 10
138.125
 20
125.4
 30
0.0
 11
139.525
 21
125.4
 31
0.0
  0
LINE
  5
61
330
153
100
AcDbEntity
  8
1
 62
     7
100
AcDbLine
 10
139.525
 20
171.6
 30
0.0
 11
138.125
 21
171.6
 31
0.0
  0
LINE
  5
62
330
153
100
AcDbEntity
  8
1
 62
     7
100
AcDbLine
 10
139.525
 20
169.5
 30
0.0
 11
141.525
 21
171.5
 31
0.0
  0
LINE
  5
63
330
153
100
AcDbEntity
  8
1
 62
     7
100
AcDbLine
 10
139.525
 20
127.5
 30
0.0
 11
141.525
 21
125.5
 31
0.0
  0
LINE
  5
64
330
153
100
AcDbEntity
  8
1
 62
     7
100
AcDbLine
 10
328.125
 20
125.99550044991
 30
0.0
 11
328.125
 21
146.9793093674253
 31
0.0
  0
LINE
  5
65
330
153
100
AcDbEntity
  8
1
 62
     7
100
AcDbLine
 10
349.475
 20
172.5
 30
0.0
 11
349.475
 21
187.4999999999999
 31
0.0
  0
LINE
  5
66
330
153
100
AcDbEntity
  8
1
 62
     7
100
AcDbLine
 10
352.975
 20
172.5
 30
0.0
 11
352.975
 21
187.5
 31
0.0
  0
LINE
  5
67
330
153
100
AcDbEntity
  8
1
 62
     7
100
AcDbLine
 10
351.225
 20
172.5
 30
0.0
 11
351.225
 21
187.4999999999999
 31
0.0
  0
LINE
  5
68
330
153
100
AcDbEntity
  8
1
 62
     7
100
AcDbLine
 10
146.9
 20
187.4999999999999
 30
0.0
 11
146.9
 21
172.5
 31
0.0
  0
LINE
  5
69
330
153
100
AcDbEntity
  8
1
 62
     7
100
AcDbLine
 10
145.15
 20
187.4999999999999
 30
0.0
 11
145.15
 21
172.5
 31
0.0
  0
LINE
  5
6A
330
153
100
AcDbEntity
  8
1
 62
     7
100
AcDbLine
 10
141.525
 20
125.5
 30
0.0
 11
141.525
 21
171.5
 31
0.0
  0
LINE
  5
6B
330
153
100
AcDbEntity
  8
1
 62
     7
100
AcDbLine
 10
165.675
 20
171.5
 30
0.0
 11
141.525
 21
171.5
 31
0.0
  0
LINE
  5
6C
330
153
100
AcDbEntity
  8
1
 62
     7
100
AcDbLine
 10
177.875
 20
135.4999999999998
 30
0.0
 11
177.875
 21
161.5
 31
0.0
  0
LINE
  5
6D
330
153
100
AcDbEntity
  8
1
 62
     7
100
AcDbLine
 10
234.125
 20
160.0
 30
0.0
 11
234.125
 21
159.4999999999998
 31
0.0
  0
LINE
  5
6E
330
153
100
AcDbEntity
  8
1
 62
     7
100
AcDbLine
 10
237.65
 20
187.4999999999999
 30
0.0
 11
239.4
 21
187.4999999999999
 31
0.0
  0
LINE
  5
6F
330
153
100
AcDbEntity
  8
1
 62
     3
100
AcDbLine
 10
238.1899999999999
 20
187.4999999999999
 30
0.0
 11
238.1899999999999
 21
190.4999999999999
 31
0.0
  0
LINE
  5
70
330
153
100
AcDbEntity
  8
1
 62
     3
100
AcDbLine
 10
238.86
 20
190.4999999999999
 30
0.0
 11
238.86
 21
187.4999999999999
 31
0.0
  0
LINE
  5
71
330
153
100
AcDbEntity
  8
1
 62
     7
100
AcDbLine
 10
232.025
 20
127.5
 30
0.0
 11
234.025
 21
125.5
 31
0.0
  0
LINE
  5
72
330
153
100
AcDbEntity
  8
1
 62
     7
100
AcDbLine
 10
232.025
 20
169.5
 30
0.0
 11
234.025
 21
171.5
 31
0.0
  0
LINE
  5
73
330
153
100
AcDbEntity
  8
1
 62
     7
100
AcDbLine
 10
252.425
 20
170.1999999999999
 30
0.0
 11
252.425
 21
159.1999999999999
 31
0.0
  0
LINE
  5
74
330
153
100
AcDbEntity
  8
1
 62
     7
100
AcDbLine
 10
232.025
 20
171.6
 30
0.0
 11
230.6249999999999
 21
171.6
 31
0.0
  0
LINE
  5
75
330
153
100
AcDbEntity
  8
1
 62
     7
100
AcDbLine
 10
230.6249999999999
 20
125.4
 30
0.0
 11
232.025
 21
125.4
 31
0.0
  0
LINE
  5
76
330
153
100
AcDbEntity
  8
1
 62
     7
100
AcDbLine
 10
234.125
 20
160.0
 30
0.0
 11
232.975
 21
160.0
 31
0.0
  0
LINE
  5
77
330
153
100
AcDbEntity
  8
1
 62
     7
100
AcDbLine
 10
232.975
 20
160.0
 30
0.0
 11
232.975
 21
159.4999999999998
 31
0.0
  0
LINE
  5
78
330
153
100
AcDbEntity
  8
1
 62
     7
100
AcDbLine
 10
230.6249999999999
 20
159.4999999999998
 30
0.0
 11
232.975
 21
159.4999999999998
 31
0.0
  0
LINE
  5
79
330
153
100
AcDbEntity
  8
1
 62
     7
100
AcDbLine
 10
232.025
 20
125.4
 30
0.0
 11
232.025
 21
137.5
 31
0.0
  0
LINE
  5
7A
330
153
100
AcDbEntity
  8
1
 62
     7
100
AcDbLine
 10
230.6249999999999
 20
125.4
 30
0.0
 11
230.6249999999999
 21
137.5
 31
0.0
  0
LINE
  5
7B
330
153
100
AcDbEntity
  8
1
 62
     7
100
AcDbLine
 10
234.125
 20
159.4999999999998
 30
0.0
 11
252.425
 21
159.4999999999998
 31
0.0
  0
LINE
  5
7C
330
153
100
AcDbEntity
  8
1
 62
     7
100
AcDbLine
 10
234.025
 20
171.5
 30
0.0
 11
258.1749999999999
 21
171.5
 31
0.0
  0
LINE
  5
7D
330
153
100
AcDbEntity
  8
1
 62
     7
100
AcDbLine
 10
252.425
 20
165.0
 30
0.0
 11
252.7249999999999
 21
165.0
 31
0.0
  0
LINE
  5
7E
330
153
100
AcDbEntity
  8
1
 62
     7
100
AcDbLine
 10
252.7249999999999
 20
159.1999999999999
 30
0.0
 11
252.7249999999999
 21
170.1999999999999
 31
0.0
  0
LINE
  5
7F
330
153
100
AcDbEntity
  8
1
 62
     7
100
AcDbLine
 10
252.425
 20
159.25
 30
0.0
 11
252.7249999999999
 21
159.25
 31
0.0
  0
LINE
  5
80
330
153
100
AcDbEntity
  8
1
 62
     7
100
AcDbLine
 10
250.7249999999999
 20
159.1999999999999
 30
0.0
 11
250.7249999999999
 21
157.5
 31
0.0
  0
LINE
  5
81
330
153
100
AcDbEntity
  8
1
 62
     7
100
AcDbLine
 10
250.7249999999999
 20
159.1999999999999
 30
0.0
 11
252.7249999999999
 21
159.1999999999999
 31
0.0
  0
LINE
  5
82
330
153
100
AcDbEntity
  8
1
 62
     7
100
AcDbLine
 10
252.7249999999999
 20
164.5
 30
0.0
 11
258.1749999999999
 21
164.5
 31
0.0
  0
LINE
  5
83
330
153
100
AcDbEntity
  8
1
 62
     7
100
AcDbLine
 10
257.3249999999999
 20
161.15
 30
0.0
 11
257.3249999999999
 21
157.5
 31
0.0
  0
LINE
  5
84
330
153
100
AcDbEntity
  8
1
 62
     7
100
AcDbLine
 10
257.0249999999999
 20
164.5
 30
0.0
 11
257.0249999999999
 21
170.1999999999999
 31
0.0
  0
LINE
  5
85
330
153
100
AcDbEntity
  8
1
 62
     7
100
AcDbLine
 10
258.1749999999999
 20
171.5
 30
0.0
 11
258.1749999999999
 21
157.5
 31
0.0
  0
LINE
  5
86
330
153
100
AcDbEntity
  8
1
 62
     7
100
AcDbLine
 10
258.1749999999999
 20
125.5
 30
0.0
 11
234.025
 21
125.5
 31
0.0
  0
LINE
  5
87
330
153
100
AcDbEntity
  8
1
 62
     7
100
AcDbLine
 10
258.1749999999999
 20
170.1999999999999
 30
0.0
 11
252.425
 21
170.1999999999999
 31
0.0
  0
LINE
  5
88
330
153
100
AcDbEntity
  8
1
 62
     7
100
AcDbLine
 10
260.875
 20
125.35
 30
0.0
 11
258.425
 21
125.35
 31
0.0
  0
LINE
  5
89
330
153
100
AcDbEntity
  8
1
 62
     7
100
AcDbLine
 10
260.875
 20
125.35
 30
0.0
 11
260.875
 21
126.8499999999998
 31
0.0
  0
LINE
  5
8A
330
153
100
AcDbEntity
  8
1
 62
     7
100
AcDbLine
 10
258.425
 20
171.65
 30
0.0
 11
260.875
 21
171.65
 31
0.0
  0
LINE
  5
8B
330
153
100
AcDbEntity
  8
1
 62
     7
100
AcDbLine
 10
260.875
 20
171.65
 30
0.0
 11
260.875
 21
156.0
 31
0.0
  0
LINE
  5
8C
330
153
100
AcDbEntity
  8
1
 62
     7
100
AcDbLine
 10
258.425
 20
171.65
 30
0.0
 11
258.425
 21
157.5
 31
0.0
  0
LINE
  5
8D
330
153
100
AcDbEntity
  8
1
 62
     7
100
AcDbLine
 10
260.875
 20
162.05
 30
0.0
 11
258.425
 21
162.05
 31
0.0
  0
LINE
  5
8E
330
153
100
AcDbEntity
  8
1
 62
     7
100
AcDbLine
 10
261.175
 20
126.0
 30
0.0
 11
260.875
 21
126.0
 31
0.0
  0
LINE
  5
8F
330
153
100
AcDbEntity
  8
1
 62
     7
100
AcDbLine
 10
261.175
 20
171.0
 30
0.0
 11
261.175
 21
160.25
 31
0.0
  0
LINE
  5
90
330
153
100
AcDbEntity
  8
1
 62
     7
100
AcDbLine
 10
260.875
 20
171.0
 30
0.0
 11
261.175
 21
171.0
 31
0.0
  0
LINE
  5
91
330
153
100
AcDbEntity
  8
1
 62
     7
100
AcDbLine
 10
261.675
 20
126.0499999999999
 30
0.0
 11
261.175
 21
126.0499999999999
 31
0.0
  0
LINE
  5
92
330
153
100
AcDbEntity
  8
1
 62
     7
100
AcDbLine
 10
261.675
 20
130.4499999999999
 30
0.0
 11
261.675
 21
126.0499999999999
 31
0.0
  0
LINE
  5
93
330
153
100
AcDbEntity
  8
1
 62
     7
100
AcDbLine
 10
261.675
 20
130.4499999999999
 30
0.0
 11
261.175
 21
130.4499999999999
 31
0.0
  0
LINE
  5
94
330
153
100
AcDbEntity
  8
1
 62
     7
100
AcDbLine
 10
258.475
 20
153.3999999999998
 30
0.0
 11
270.3749999999999
 21
153.3999999999998
 31
0.0
  0
LINE
  5
95
330
153
100
AcDbEntity
  8
1
 62
     7
100
AcDbLine
 10
258.475
 20
152.2996710383926
 30
0.0
 11
270.3749999999999
 21
152.2996710383926
 31
0.0
  0
LINE
  5
96
330
153
100
AcDbEntity
  8
1
 62
     7
100
AcDbLine
 10
258.475
 20
156.0
 30
0.0
 11
261.175
 21
156.0
 31
0.0
  0
LINE
  5
97
330
153
100
AcDbEntity
  8
1
 62
     7
100
AcDbLine
 10
261.175
 20
161.5
 30
0.0
 11
270.3749999999999
 21
161.5
 31
0.0
  0
LINE
  5
98
330
153
100
AcDbEntity
  8
1
 62
     7
100
AcDbLine
 10
270.3749999999999
 20
161.5
 30
0.0
 11
270.3749999999999
 21
152.2996710383926
 31
0.0
  0
LINE
  5
99
330
153
100
AcDbEntity
  8
1
 62
     7
100
AcDbLine
 10
270.3749999999999
 20
135.4999999999998
 30
0.0
 11
261.175
 21
135.4999999999998
 31
0.0
  0
LINE
  5
9A
330
153
100
AcDbEntity
  8
1
 62
     3
100
AcDbLine
 10
270.3749999999999
 20
160.25
 30
0.0
 11
266.6044999999999
 21
160.25
 31
0.0
  0
LINE
  5
9B
330
153
100
AcDbEntity
  8
1
 62
     3
100
AcDbLine
 10
270.3749999999999
 20
157.2499999999998
 30
0.0
 11
266.6044999999999
 21
157.2499999999998
 31
0.0
  0
LINE
  5
9C
330
153
100
AcDbEntity
  8
1
 62
     7
100
AcDbLine
 10
270.3749999999999
 20
159.9795
 30
0.0
 11
266.875
 21
159.9795
 31
0.0
  0
LINE
  5
9D
330
153
100
AcDbEntity
  8
1
 62
     7
100
AcDbLine
 10
260.1358798583756
 20
161.5
 30
0.0
 11
260.575
 21
161.5
 31
0.0
  0
LINE
  5
9E
330
153
100
AcDbEntity
  8
1
 62
     7
100
AcDbLine
 10
260.875
 20
160.25
 30
0.0
 11
266.6044999999999
 21
160.25
 31
0.0
  0
LINE
  5
9F
330
153
100
AcDbEntity
  8
1
 62
     7
100
AcDbLine
 10
266.875
 20
159.9795
 30
0.0
 11
266.875
 21
157.5204999999999
 31
0.0
  0
LINE
  5
A0
330
153
100
AcDbEntity
  8
1
 62
     7
100
AcDbLine
 10
266.6044999999999
 20
157.2499999999998
 30
0.0
 11
260.875
 21
157.2499999999998
 31
0.0
  0
LINE
  5
A1
330
153
100
AcDbEntity
  8
1
 62
     7
100
AcDbLine
 10
266.6044999999999
 20
160.25
 30
0.0
 11
266.6044999999999
 21
157.2499999999998
 31
0.0
  0
LINE
  5
A2
330
153
100
AcDbEntity
  8
1
 62
     7
100
AcDbLine
 10
261.9508441645227
 20
160.25
 30
0.0
 11
261.9508441645227
 21
157.2499999999998
 31
0.0
  0
LINE
  5
A3
330
153
100
AcDbEntity
  8
1
 62
     3
100
AcDbLine
 10
266.875
 20
159.9795
 30
0.0
 11
261.9508441645227
 21
159.9795
 31
0.0
  0
LINE
  5
A4
330
153
100
AcDbEntity
  8
1
 62
     3
100
AcDbLine
 10
261.9508441645227
 20
159.9795
 30
0.0
 11
261.4823244210754
 21
160.25
 31
0.0
  0
LINE
  5
A5
330
153
100
AcDbEntity
  8
1
 62
     7
100
AcDbLine
 10
261.175
 20
157.2499999999998
 30
0.0
 11
261.175
 21
156.0
 31
0.0
  0
LINE
  5
A6
330
153
100
AcDbEntity
  8
1
 62
     7
100
AcDbLine
 10
258.475
 20
156.0
 30
0.0
 11
258.475
 21
152.2996710383926
 31
0.0
  0
LINE
  5
A7
330
153
100
AcDbEntity
  8
1
 62
     7
100
AcDbLine
 10
235.525
 20
171.5
 30
0.0
 11
235.525
 21
172.0
 31
0.0
  0
LINE
  5
A8
330
153
100
AcDbEntity
  8
1
 62
     7
100
AcDbLine
 10
236.025
 20
172.5
 30
0.0
 11
241.025
 21
172.5
 31
0.0
  0
LINE
  5
A9
330
153
100
AcDbEntity
  8
1
 62
     7
100
AcDbLine
 10
241.5249999999999
 20
171.5
 30
0.0
 11
241.5249999999999
 21
172.0
 31
0.0
  0
LINE
  5
AA
330
153
100
AcDbEntity
  8
1
 62
     7
100
AcDbLine
 10
236.025
 20
172.5
 30
0.0
 11
235.525
 21
172.0
 31
0.0
  0
LINE
  5
AB
330
153
100
AcDbEntity
  8
1
 62
     7
100
AcDbLine
 10
241.5249999999999
 20
172.0
 30
0.0
 11
241.025
 21
172.5
 31
0.0
  0
LINE
  5
AC
330
153
100
AcDbEntity
  8
1
  6
DASHDOT
 62
     3
100
AcDbLine
 10
351.225
 20
150.0
 30
0.0
 11
351.225
 21
147.0
 31
0.0
  0
LINE
  5
AD
330
153
100
AcDbEntity
  8
1
  6
DASHDOT
 62
     3
100
AcDbLine
 10
349.725
 20
148.5
 30
0.0
 11
352.725
 21
148.5
 31
0.0
  0
LINE
  5
AE
330
153
100
AcDbEntity
  8
1
  6
DASHDOT
 62
     3
100
AcDbLine
 10
368.7258928343671
 20
166.000892834367
 30
0.0
 11
373.3220869120795
 21
170.5970869120795
 31
0.0
  0
LINE
  5
AF
330
153
100
AcDbEntity
  8
1
  6
DASHDOT
 62
     3
100
AcDbLine
 10
333.7241071656328
 20
166.000892834367
 30
0.0
 11
329.1279130879203
 21
170.5970869120795
 31
0.0
  0
LINE
  5
B0
330
153
100
AcDbEntity
  8
1
  6
DASHDOT
 62
     3
100
AcDbLine
 10
333.7241071656328
 20
130.9991071656328
 30
0.0
 11
329.1279130879203
 21
126.4029130879203
 31
0.0
  0
LINE
  5
B1
330
153
100
AcDbEntity
  8
1
  6
DASHDOT
 62
     3
100
AcDbLine
 10
368.7258928343671
 20
130.9991071656328
 30
0.0
 11
373.3220869120795
 21
126.4029130879203
 31
0.0
  0
LINE
  5
B2
330
153
100
AcDbEntity
  8
1
  6
DASHDOT
 62
     3
100
AcDbLine
 10
138.125
 20
148.5
 30
0.0
 11
135.125
 21
148.5
 31
0.0
  0
LINE
  5
B3
330
153
100
AcDbEntity
  8
1
 62
     7
100
AcDbLine
 10
349.7043093674251
 20
125.4
 30
0.0
 11
328.7205004499099
 21
125.4
 31
0.0
  0
LINE
  5
B4
330
153
100
AcDbEntity
  8
1
 62
     7
100
AcDbLine
 10
328.125
 20
150.0206906325746
 30
0.0
 11
328.125
 21
171.00449955009
 31
0.0
  0
LINE
  5
B5
330
153
100
AcDbEntity
  8
1
 62
     7
100
AcDbLine
 10
374.3249999999999
 20
146.9793093674254
 30
0.0
 11
374.3249999999999
 21
125.99550044991
 31
0.0
  0
LINE
  5
B6
330
153
100
AcDbEntity
  8
1
 62
     7
100
AcDbLine
 10
348.225
 20
171.4547925279231
 30
0.0
 11
348.225
 21
172.0
 31
0.0
  0
LINE
  5
B7
330
153
100
AcDbEntity
  8
1
 62
     7
100
AcDbLine
 10
354.225
 20
171.4547925279231
 30
0.0
 11
354.225
 21
172.0
 31
0.0
  0
LINE
  5
B8
330
153
100
AcDbEntity
  8
1
 62
     7
100
AcDbLine
 10
138.125
 20
125.99550044991
 30
0.0
 11
139.525
 21
125.99550044991
 31
0.0
  0
LINE
  5
B9
330
153
100
AcDbEntity
  8
1
 62
     7
100
AcDbLine
 10
138.125
 20
171.00449955009
 30
0.0
 11
139.525
 21
171.00449955009
 31
0.0
  0
LINE
  5
BA
330
153
100
AcDbEntity
  8
1
 62
     7
100
AcDbLine
 10
239.4
 20
172.5
 30
0.0
 11
239.4
 21
187.4999999999999
 31
0.0
  0
LINE
  5
BB
330
153
100
AcDbEntity
  8
1
 62
     7
100
AcDbLine
 10
237.65
 20
172.5
 30
0.0
 11
237.65
 21
187.4999999999999
 31
0.0
  0
LINE
  5
BC
330
153
100
AcDbEntity
  8
1
 62
     7
100
AcDbLine
 10
270.3749999999999
 20
144.5
 30
0.0
 11
258.475
 21
144.5
 31
0.0
  0
LINE
  5
BD
330
153
100
AcDbEntity
  8
1
 62
     7
100
AcDbLine
 10
232.975
 20
137.0
 30
0.0
 11
234.125
 21
137.0
 31
0.0
  0
LINE
  5
BE
330
153
100
AcDbEntity
  8
1
 62
     7
100
AcDbLine
 10
232.975
 20
137.5
 30
0.0
 11
230.6249999999999
 21
137.5
 31
0.0
  0
LINE
  5
BF
330
153
100
AcDbEntity
  8
1
 62
     7
100
AcDbLine
 10
252.425
 20
137.5
 30
0.0
 11
234.125
 21
137.5
 31
0.0
  0
LINE
  5
C0
330
153
100
AcDbEntity
  8
1
 62
     7
100
AcDbLine
 10
257.3249999999999
 20
135.85
 30
0.0
 11
258.1749999999999
 21
135.0
 31
0.0
  0
LINE
  5
C1
330
153
100
AcDbEntity
  8
1
 62
     7
100
AcDbLine
 10
258.1749999999999
 20
132.4999999999998
 30
0.0
 11
252.7249999999999
 21
132.4999999999998
 31
0.0
  0
LINE
  5
C2
330
153
100
AcDbEntity
  8
1
 62
     7
100
AcDbLine
 10
257.0249999999999
 20
126.8
 30
0.0
 11
257.0249999999999
 21
132.4999999999998
 31
0.0
  0
LINE
  5
C3
330
153
100
AcDbEntity
  8
1
 62
     7
100
AcDbLine
 10
252.425
 20
137.8
 30
0.0
 11
252.425
 21
126.8
 31
0.0
  0
LINE
  5
C4
330
153
100
AcDbEntity
  8
1
 62
     7
100
AcDbLine
 10
252.7249999999999
 20
132.0
 30
0.0
 11
252.425
 21
132.0
 31
0.0
  0
LINE
  5
C5
330
153
100
AcDbEntity
  8
1
 62
     7
100
AcDbLine
 10
252.7249999999999
 20
137.7499999999998
 30
0.0
 11
252.425
 21
137.7499999999998
 31
0.0
  0
LINE
  5
C6
330
153
100
AcDbEntity
  8
1
 62
     7
100
AcDbLine
 10
252.7249999999999
 20
137.8
 30
0.0
 11
250.7249999999999
 21
137.8
 31
0.0
  0
LINE
  5
C7
330
153
100
AcDbEntity
  8
1
 62
     7
100
AcDbLine
 10
252.425
 20
126.8
 30
0.0
 11
258.1749999999999
 21
126.8
 31
0.0
  0
LINE
  5
C8
330
153
100
AcDbEntity
  8
1
 62
     7
100
AcDbLine
 10
252.7249999999999
 20
137.8
 30
0.0
 11
252.7249999999999
 21
126.8
 31
0.0
  0
LINE
  5
C9
330
153
100
AcDbEntity
  8
1
 62
     7
100
AcDbLine
 10
261.175
 20
141.0
 30
0.0
 11
258.475
 21
141.0
 31
0.0
  0
LINE
  5
CA
330
153
100
AcDbEntity
  8
1
 62
     7
100
AcDbLine
 10
261.175
 20
141.0
 30
0.0
 11
261.175
 21
129.6499999999998
 31
0.0
  0
LINE
  5
CB
330
153
100
AcDbEntity
  8
1
 62
     3
100
AcDbLine
 10
268.3749999999999
 20
144.5
 30
0.0
 11
268.3749999999999
 21
135.4999999999998
 31
0.0
  0
LINE
  5
CC
330
153
100
AcDbEntity
  8
1
 62
     7
100
AcDbLine
 10
267.9959999999999
 20
144.5
 30
0.0
 11
267.9959999999999
 21
135.4999999999998
 31
0.0
  0
LINE
  5
CD
330
153
100
AcDbEntity
  8
1
 62
     7
100
AcDbLine
 10
264.754
 20
135.4999999999998
 30
0.0
 11
264.754
 21
144.5
 31
0.0
  0
LINE
  5
CE
330
153
100
AcDbEntity
  8
1
 62
     3
100
AcDbLine
 10
264.375
 20
144.5
 30
0.0
 11
264.375
 21
135.4999999999998
 31
0.0
  0
LINE
  5
CF
330
153
100
AcDbEntity
  8
1
  6
CENTER
 62
     3
100
AcDbLine
 10
266.3749999999999
 20
151.5
 30
0.0
 11
266.3749999999999
 21
134.4999999999998
 31
0.0
  0
LINE
  5
D0
330
153
100
AcDbEntity
  8
1
  6
DASHDOT
 62
     3
100
AcDbLine
 10
273.375
 20
148.5
 30
0.0
 11
263.375
 21
148.5
 31
0.0
  0
LINE
  5
D1
330
153
100
AcDbEntity
  8
1
  6
DASHDOT
 62
     3
100
AcDbLine
 10
230.6249999999999
 20
148.5
 30
0.0
 11
227.625
 21
148.5
 31
0.0
  0
LINE
  5
D2
330
153
100
AcDbEntity
  8
1
 62
     7
100
AcDbLine
 10
168.675
 20
160.8249999999999
 30
0.0
 11
169.175
 21
160.8249999999999
 31
0.0
  0
LINE
  5
D3
330
153
100
AcDbEntity
  8
1
 62
     7
100
AcDbLine
 10
168.675
 20
156.425
 30
0.0
 11
169.175
 21
156.425
 31
0.0
  0
LINE
  5
D4
330
153
100
AcDbEntity
  8
1
 62
     7
100
AcDbLine
 10
169.175
 20
160.8249999999999
 30
0.0
 11
169.175
 21
156.425
 31
0.0
  0
LINE
  5
D5
330
153
100
AcDbEntity
  8
1
 62
     7
100
AcDbLine
 10
258.1749999999999
 20
162.0
 30
0.0
 11
257.3249999999999
 21
161.15
 31
0.0
  0
LINE
  5
D6
330
153
100
AcDbEntity
  8
1
 62
     7
100
AcDbLine
 10
250.7249999999999
 20
157.5
 30
0.0
 11
257.3249999999999
 21
157.5
 31
0.0
  0
LINE
  5
D7
330
153
100
AcDbEntity
  8
1
 62
     7
100
AcDbLine
 10
257.3249999999999
 20
139.5
 30
0.0
 11
250.7249999999999
 21
139.5
 31
0.0
  0
LINE
  5
D8
330
153
100
AcDbEntity
  8
1
 62
     7
100
AcDbLine
 10
260.875
 20
129.6499999999998
 30
0.0
 11
261.175
 21
129.6499999999998
 31
0.0
  0
LINE
  5
D9
330
153
100
AcDbEntity
  8
1
 62
     7
100
AcDbLine
 10
260.875
 20
126.8499999999998
 30
0.0
 11
261.175
 21
126.8499999999998
 31
0.0
  0
LINE
  5
DA
330
153
100
AcDbEntity
  8
1
 62
     7
100
AcDbLine
 10
260.875
 20
129.6499999999998
 30
0.0
 11
260.875
 21
141.0
 31
0.0
  0
LINE
  5
DB
330
153
100
AcDbEntity
  8
1
 62
     7
100
AcDbLine
 10
261.175
 20
126.8499999999998
 30
0.0
 11
261.175
 21
126.0
 31
0.0
  0
LINE
  5
DC
330
153
100
AcDbEntity
  8
1
 62
     7
100
AcDbLine
 10
258.425
 20
138.25
 30
0.0
 11
260.875
 21
138.25
 31
0.0
  0
LINE
  5
DD
330
153
100
AcDbEntity
  8
1
 62
     7
100
AcDbLine
 10
230.6249999999999
 20
159.4999999999998
 30
0.0
 11
230.6249999999999
 21
171.6
 31
0.0
  0
LINE
  5
DE
330
153
100
AcDbEntity
  8
1
 62
     7
100
AcDbLine
 10
230.6249999999999
 20
137.5
 30
0.0
 11
230.6249999999999
 21
159.4999999999998
 31
0.0
  0
LINE
  5
DF
330
153
100
AcDbEntity
  8
1
 62
     7
100
AcDbLine
 10
232.025
 20
137.5
 30
0.0
 11
232.025
 21
159.4999999999998
 31
0.0
  0
LINE
  5
E0
330
153
100
AcDbEntity
  8
1
 62
     7
100
AcDbLine
 10
232.025
 20
159.4999999999998
 30
0.0
 11
232.025
 21
171.6
 31
0.0
  0
LINE
  5
E1
330
153
100
AcDbEntity
  8
1
 62
     7
100
AcDbLine
 10
232.975
 20
159.4999999999998
 30
0.0
 11
232.975
 21
137.5
 31
0.0
  0
LINE
  5
E2
330
153
100
AcDbEntity
  8
1
 62
     7
100
AcDbLine
 10
232.975
 20
137.5
 30
0.0
 11
232.975
 21
137.0
 31
0.0
  0
LINE
  5
E3
330
153
100
AcDbEntity
  8
1
 62
     7
100
AcDbLine
 10
234.125
 20
159.4999999999998
 30
0.0
 11
234.125
 21
137.5
 31
0.0
  0
LINE
  5
E4
330
153
100
AcDbEntity
  8
1
 62
     7
100
AcDbLine
 10
234.125
 20
137.5
 30
0.0
 11
234.125
 21
137.0
 31
0.0
  0
LINE
  5
E5
330
153
100
AcDbEntity
  8
1
 62
     7
100
AcDbLine
 10
250.7249999999999
 20
157.5
 30
0.0
 11
250.7249999999999
 21
139.5
 31
0.0
  0
LINE
  5
E6
330
153
100
AcDbEntity
  8
1
 62
     7
100
AcDbLine
 10
250.7249999999999
 20
139.5
 30
0.0
 11
250.7249999999999
 21
137.8
 31
0.0
  0
LINE
  5
E7
330
153
100
AcDbEntity
  8
1
 62
     7
100
AcDbLine
 10
257.3249999999999
 20
157.5
 30
0.0
 11
257.3249999999999
 21
139.5
 31
0.0
  0
LINE
  5
E8
330
153
100
AcDbEntity
  8
1
 62
     7
100
AcDbLine
 10
257.3249999999999
 20
139.5
 30
0.0
 11
257.3249999999999
 21
135.85
 31
0.0
  0
LINE
  5
E9
330
153
100
AcDbEntity
  8
1
 62
     7
100
AcDbLine
 10
258.1749999999999
 20
157.5
 30
0.0
 11
258.1749999999999
 21
139.5
 31
0.0
  0
LINE
  5
EA
330
153
100
AcDbEntity
  8
1
 62
     7
100
AcDbLine
 10
258.425
 20
157.5
 30
0.0
 11
258.425
 21
139.5
 31
0.0
  0
LINE
  5
EB
330
153
100
AcDbEntity
  8
1
 62
     7
100
AcDbLine
 10
258.1749999999999
 20
139.5
 30
0.0
 11
258.1749999999999
 21
125.5
 31
0.0
  0
LINE
  5
EC
330
153
100
AcDbEntity
  8
1
 62
     7
100
AcDbLine
 10
258.425
 20
139.5
 30
0.0
 11
258.425
 21
125.35
 31
0.0
  0
LINE
  5
ED
330
153
100
AcDbEntity
  8
1
 62
     7
100
AcDbLine
 10
258.475
 20
144.5
 30
0.0
 11
258.475
 21
141.0
 31
0.0
  0
LINE
  5
EE
330
153
100
AcDbEntity
  8
1
 62
     7
100
AcDbLine
 10
258.475
 20
152.2996710383926
 30
0.0
 11
258.475
 21
144.5
 31
0.0
  0
LINE
  5
EF
330
153
100
AcDbEntity
  8
1
 62
     7
100
AcDbLine
 10
270.3749999999999
 20
152.2996710383926
 30
0.0
 11
270.3749999999999
 21
144.5
 31
0.0
  0
LINE
  5
F0
330
153
100
AcDbEntity
  8
1
 62
     7
100
AcDbLine
 10
270.3749999999999
 20
144.5
 30
0.0
 11
270.3749999999999
 21
135.4999999999998
 31
0.0
  0
LINE
  5
F1
330
153
100
AcDbEntity
  8
1
 62
     3
100
AcDbLine
 10
238.525
 20
187.4999999999999
 30
0.0
 11
238.525
 21
190.4999999999999
 31
0.0
  0
LINE
  5
F2
330
153
100
AcDbEntity
  8
1
 62
     7
100
AcDbLine
 10
145.15
 20
187.4999999999999
 30
0.0
 11
146.9
 21
187.4999999999999
 31
0.0
  0
LINE
  5
F3
330
153
100
AcDbEntity
  8
1
 62
     3
100
AcDbLine
 10
145.69
 20
187.4999999999999
 30
0.0
 11
145.69
 21
190.4999999999999
 31
0.0
  0
LINE
  5
F4
330
153
100
AcDbEntity
  8
1
 62
     3
100
AcDbLine
 10
146.36
 20
190.4999999999999
 30
0.0
 11
146.36
 21
187.4999999999999
 31
0.0
  0
LINE
  5
F5
330
153
100
AcDbEntity
  8
1
 62
     3
100
AcDbLine
 10
146.025
 20
187.4999999999999
 30
0.0
 11
146.025
 21
190.4999999999999
 31
0.0
  0
LINE
  5
F6
330
153
100
AcDbEntity
  8
1
 62
     7
100
AcDbLine
 10
349.475
 20
187.4999999999999
 30
0.0
 11
352.975
 21
187.5
 31
0.0
  0
LINE
  5
F7
330
153
100
AcDbEntity
  8
1
 62
     3
100
AcDbLine
 10
350.015
 20
187.4999999999999
 30
0.0
 11
350.015
 21
190.4999999999999
 31
0.0
  0
LINE
  5
F8
330
153
100
AcDbEntity
  8
1
 62
     3
100
AcDbLine
 10
350.685
 20
190.4999999999999
 30
0.0
 11
350.685
 21
187.4999999999999
 31
0.0
  0
LINE
  5
F9
330
153
100
AcDbEntity
  8
1
 62
     3
100
AcDbLine
 10
350.35
 20
187.4999999999999
 30
0.0
 11
350.35
 21
190.4999999999999
 31
0.0
  0
LINE
  5
FA
330
153
100
AcDbEntity
  8
1
 62
     3
100
AcDbLine
 10
351.7649999999999
 20
187.4999999999999
 30
0.0
 11
351.7649999999999
 21
190.4999999999999
 31
0.0
  0
LINE
  5
FB
330
153
100
AcDbEntity
  8
1
 62
     3
100
AcDbLine
 10
352.4349999999998
 20
190.4999999999999
 30
0.0
 11
352.435
 21
187.4999999999999
 31
0.0
  0
LINE
  5
FC
330
153
100
AcDbEntity
  8
1
 62
     3
100
AcDbLine
 10
352.1
 20
187.4999999999999
 30
0.0
 11
352.1
 21
190.4999999999999
 31
0.0
  0
ARC
  5
FD
330
153
100
AcDbEntity
  8
1
 62
     7
100
AcDbCircle
 10
347.725
 20
165.135804759614
 30
0.0
 40
1.0
100
AcDbArc
 50
0.0
 51
101.8811560210058
  0
ARC
  5
FE
330
153
100
AcDbEntity
  8
1
 62
     7
100
AcDbCircle
 10
347.725
 20
162.0554417117259
 30
0.0
 40
1.000000000000031
100
AcDbArc
 50
284.4775121859294
 51
0.0
  0
ARC
  5
FF
330
153
100
AcDbEntity
  8
1
 62
     7
100
AcDbCircle
 10
337.7356431181261
 20
144.7533680573826
 30
0.0
 40
1.000000000000057
100
AcDbArc
 50
299.9999999999981
 51
15.52248781406836
  0
ARC
  5
100
330
153
100
AcDbEntity
  8
1
 62
     7
100
AcDbCircle
 10
335.067970465776
 20
143.2131865334384
 30
0.0
 40
1.000000000000011
100
AcDbArc
 50
198.1188439789879
 51
299.9999999999989
  0
ARC
  5
101
330
153
100
AcDbEntity
  8
1
 62
     7
100
AcDbCircle
 10
364.7143568818738
 20
144.7533680573826
 30
0.0
 40
1.000000000000025
100
AcDbArc
 50
164.4775121859308
 51
240.0000000000019
  0
ARC
  5
102
330
153
100
AcDbEntity
  8
1
 62
     7
100
AcDbCircle
 10
367.3820295342238
 20
143.2131865334384
 30
0.0
 40
1.000000000000031
100
AcDbArc
 50
240.0000000000011
 51
341.8811560210131
  0
ARC
  5
103
330
153
100
AcDbEntity
  8
1
 62
     7
100
AcDbCircle
 10
341.2356431181261
 20
138.6911902308914
 30
0.0
 40
1.000000000000049
100
AcDbArc
 50
44.47751218592578
 51
120.0000000000005
  0
ARC
  5
104
330
153
100
AcDbEntity
  8
1
 62
     7
100
AcDbCircle
 10
338.5679704657761
 20
137.1510087069474
 30
0.0
 40
0.9999999999999593
100
AcDbArc
 50
120.0000000000014
 51
221.8811560210077
  0
ARC
  5
105
330
153
100
AcDbEntity
  8
1
 62
     7
100
AcDbCircle
 10
354.725
 20
165.135804759614
 30
0.0
 40
1.000000000000051
100
AcDbArc
 50
78.11884397899091
 51
180.0
  0
ARC
  5
106
330
153
100
AcDbEntity
  8
1
 62
     7
100
AcDbCircle
 10
354.725
 20
162.0554417117259
 30
0.0
 40
1.0
100
AcDbArc
 50
180.0
 51
255.5224878140705
  0
ARC
  5
107
330
153
100
AcDbEntity
  8
1
 62
     7
100
AcDbCircle
 10
363.8820295342238
 20
137.1510087069474
 30
0.0
 40
1.000000000000087
100
AcDbArc
 50
318.1188439789967
 51
60.0000000000019
  0
ARC
  5
108
330
153
100
AcDbEntity
  8
1
 62
     7
100
AcDbCircle
 10
361.2143568818737
 20
138.6911902308914
 30
0.0
 40
0.9999999999999836
100
AcDbArc
 50
59.99999999999944
 51
135.522487814072
  0
ARC
  5
109
330
153
100
AcDbEntity
  8
1
 62
     7
100
AcDbCircle
 10
260.1358798583756
 20
160.4999999999998
 30
0.0
 40
1.0
100
AcDbArc
 50
90.0
 51
163.042236699992
  0
ARC
  5
10A
330
153
100
AcDbEntity
  8
1
 62
     7
100
AcDbCircle
 10
260.1358798583756
 20
157.0
 30
0.0
 40
1.000000000000057
100
AcDbArc
 50
196.9577633000058
 51
270.0
  0
ARC
  5
10B
330
153
100
AcDbEntity
  8
1
 62
     7
100
AcDbCircle
 10
260.575
 20
161.1999999999999
 30
0.0
 40
0.3000000000000114
100
AcDbArc
 50
0.0
 51
90.0
  0
ARC
  5
10C
330
153
100
AcDbEntity
  8
1
 62
     7
100
AcDbCircle
 10
351.225
 20
148.5
 30
0.0
 40
4.00000000000002
100
AcDbArc
 50
108.2099568642829
 51
71.79004313571709
  0
ARC
  5
10D
330
153
100
AcDbEntity
  8
1
 62
     7
100
AcDbCircle
 10
351.225
 20
148.5
 30
0.0
 40
18.00000000000001
100
AcDbArc
 50
101.8811560210103
 51
198.1188439789892
  0
ARC
  5
10E
330
153
100
AcDbEntity
  8
1
 62
     7
100
AcDbCircle
 10
351.225
 20
148.5
 30
0.0
 40
18.00000000000001
100
AcDbArc
 50
341.8811560210108
 51
78.11884397898936
  0
ARC
  5
10F
330
153
100
AcDbEntity
  8
1
 62
     7
100
AcDbCircle
 10
351.225
 20
148.5
 30
0.0
 40
18.0
100
AcDbArc
 50
221.8811560210105
 51
318.1188439789896
  0
ARC
  5
110
330
153
100
AcDbEntity
  8
1
 62
     7
100
AcDbCircle
 10
351.2250000000021
 20
148.4999999999979
 30
0.0
 40
32.24999999999996
100
AcDbArc
 50
44.2518781311158
 51
45.74812186889497
  0
ARC
  5
111
330
153
100
AcDbEntity
  8
1
 62
     7
100
AcDbCircle
 10
351.2250000000021
 20
148.500000000002
 30
0.0
 40
32.24999999999995
100
AcDbArc
 50
314.251878131105
 51
315.7481218688843
  0
ARC
  5
112
330
153
100
AcDbEntity
  8
1
 62
     7
100
AcDbCircle
 10
351.225
 20
148.5
 30
0.0
 40
32.25000000000004
100
AcDbArc
 50
224.2518781311105
 51
225.7481218688895
  0
ARC
  5
113
330
153
100
AcDbEntity
  8
1
 62
     7
100
AcDbCircle
 10
351.225
 20
148.5
 30
0.0
 40
32.25000000000004
100
AcDbArc
 50
134.2518781311104
 51
135.7481218688895
  0
ARC
  5
114
330
153
100
AcDbEntity
  8
1
 62
     7
100
AcDbCircle
 10
265.8749999999999
 20
158.75
 30
0.0
 40
6.99999999999993
100
AcDbArc
 50
163.0422366999953
 51
196.9577633000044
  0
ARC
  5
115
330
153
100
AcDbEntity
  8
1
  6
DASHDOT
 62
     3
100
AcDbCircle
 10
351.225
 20
148.5
 30
0.0
 40
27.99999999999997
100
AcDbArc
 50
38.34585809844396
 51
51.65414190155636
  0
ARC
  5
116
330
153
100
AcDbEntity
  8
1
  6
DASHDOT
 62
     3
100
AcDbCircle
 10
351.225
 20
148.5
 30
0.0
 40
28.00000000000006
100
AcDbArc
 50
128.3458580984438
 51
141.6541419015561
  0
ARC
  5
117
330
153
100
AcDbEntity
  8
1
  6
DASHDOT
 62
     3
100
AcDbCircle
 10
351.225
 20
148.5
 30
0.0
 40
28.00000000000006
100
AcDbArc
 50
218.3458580984437
 51
231.6541419015561
  0
ARC
  5
118
330
153
100
AcDbEntity
  8
1
  6
DASHDOT
 62
     3
100
AcDbCircle
 10
351.225
 20
148.5
 30
0.0
 40
27.99999999999988
100
AcDbArc
 50
308.3458580984436
 51
321.6541419015559
  0
CIRCLE
  5
119
330
153
100
AcDbEntity
  8
1
 62
     7
100
AcDbCircle
 10
266.3749999999999
 20
148.5
 30
0.0
 40
1.62099999999998
  0
CIRCLE
  5
11A
330
153
100
AcDbEntity
  8
1
 62
     7
100
AcDbCircle
 10
360.1017603887905
 20
143.375
 30
0.0
 40
1.229499999999859
  0
CIRCLE
  5
11B
330
153
100
AcDbEntity
  8
1
 62
     7
100
AcDbCircle
 10
342.3482396112094
 20
143.375
 30
0.0
 40
1.229499999999859
  0
CIRCLE
  5
11C
330
153
100
AcDbEntity
  8
1
 62
     7
100
AcDbCircle
 10
351.225
 20
158.75
 30
0.0
 40
1.229499999999972
  0
CIRCLE
  5
11D
330
153
100
AcDbEntity
  8
1
 62
     3
100
AcDbCircle
 10
360.1017603887905
 20
143.375
 30
0.0
 40
1.500000000000055
  0
CIRCLE
  5
11E
330
153
100
AcDbEntity
  8
1
 62
     3
100
AcDbCircle
 10
342.3482396112094
 20
143.375
 30
0.0
 40
1.500000000000055
  0
CIRCLE
  5
11F
330
153
100
AcDbEntity
  8
1
 62
     3
100
AcDbCircle
 10
351.225
 20
158.75
 30
0.0
 40
1.5
  0
CIRCLE
  5
120
330
153
100
AcDbEntity
  8
1
 62
     7
100
AcDbCircle
 10
368.7620144266348
 20
158.6249999999998
 30
0.0
 40
2.19999999999993
  0
CIRCLE
  5
121
330
153
100
AcDbEntity
  8
1
 62
     7
100
AcDbCircle
 10
333.6879855733652
 20
158.6249999999998
 30
0.0
 40
2.199999999999988
  0
CIRCLE
  5
122
330
153
100
AcDbEntity
  8
1
 62
     7
100
AcDbCircle
 10
351.225
 20
128.2499999999998
 30
0.0
 40
2.199999999999988
  0
CIRCLE
  5
123
330
153
100
AcDbEntity
  8
1
 62
     7
100
AcDbCircle
 10
351.225
 20
148.5
 30
0.0
 40
22.5
  0
CIRCLE
  5
124
330
153
100
AcDbEntity
  8
1
 62
     7
100
AcDbCircle
 10
371.0239898732233
 20
168.2989898732231
 30
0.0
 40
2.25
  0
CIRCLE
  5
125
330
153
100
AcDbEntity
  8
1
 62
     7
100
AcDbCircle
 10
371.0239898732233
 20
128.7010101267767
 30
0.0
 40
2.25
  0
CIRCLE
  5
126
330
153
100
AcDbEntity
  8
1
 62
     7
100
AcDbCircle
 10
331.4260101267766
 20
128.7010101267767
 30
0.0
 40
2.25
  0
CIRCLE
  5
127
330
153
100
AcDbEntity
  8
1
 62
     7
100
AcDbCircle
 10
331.4260101267766
 20
168.2989898732231
 30
0.0
 40
2.25
  0
CIRCLE
  5
128
330
153
100
AcDbEntity
  8
1
 62
     7
100
AcDbCircle
 10
351.225
 20
148.5
 30
0.0
 40
23.14999999999986
  0
CIRCLE
  5
129
330
153
100
AcDbEntity
  8
1
 62
     3
100
AcDbCircle
 10
266.3749999999999
 20
148.5
 30
0.0
 40
2.0
  0
CIRCLE
  5
12A
330
153
100
AcDbEntity
  8
1
 62
     7
100
AcDbCircle
 10
351.225
 20
148.5
 30
0.0
 40
13.0
  0
TEXT
  5
12C
330
153
100
AcDbEntity
  8
1
 62
     7
100
AcDbText
 10
146.7289795798619
 20
213.026293743372
 30
0.0
 40
3.5
  1
AMB 10
 41
0.9
  7
SIMPLEX
100
AcDbText
  0
ENDSEC
  0
SECTION
  2
OBJECTS
  0
DICTIONARY
  5
13F
330
0
100
AcDbDictionary
281
     1
  3
ACAD_COLOR
350
14E
  3
ACAD_GROUP
350
140
  3
ACAD_LAYOUT
350
14C
  3
ACAD_MATERIAL
350
14D
  3
ACAD_MLINESTYLE
350
149
  3
ACAD_PLOTSETTINGS
350
14B
  3
ACAD_PLOTSTYLENAME
350
141
  0
DICTIONARY
  5
14E
102
{ACAD_REACTORS
330
13F
102
}
330
13F
100
AcDbDictionary
281
     1
  0
DICTIONARY
  5
140
102
{ACAD_REACTORS
330
13F
102
}
330
13F
100
AcDbDictionary
281
     1
  0
DICTIONARY
  5
14C
102
{ACAD_REACTORS
330
13F
102
}
330
13F
100
AcDbDictionary
281
     1
  3
Layout1
350
152
  3
Model
350
156
  0
DICTIONARY
  5
14D
102
{ACAD_REACTORS
330
13F
102
}
330
13F
100
AcDbDictionary
281
     1
  0
DICTIONARY
  5
149
102
{ACAD_REACTORS
330
13F
102
}
330
13F
100
AcDbDictionary
281
     1
  3
Standard
350
14A
  0
DICTIONARY
  5
14B
102
{ACAD_REACTORS
330
13F
102
}
330
13F
100
AcDbDictionary
281
     1
  0
ACDBDICTIONARYWDFLT
  5
141
102
{ACAD_REACTORS
330
13F
102
}
330
13F
100
AcDbDictionary
281
     1
  3
Normal
350
142
100
AcDbDictionaryWithDefault
340
142
  0
LAYOUT
  5
152
102
{ACAD_REACTORS
330
14C
102
}
330
14C
100
AcDbPlotSettings
  1

  2
Microsoft Office Document Image Writer
  4

  6

 40
0.0
 41
0.0
 42
0.0
 43
0.0
 44
0.0
 45
0.0
 46
0.0
 47
0.0
 48
0.0
 49
0.0
140
0.0
141
0.0
142
1.0
143
1.0
 70
   688
 72
     0
 73
     0
 74
     5
  7

 75
    16
147
1.0
 76
     0
 77
     2
 78
   300
148
0.0
149
0.0
100
AcDbLayout
  1
Layout1
 70
     1
 71
     1
 10
0.0
 20
0.0
 11
12.0
 21
9.0
 12
0.0
 22
0.0
 32
0.0
 14
1.000000000000000E+20
 24
1.000000000000000E+20
 34
1.000000000000000E+20
 15
-1.000000000000000E+20
 25
-1.000000000000000E+20
 35
-1.000000000000000E+20
146
0.0
 13
0.0
 23
0.0
 33
0.0
 16
1.0
 26
0.0
 36
0.0
 17
0.0
 27
1.0
 37
0.0
 76
     0
330
14F
  0
LAYOUT
  5
156
102
{ACAD_REACTORS
330
14C
102
}
330
14C
100
AcDbPlotSettings
  1

  2
Microsoft Office Document Image Writer
  4

  6

 40
0.0
 41
0.0
 42
0.0
 43
0.0
 44
0.0
 45
0.0
 46
0.0
 47
0.0
 48
0.0
 49
0.0
140
0.0
141
0.0
142
1.0
143
1.0
 70
  1712
 72
     0
 73
     0
 74
     0
  7

 75
     0
147
1.0
 76
     0
 77
     2
 78
   300
148
0.0
149
0.0
100
AcDbLayout
  1
Model
 70
     1
 71
     0
 10
0.0
 20
0.0
 11
12.0
 21
9.0
 12
0.0
 22
0.0
 32
0.0
 14
0.0
 24
0.0
 34
0.0
 15
0.0
 25
0.0
 35
0.0
146
0.0
 13
0.0
 23
0.0
 33
0.0
 16
1.0
 26
0.0
 36
0.0
 17
0.0
 27
1.0
 37
0.0
 76
     0
330
153
  0
MLINESTYLE
  5
14A
102
{ACAD_REACTORS
330
149
102
}
330
149
100
AcDbMlineStyle
  2
STANDARD
 70
     0
  3

 62
   256
 51
90.0
 52
90.0
 71
     2
 49
0.5
 62
   256
  6
BYLAYER
 49
-0.5
 62
   256
  6
BYLAYER
  0
ACDBPLACEHOLDER
  5
142
102
{ACAD_REACTORS
330
141
102
}
330
141
  0
ENDSEC
  0
EOF
